ISO-10303-21;
HEADER;
FILE_DESCRIPTION (( 'STEP AP214' ),
    '1' );
FILE_NAME ('84583.STEP',
    '2023-07-12T13:08:24',
    ( '' ),
    ( '' ),
    'SwSTEP 2.0',
    'SolidWorks 2023',
    '' );
FILE_SCHEMA (( 'AUTOMOTIVE_DESIGN' ));
ENDSEC;

DATA;
#1 = UNCERTAINTY_MEASURE_WITH_UNIT (LENGTH_MEASURE( 1.000000000000000082E-05 ), #287, 'distance_accuracy_value', 'NONE');
#2 = CIRCLE ( 'NONE', #97, 0.06249999999999981959 ) ;
#3 =( GEOMETRIC_REPRESENTATION_CONTEXT ( 3 ) GLOBAL_UNCERTAINTY_ASSIGNED_CONTEXT ( ( #1 ) ) GLOBAL_UNIT_ASSIGNED_CONTEXT ( ( #287, #186, #165 ) ) REPRESENTATION_CONTEXT ( 'NONE', 'WORKASPACE' ) );
#4 = PRESENTATION_STYLE_ASSIGNMENT (( #216 ) ) ;
#5 = EDGE_CURVE ( 'NONE', #197, #235, #65, .T. ) ;
#6 =( NAMED_UNIT ( * ) SI_UNIT ( $, .STERADIAN. ) SOLID_ANGLE_UNIT ( ) );
#7 = CIRCLE ( 'NONE', #47, 0.06250000000000000000 ) ;
#8 = CARTESIAN_POINT ( 'NONE',  ( -0.06249999999999963918, 0.04889065730689283462, 0.000000000000000000 ) ) ;
#9 = EDGE_CURVE ( 'NONE', #102, #202, #7, .T. ) ;
#10 = DIRECTION ( 'NONE',  ( -1.000000000000000000, -4.846530102532920424E-33, 0.000000000000000000 ) ) ;
#11 = CARTESIAN_POINT ( 'NONE',  ( 0.02000000000000000042, 0.000000000000000000, 5.051668046482830809E-18 ) ) ;
#12 = LENGTH_MEASURE_WITH_UNIT ( LENGTH_MEASURE( 0.02539999999999999897 ), #136 );
#13 = EDGE_LOOP ( 'NONE', ( #257, #301 ) ) ;
#14 = SURFACE_STYLE_USAGE ( .BOTH. , #279 ) ;
#15 = CARTESIAN_POINT ( 'NONE',  ( -2.369500423704768160E-34, 0.04889065730689275829, 0.000000000000000000 ) ) ;
#16 = CIRCLE ( 'NONE', #263, 0.02000000000000000042 ) ;
#17 = CARTESIAN_POINT ( 'NONE',  ( 0.06249999999999999306, 0.04889065730689275829, 7.654042494670957545E-18 ) ) ;
#18 = DIMENSIONAL_EXPONENTS ( 1.000000000000000000, 0.000000000000000000, 0.000000000000000000, 0.000000000000000000, 0.000000000000000000, 0.000000000000000000, 0.000000000000000000 ) ;
#19 = ORIENTED_EDGE ( 'NONE', *, *, #135, .F. ) ;
#20 = PRODUCT_RELATED_PRODUCT_CATEGORY ( 'part', '', ( #111 ) ) ;
#21 = FILL_AREA_STYLE_COLOUR ( '', #106 ) ;
#22 = PLANE ( 'NONE',  #145 ) ;
#23 = FILL_AREA_STYLE_COLOUR ( '', #66 ) ;
#24 = VECTOR ( 'NONE', #54, 39.37007874015748143 ) ;
#25 = STYLED_ITEM ( 'NONE', ( #230 ), #306 ) ;
#26 = PRESENTATION_STYLE_ASSIGNMENT (( #118 ) ) ;
#27 = EDGE_LOOP ( 'NONE', ( #153, #151, #63, #79 ) ) ;
#28 = AXIS2_PLACEMENT_3D ( 'NONE', #96, #192, #93 ) ;
#29 = FILL_AREA_STYLE_COLOUR ( '', #221 ) ;
#30 = CARTESIAN_POINT ( 'NONE',  ( -0.06249999999999986816, 1.500000000000000222, 0.000000000000000000 ) ) ;
#31 = CARTESIAN_POINT ( 'NONE',  ( 1.777096411741933493E-16, 0.04889065730689284156, 0.000000000000000000 ) ) ;
#32 = ORIENTED_EDGE ( 'NONE', *, *, #293, .F. ) ;
#33 =( NAMED_UNIT ( * ) PLANE_ANGLE_UNIT ( ) SI_UNIT ( $, .RADIAN. ) );
#34 = ORIENTED_EDGE ( 'NONE', *, *, #180, .F. ) ;
#35 = DIRECTION ( 'NONE',  ( 1.000000000000000000, 0.000000000000000000, 0.000000000000000000 ) ) ;
#36 = DIRECTION ( 'NONE',  ( -1.000000000000000000, 0.000000000000000000, 0.000000000000000000 ) ) ;
#37 =( NAMED_UNIT ( * ) SI_UNIT ( $, .STERADIAN. ) SOLID_ANGLE_UNIT ( ) );
#38 = DIRECTION ( 'NONE',  ( -8.026776328285230384E-17, 1.000000000000000000, -0.000000000000000000 ) ) ;
#39 = STYLED_ITEM ( 'NONE', ( #26 ), #159 ) ;
#40 =( GEOMETRIC_REPRESENTATION_CONTEXT ( 3 ) GLOBAL_UNCERTAINTY_ASSIGNED_CONTEXT ( ( #44 ) ) GLOBAL_UNIT_ASSIGNED_CONTEXT ( ( #55, #109, #173 ) ) REPRESENTATION_CONTEXT ( 'NONE', 'WORKASPACE' ) );
#41 = DIRECTION ( 'NONE',  ( -8.026776328285230384E-17, 1.000000000000000000, -0.000000000000000000 ) ) ;
#42 = LENGTH_MEASURE_WITH_UNIT ( LENGTH_MEASURE( 0.02539999999999999897 ), #210 );
#43 = EDGE_CURVE ( 'NONE', #133, #253, #2, .T. ) ;
#44 = UNCERTAINTY_MEASURE_WITH_UNIT (LENGTH_MEASURE( 1.000000000000000082E-05 ), #55, 'distance_accuracy_value', 'NONE');
#45 = FILL_AREA_STYLE ('',( #21 ) ) ;
#46 = SURFACE_STYLE_FILL_AREA ( #52 ) ;
#47 = AXIS2_PLACEMENT_3D ( 'NONE', #15, #284, #307 ) ;
#48 = AXIS2_PLACEMENT_3D ( 'NONE', #132, #61, #299 ) ;
#49 = CARTESIAN_POINT ( 'NONE',  ( 1.777096411741933493E-16, 0.04889065730689275829, 0.000000000000000000 ) ) ;
#50 = LINE ( 'NONE', #150, #24 ) ;
#51 = PRESENTATION_LAYER_ASSIGNMENT (  '', '', ( #138 ) ) ;
#52 = FILL_AREA_STYLE ('',( #71 ) ) ;
#53 = ORIENTED_EDGE ( 'NONE', *, *, #162, .F. ) ;
#54 = DIRECTION ( 'NONE',  ( -0.6560590289905083861, 0.7547095802227710148, 0.000000000000000000 ) ) ;
#55 =( CONVERSION_BASED_UNIT ( 'INCH', #76 ) LENGTH_UNIT ( ) NAMED_UNIT ( #127 ) );
#56 = VERTEX_POINT ( 'NONE', #11 ) ;
#57 = EDGE_CURVE ( 'NONE', #276, #56, #244, .T. ) ;
#58 = AXIS2_PLACEMENT_3D ( 'NONE', #182, #271, #269 ) ;
#59 = DIRECTION ( 'NONE',  ( -8.026776328285230384E-17, 1.000000000000000000, -0.000000000000000000 ) ) ;
#60 = CARTESIAN_POINT ( 'NONE',  ( -0.02000000000000000042, -1.938612041013168135E-34, 0.000000000000000000 ) ) ;
#61 = DIRECTION ( 'NONE',  ( 4.846530102532920424E-33, -1.000000000000000000, -0.000000000000000000 ) ) ;
#62 = CYLINDRICAL_SURFACE ( 'NONE', #64, 0.06249999999999988204 ) ;
#63 = ORIENTED_EDGE ( 'NONE', *, *, #162, .T. ) ;
#64 = AXIS2_PLACEMENT_3D ( 'NONE', #157, #38, #234 ) ;
#65 = CIRCLE ( 'NONE', #144, 0.06249999999999993061 ) ;
#66 = COLOUR_RGB ( '',1.000000000000000000, 0.000000000000000000, 0.000000000000000000 ) ;
#67 = PRODUCT_DEFINITION ( 'UNKNOWN', '', #139, #247 ) ;
#68 =( NAMED_UNIT ( * ) SI_UNIT ( $, .STERADIAN. ) SOLID_ANGLE_UNIT ( ) );
#69 = COLOUR_RGB ( '',1.000000000000000000, 0.000000000000000000, 0.000000000000000000 ) ;
#70 = AXIS2_PLACEMENT_3D ( 'NONE', #275, #255, #35 ) ;
#71 = FILL_AREA_STYLE_COLOUR ( '', #258 ) ;
#72 = LINE ( 'NONE', #194, #125 ) ;
#73 = FACE_OUTER_BOUND ( 'NONE', #281, .T. ) ;
#74 = ORIENTED_EDGE ( 'NONE', *, *, #180, .T. ) ;
#75 =( CONVERSION_BASED_UNIT ( 'INCH', #98 ) LENGTH_UNIT ( ) NAMED_UNIT ( #282 ) );
#76 = LENGTH_MEASURE_WITH_UNIT ( LENGTH_MEASURE( 0.02539999999999999897 ), #249 );
#77 = ORIENTED_EDGE ( 'NONE', *, *, #90, .T. ) ;
#78 = FILL_AREA_STYLE_COLOUR ( '', #69 ) ;
#79 = ORIENTED_EDGE ( 'NONE', *, *, #5, .F. ) ;
#80 = DIMENSIONAL_EXPONENTS ( 1.000000000000000000, 0.000000000000000000, 0.000000000000000000, 0.000000000000000000, 0.000000000000000000, 0.000000000000000000, 0.000000000000000000 ) ;
#81 = CARTESIAN_POINT ( 'NONE',  ( 6.123233995736763571E-17, 1.500000000000000222, 0.000000000000000000 ) ) ;
#82 = APPLICATION_PROTOCOL_DEFINITION ( 'draft international standard', 'automotive_design', 1998, #254 ) ;
#83 = LINE ( 'NONE', #178, #241 ) ;
#84 = DIRECTION ( 'NONE',  ( -8.026776328285230384E-17, 1.000000000000000000, -0.000000000000000000 ) ) ;
#85 = ORIENTED_EDGE ( 'NONE', *, *, #57, .T. ) ;
#86 =( NAMED_UNIT ( * ) PLANE_ANGLE_UNIT ( ) SI_UNIT ( $, .RADIAN. ) );
#87 = UNCERTAINTY_MEASURE_WITH_UNIT (LENGTH_MEASURE( 1.000000000000000082E-05 ), #268, 'distance_accuracy_value', 'NONE');
#88 = PRESENTATION_LAYER_ASSIGNMENT (  '', '', ( #92 ) ) ;
#89 = DIMENSIONAL_EXPONENTS ( 1.000000000000000000, 0.000000000000000000, 0.000000000000000000, 0.000000000000000000, 0.000000000000000000, 0.000000000000000000, 0.000000000000000000 ) ;
#90 = EDGE_CURVE ( 'NONE', #253, #197, #83, .T. ) ;
#91 = CARTESIAN_POINT ( 'NONE',  ( 0.02000000000000000042, 0.000000000000000000, 2.449293598294706769E-18 ) ) ;
#92 = STYLED_ITEM ( 'NONE', ( #4 ), #161 ) ;
#93 = DIRECTION ( 'NONE',  ( 1.000000000000000000, 0.000000000000000000, 0.000000000000000000 ) ) ;
#94 = CLOSED_SHELL ( 'NONE', ( #264, #289, #116, #306 ) ) ;
#95 = ADVANCED_FACE ( 'NONE', ( #200 ), #62, .T. ) ;
#96 = CARTESIAN_POINT ( 'NONE',  ( -2.369500423704768160E-34, 0.04889065730689275829, 0.000000000000000000 ) ) ;
#97 = AXIS2_PLACEMENT_3D ( 'NONE', #300, #305, #286 ) ;
#98 = LENGTH_MEASURE_WITH_UNIT ( LENGTH_MEASURE( 0.02539999999999999897 ), #206 );
#99 = DIRECTION ( 'NONE',  ( -1.000000000000000000, -1.365923996832135554E-16, 0.000000000000000000 ) ) ;
#100 = CARTESIAN_POINT ( 'NONE',  ( 4.697770806951551639E-67, -9.693060205065840677E-35, 0.000000000000000000 ) ) ;
#101 = FACE_OUTER_BOUND ( 'NONE', #27, .T. ) ;
#102 = VERTEX_POINT ( 'NONE', #17 ) ;
#103 = DIRECTION ( 'NONE',  ( 8.026776328285230384E-17, -1.000000000000000000, 0.000000000000000000 ) ) ;
#104 = FILL_AREA_STYLE_COLOUR ( '', #309 ) ;
#105 = DIRECTION ( 'NONE',  ( 4.846530102532920424E-33, -1.000000000000000000, -0.000000000000000000 ) ) ;
#106 = COLOUR_RGB ( '',1.000000000000000000, 0.000000000000000000, 0.000000000000000000 ) ;
#107 = MECHANICAL_DESIGN_GEOMETRIC_PRESENTATION_REPRESENTATION (  '', ( #148 ), #3 ) ;
#108 = PRESENTATION_STYLE_ASSIGNMENT (( #14 ) ) ;
#109 =( NAMED_UNIT ( * ) PLANE_ANGLE_UNIT ( ) SI_UNIT ( $, .RADIAN. ) );
#110 = CARTESIAN_POINT ( 'NONE',  ( 6.123233995736763571E-17, 1.500000000000000222, 0.000000000000000000 ) ) ;
#111 = PRODUCT ( '84583', '84583', '', ( #304 ) ) ;
#112 = SURFACE_STYLE_FILL_AREA ( #45 ) ;
#113 =( GEOMETRIC_REPRESENTATION_CONTEXT ( 3 ) GLOBAL_UNCERTAINTY_ASSIGNED_CONTEXT ( ( #168 ) ) GLOBAL_UNIT_ASSIGNED_CONTEXT ( ( #75, #33, #129 ) ) REPRESENTATION_CONTEXT ( 'NONE', 'WORKASPACE' ) );
#114 = EDGE_CURVE ( 'NONE', #235, #197, #171, .T. ) ;
#115 = PRESENTATION_STYLE_ASSIGNMENT (( #214 ) ) ;
#116 = ADVANCED_FACE ( 'NONE', ( #240 ), #183, .T. ) ;
#117 = MECHANICAL_DESIGN_GEOMETRIC_PRESENTATION_REPRESENTATION (  '', ( #138 ), #185 ) ;
#118 = SURFACE_STYLE_USAGE ( .BOTH. , #149 ) ;
#119 =( CONVERSION_BASED_UNIT ( 'INCH', #147 ) LENGTH_UNIT ( ) NAMED_UNIT ( #290 ) );
#120 = CIRCLE ( 'NONE', #28, 0.06250000000000000000 ) ;
#121 = ORIENTED_EDGE ( 'NONE', *, *, #43, .T. ) ;
#122 = PLANE ( 'NONE',  #204 ) ;
#123 = EDGE_CURVE ( 'NONE', #56, #276, #16, .T. ) ;
#124 = CARTESIAN_POINT ( 'NONE',  ( 0.06249999999999999306, 0.04889065730689284850, 7.654042494670946760E-18 ) ) ;
#125 = VECTOR ( 'NONE', #59, 39.37007874015748143 ) ;
#126 = ORIENTED_EDGE ( 'NONE', *, *, #135, .T. ) ;
#127 = DIMENSIONAL_EXPONENTS ( 1.000000000000000000, 0.000000000000000000, 0.000000000000000000, 0.000000000000000000, 0.000000000000000000, 0.000000000000000000, 0.000000000000000000 ) ;
#128 = ADVANCED_BREP_SHAPE_REPRESENTATION ( '84583', ( #159, #161, #70 ), #40 ) ;
#129 =( NAMED_UNIT ( * ) SI_UNIT ( $, .STERADIAN. ) SOLID_ANGLE_UNIT ( ) );
#130 = SURFACE_STYLE_USAGE ( .BOTH. , #280 ) ;
#131 = ORIENTED_EDGE ( 'NONE', *, *, #123, .F. ) ;
#132 = CARTESIAN_POINT ( 'NONE',  ( 2.348885403475775820E-67, -4.846530102532920338E-35, 0.000000000000000000 ) ) ;
#133 = VERTEX_POINT ( 'NONE', #8 ) ;
#134 = UNCERTAINTY_MEASURE_WITH_UNIT (LENGTH_MEASURE( 1.000000000000000082E-05 ), #119, 'distance_accuracy_value', 'NONE');
#135 = EDGE_CURVE ( 'NONE', #202, #102, #120, .T. ) ;
#136 =( LENGTH_UNIT ( ) NAMED_UNIT ( * ) SI_UNIT ( $, .METRE. ) );
#137 = ORIENTED_EDGE ( 'NONE', *, *, #123, .T. ) ;
#138 = STYLED_ITEM ( 'NONE', ( #260 ), #116 ) ;
#139 = PRODUCT_DEFINITION_FORMATION_WITH_SPECIFIED_SOURCE ( 'ANY', '', #111, .NOT_KNOWN. ) ;
#140 = DIRECTION ( 'NONE',  ( -8.026776328285230384E-17, 1.000000000000000000, -0.000000000000000000 ) ) ;
#141 = FACE_OUTER_BOUND ( 'NONE', #228, .T. ) ;
#142 = VECTOR ( 'NONE', #211, 39.37007874015748143 ) ;
#143 = SURFACE_STYLE_USAGE ( .BOTH. , #215 ) ;
#144 = AXIS2_PLACEMENT_3D ( 'NONE', #225, #256, #36 ) ;
#145 = AXIS2_PLACEMENT_3D ( 'NONE', #199, #207, #10 ) ;
#146 =( LENGTH_UNIT ( ) NAMED_UNIT ( * ) SI_UNIT ( $, .METRE. ) );
#147 = LENGTH_MEASURE_WITH_UNIT ( LENGTH_MEASURE( 0.02539999999999999897 ), #170 );
#148 = STYLED_ITEM ( 'NONE', ( #115 ), #289 ) ;
#149 = SURFACE_SIDE_STYLE ('',( #294 ) ) ;
#150 = CARTESIAN_POINT ( 'NONE',  ( -0.02000000000000000042, -1.938612041013168135E-34, 0.000000000000000000 ) ) ;
#151 = ORIENTED_EDGE ( 'NONE', *, *, #293, .T. ) ;
#152 =( GEOMETRIC_REPRESENTATION_CONTEXT ( 3 ) GLOBAL_UNCERTAINTY_ASSIGNED_CONTEXT ( ( #134 ) ) GLOBAL_UNIT_ASSIGNED_CONTEXT ( ( #119, #292, #273 ) ) REPRESENTATION_CONTEXT ( 'NONE', 'WORKASPACE' ) );
#153 = ORIENTED_EDGE ( 'NONE', *, *, #90, .F. ) ;
#154 = ORIENTED_EDGE ( 'NONE', *, *, #57, .F. ) ;
#155 = ADVANCED_FACE ( 'NONE', ( #190 ), #266, .F. ) ;
#156 = CARTESIAN_POINT ( 'NONE',  ( 0.06249999999999999306, 1.500000000000000222, 0.000000000000000000 ) ) ;
#157 = CARTESIAN_POINT ( 'NONE',  ( 6.123233995736763571E-17, 1.500000000000000222, 0.000000000000000000 ) ) ;
#158 = SURFACE_STYLE_FILL_AREA ( #308 ) ;
#159 = MANIFOLD_SOLID_BREP ( 'Revolve - Cutting Edge', #94 ) ;
#160 = ORIENTED_EDGE ( 'NONE', *, *, #114, .F. ) ;
#161 = MANIFOLD_SOLID_BREP ( 'Revolve - Tool Body (Tipped Off)', #212 ) ;
#162 = EDGE_CURVE ( 'NONE', #133, #235, #72, .T. ) ;
#163 =( LENGTH_UNIT ( ) NAMED_UNIT ( * ) SI_UNIT ( $, .METRE. ) );
#164 = AXIS2_PLACEMENT_3D ( 'NONE', #49, #218, #169 ) ;
#165 =( NAMED_UNIT ( * ) SI_UNIT ( $, .STERADIAN. ) SOLID_ANGLE_UNIT ( ) );
#166 = DIRECTION ( 'NONE',  ( 1.000000000000000000, 4.846530102532920424E-33, 0.000000000000000000 ) ) ;
#167 = LENGTH_MEASURE_WITH_UNIT ( LENGTH_MEASURE( 0.02539999999999999897 ), #146 );
#168 = UNCERTAINTY_MEASURE_WITH_UNIT (LENGTH_MEASURE( 1.000000000000000082E-05 ), #75, 'distance_accuracy_value', 'NONE');
#169 = DIRECTION ( 'NONE',  ( -1.000000000000000000, -8.026776328285230384E-17, 0.000000000000000000 ) ) ;
#170 =( LENGTH_UNIT ( ) NAMED_UNIT ( * ) SI_UNIT ( $, .METRE. ) );
#171 = CIRCLE ( 'NONE', #288, 0.06249999999999993061 ) ;
#172 = AXIS2_PLACEMENT_3D ( 'NONE', #31, #84, #99 ) ;
#173 =( NAMED_UNIT ( * ) SI_UNIT ( $, .STERADIAN. ) SOLID_ANGLE_UNIT ( ) );
#174 =( CONVERSION_BASED_UNIT ( 'INCH', #12 ) LENGTH_UNIT ( ) NAMED_UNIT ( #18 ) );
#175 = EDGE_LOOP ( 'NONE', ( #131, #250, #208, #34 ) ) ;
#176 = DIRECTION ( 'NONE',  ( -1.000000000000000000, 0.000000000000000000, 0.000000000000000000 ) ) ;
#177 = EDGE_LOOP ( 'NONE', ( #205, #154, #74, #126 ) ) ;
#178 = CARTESIAN_POINT ( 'NONE',  ( 0.06249999999999993755, 1.500000000000000222, 7.654042494670943678E-18 ) ) ;
#179 = DIRECTION ( 'NONE',  ( 1.000000000000000000, 4.846530102532920424E-33, 0.000000000000000000 ) ) ;
#180 = EDGE_CURVE ( 'NONE', #276, #202, #50, .T. ) ;
#181 = LENGTH_MEASURE_WITH_UNIT ( LENGTH_MEASURE( 0.02539999999999999897 ), #163 );
#182 = CARTESIAN_POINT ( 'NONE',  ( 4.697770806951551639E-67, -9.693060205065840677E-35, 0.000000000000000000 ) ) ;
#183 = CONICAL_SURFACE ( 'NONE', #58, 0.02000000000000000042, 0.7155849933176765543 ) ;
#184 = UNCERTAINTY_MEASURE_WITH_UNIT (LENGTH_MEASURE( 1.000000000000000082E-05 ), #174, 'distance_accuracy_value', 'NONE');
#185 =( GEOMETRIC_REPRESENTATION_CONTEXT ( 3 ) GLOBAL_UNCERTAINTY_ASSIGNED_CONTEXT ( ( #261 ) ) GLOBAL_UNIT_ASSIGNED_CONTEXT ( ( #262, #86, #68 ) ) REPRESENTATION_CONTEXT ( 'NONE', 'WORKASPACE' ) );
#186 =( NAMED_UNIT ( * ) PLANE_ANGLE_UNIT ( ) SI_UNIT ( $, .RADIAN. ) );
#187 = FILL_AREA_STYLE ('',( #29 ) ) ;
#188 = CONICAL_SURFACE ( 'NONE', #278, 0.02000000000000000042, 0.7155849933176765543 ) ;
#189 =( GEOMETRIC_REPRESENTATION_CONTEXT ( 3 ) GLOBAL_UNCERTAINTY_ASSIGNED_CONTEXT ( ( #184 ) ) GLOBAL_UNIT_ASSIGNED_CONTEXT ( ( #174, #246, #37 ) ) REPRESENTATION_CONTEXT ( 'NONE', 'WORKASPACE' ) );
#190 = FACE_OUTER_BOUND ( 'NONE', #297, .T. ) ;
#191 = ADVANCED_FACE ( 'NONE', ( #201 ), #122, .F. ) ;
#192 = DIRECTION ( 'NONE',  ( 4.846530102532920424E-33, -1.000000000000000000, -0.000000000000000000 ) ) ;
#193 = PRESENTATION_LAYER_ASSIGNMENT (  '', '', ( #238 ) ) ;
#194 = CARTESIAN_POINT ( 'NONE',  ( -0.06249999999999981959, 1.500000000000000222, 0.000000000000000000 ) ) ;
#195 = PRESENTATION_LAYER_ASSIGNMENT (  '', '', ( #148 ) ) ;
#196 = FILL_AREA_STYLE ('',( #104 ) ) ;
#197 = VERTEX_POINT ( 'NONE', #248 ) ;
#198 = CARTESIAN_POINT ( 'NONE',  ( -0.06249999999999999306, 0.04889065730689275829, 0.000000000000000000 ) ) ;
#199 = CARTESIAN_POINT ( 'NONE',  ( -2.369500423704768160E-34, 0.04889065730689275829, 0.000000000000000000 ) ) ;
#200 = FACE_OUTER_BOUND ( 'NONE', #231, .T. ) ;
#201 = FACE_OUTER_BOUND ( 'NONE', #13, .T. ) ;
#202 = VERTEX_POINT ( 'NONE', #198 ) ;
#203 = DIRECTION ( 'NONE',  ( -1.000000000000000000, -4.846530102532920424E-33, 0.000000000000000000 ) ) ;
#204 = AXIS2_PLACEMENT_3D ( 'NONE', #156, #103, #274 ) ;
#205 = ORIENTED_EDGE ( 'NONE', *, *, #285, .F. ) ;
#206 =( LENGTH_UNIT ( ) NAMED_UNIT ( * ) SI_UNIT ( $, .METRE. ) );
#207 = DIRECTION ( 'NONE',  ( -4.846530102532920424E-33, 1.000000000000000000, 0.000000000000000000 ) ) ;
#208 = ORIENTED_EDGE ( 'NONE', *, *, #9, .T. ) ;
#209 = DIMENSIONAL_EXPONENTS ( 1.000000000000000000, 0.000000000000000000, 0.000000000000000000, 0.000000000000000000, 0.000000000000000000, 0.000000000000000000, 0.000000000000000000 ) ;
#210 =( LENGTH_UNIT ( ) NAMED_UNIT ( * ) SI_UNIT ( $, .METRE. ) );
#211 = DIRECTION ( 'NONE',  ( 0.6560590289905083861, 0.7547095802227710148, 8.034405899049467357E-17 ) ) ;
#212 = CLOSED_SHELL ( 'NONE', ( #95, #155, #270, #191 ) ) ;
#213 = AXIS2_PLACEMENT_3D ( 'NONE', #81, #220, #176 ) ;
#214 = SURFACE_STYLE_USAGE ( .BOTH. , #236 ) ;
#215 = SURFACE_SIDE_STYLE ('',( #112 ) ) ;
#216 = SURFACE_STYLE_USAGE ( .BOTH. , #217 ) ;
#217 = SURFACE_SIDE_STYLE ('',( #46 ) ) ;
#218 = DIRECTION ( 'NONE',  ( -8.026776328285230384E-17, 1.000000000000000000, 0.000000000000000000 ) ) ;
#219 = CARTESIAN_POINT ( 'NONE',  ( 4.697770806951551639E-67, -9.693060205065840677E-35, 0.000000000000000000 ) ) ;
#220 = DIRECTION ( 'NONE',  ( -8.026776328285230384E-17, 1.000000000000000000, -0.000000000000000000 ) ) ;
#221 = COLOUR_RGB ( '',0.7921568627450980005, 0.8196078431372548767, 0.9333333333333333481 ) ;
#222 = CARTESIAN_POINT ( 'NONE',  ( 4.697770806951551639E-67, -9.693060205065840677E-35, 0.000000000000000000 ) ) ;
#223 = PRESENTATION_LAYER_ASSIGNMENT (  '', '', ( #25 ) ) ;
#224 = PLANE ( 'NONE',  #48 ) ;
#225 = CARTESIAN_POINT ( 'NONE',  ( 6.123233995736763571E-17, 1.500000000000000222, 0.000000000000000000 ) ) ;
#226 = DIRECTION ( 'NONE',  ( -4.846530102532920424E-33, 1.000000000000000000, 0.000000000000000000 ) ) ;
#227 = APPLICATION_PROTOCOL_DEFINITION ( 'draft international standard', 'automotive_design', 1998, #239 ) ;
#228 = EDGE_LOOP ( 'NONE', ( #19, #277 ) ) ;
#229 = CYLINDRICAL_SURFACE ( 'NONE', #213, 0.06249999999999988204 ) ;
#230 = PRESENTATION_STYLE_ASSIGNMENT (( #130 ) ) ;
#231 = EDGE_LOOP ( 'NONE', ( #121, #77, #160, #53 ) ) ;
#232 = FACE_OUTER_BOUND ( 'NONE', #175, .T. ) ;
#233 = PRESENTATION_LAYER_ASSIGNMENT (  '', '', ( #39 ) ) ;
#234 = DIRECTION ( 'NONE',  ( -1.000000000000000000, 0.000000000000000000, 0.000000000000000000 ) ) ;
#235 = VERTEX_POINT ( 'NONE', #30 ) ;
#236 = SURFACE_SIDE_STYLE ('',( #158 ) ) ;
#237 = PRODUCT_DEFINITION_SHAPE ( 'NONE', 'NONE',  #67 ) ;
#238 = STYLED_ITEM ( 'NONE', ( #108 ), #264 ) ;
#239 = APPLICATION_CONTEXT ( 'automotive_design' ) ;
#240 = FACE_OUTER_BOUND ( 'NONE', #177, .T. ) ;
#241 = VECTOR ( 'NONE', #41, 39.37007874015748143 ) ;
#242 = MECHANICAL_DESIGN_GEOMETRIC_PRESENTATION_REPRESENTATION (  '', ( #25 ), #189 ) ;
#243 =( NAMED_UNIT ( * ) PLANE_ANGLE_UNIT ( ) SI_UNIT ( $, .RADIAN. ) );
#244 = CIRCLE ( 'NONE', #272, 0.02000000000000000042 ) ;
#245 = DIRECTION ( 'NONE',  ( 4.846530102532920424E-33, -1.000000000000000000, -0.000000000000000000 ) ) ;
#246 =( NAMED_UNIT ( * ) PLANE_ANGLE_UNIT ( ) SI_UNIT ( $, .RADIAN. ) );
#247 = PRODUCT_DEFINITION_CONTEXT ( 'detailed design', #254, 'design' ) ;
#248 = CARTESIAN_POINT ( 'NONE',  ( 0.06249999999999999306, 1.500000000000000222, 7.654042494670946760E-18 ) ) ;
#249 =( LENGTH_UNIT ( ) NAMED_UNIT ( * ) SI_UNIT ( $, .METRE. ) );
#250 = ORIENTED_EDGE ( 'NONE', *, *, #285, .T. ) ;
#251 = MECHANICAL_DESIGN_GEOMETRIC_PRESENTATION_REPRESENTATION (  '', ( #238 ), #113 ) ;
#252 = SURFACE_STYLE_FILL_AREA ( #196 ) ;
#253 = VERTEX_POINT ( 'NONE', #124 ) ;
#254 = APPLICATION_CONTEXT ( 'automotive_design' ) ;
#255 = DIRECTION ( 'NONE',  ( 0.000000000000000000, 0.000000000000000000, 1.000000000000000000 ) ) ;
#256 = DIRECTION ( 'NONE',  ( -8.026776328285230384E-17, 1.000000000000000000, -0.000000000000000000 ) ) ;
#257 = ORIENTED_EDGE ( 'NONE', *, *, #114, .T. ) ;
#258 = COLOUR_RGB ( '',0.7921568627450980005, 0.8196078431372548767, 0.9333333333333333481 ) ;
#259 = ORIENTED_EDGE ( 'NONE', *, *, #43, .F. ) ;
#260 = PRESENTATION_STYLE_ASSIGNMENT (( #143 ) ) ;
#261 = UNCERTAINTY_MEASURE_WITH_UNIT (LENGTH_MEASURE( 1.000000000000000082E-05 ), #262, 'distance_accuracy_value', 'NONE');
#262 =( CONVERSION_BASED_UNIT ( 'INCH', #42 ) LENGTH_UNIT ( ) NAMED_UNIT ( #89 ) );
#263 = AXIS2_PLACEMENT_3D ( 'NONE', #219, #245, #166 ) ;
#264 = ADVANCED_FACE ( 'NONE', ( #232 ), #188, .T. ) ;
#265 = DIRECTION ( 'NONE',  ( -1.000000000000000000, 0.000000000000000000, 0.000000000000000000 ) ) ;
#266 = PLANE ( 'NONE',  #164 ) ;
#267 =( GEOMETRIC_REPRESENTATION_CONTEXT ( 3 ) GLOBAL_UNCERTAINTY_ASSIGNED_CONTEXT ( ( #87 ) ) GLOBAL_UNIT_ASSIGNED_CONTEXT ( ( #268, #243, #6 ) ) REPRESENTATION_CONTEXT ( 'NONE', 'WORKASPACE' ) );
#268 =( CONVERSION_BASED_UNIT ( 'INCH', #167 ) LENGTH_UNIT ( ) NAMED_UNIT ( #209 ) );
#269 = DIRECTION ( 'NONE',  ( -1.000000000000000000, -4.846530102532920424E-33, 0.000000000000000000 ) ) ;
#270 = ADVANCED_FACE ( 'NONE', ( #101 ), #229, .T. ) ;
#271 = DIRECTION ( 'NONE',  ( -4.846530102532920424E-33, 1.000000000000000000, 0.000000000000000000 ) ) ;
#272 = AXIS2_PLACEMENT_3D ( 'NONE', #100, #105, #179 ) ;
#273 =( NAMED_UNIT ( * ) SI_UNIT ( $, .STERADIAN. ) SOLID_ANGLE_UNIT ( ) );
#274 = DIRECTION ( 'NONE',  ( 1.000000000000000000, 8.026776328285230384E-17, 0.000000000000000000 ) ) ;
#275 = CARTESIAN_POINT ( 'NONE',  ( 0.000000000000000000, 0.000000000000000000, 0.000000000000000000 ) ) ;
#276 = VERTEX_POINT ( 'NONE', #60 ) ;
#277 = ORIENTED_EDGE ( 'NONE', *, *, #9, .F. ) ;
#278 = AXIS2_PLACEMENT_3D ( 'NONE', #222, #226, #203 ) ;
#279 = SURFACE_SIDE_STYLE ('',( #296 ) ) ;
#280 = SURFACE_SIDE_STYLE ('',( #252 ) ) ;
#281 = EDGE_LOOP ( 'NONE', ( #85, #137 ) ) ;
#282 = DIMENSIONAL_EXPONENTS ( 1.000000000000000000, 0.000000000000000000, 0.000000000000000000, 0.000000000000000000, 0.000000000000000000, 0.000000000000000000, 0.000000000000000000 ) ;
#283 = SHAPE_DEFINITION_REPRESENTATION ( #237, #128 ) ;
#284 = DIRECTION ( 'NONE',  ( 4.846530102532920424E-33, -1.000000000000000000, -0.000000000000000000 ) ) ;
#285 = EDGE_CURVE ( 'NONE', #56, #102, #291, .T. ) ;
#286 = DIRECTION ( 'NONE',  ( -1.000000000000000000, -1.365923996832135554E-16, 0.000000000000000000 ) ) ;
#287 =( CONVERSION_BASED_UNIT ( 'INCH', #181 ) LENGTH_UNIT ( ) NAMED_UNIT ( #80 ) );
#288 = AXIS2_PLACEMENT_3D ( 'NONE', #110, #140, #265 ) ;
#289 = ADVANCED_FACE ( 'NONE', ( #141 ), #22, .T. ) ;
#290 = DIMENSIONAL_EXPONENTS ( 1.000000000000000000, 0.000000000000000000, 0.000000000000000000, 0.000000000000000000, 0.000000000000000000, 0.000000000000000000, 0.000000000000000000 ) ;
#291 = LINE ( 'NONE', #91, #142 ) ;
#292 =( NAMED_UNIT ( * ) PLANE_ANGLE_UNIT ( ) SI_UNIT ( $, .RADIAN. ) );
#293 = EDGE_CURVE ( 'NONE', #253, #133, #303, .T. ) ;
#294 = SURFACE_STYLE_FILL_AREA ( #187 ) ;
#295 = MECHANICAL_DESIGN_GEOMETRIC_PRESENTATION_REPRESENTATION (  '', ( #92 ), #267 ) ;
#296 = SURFACE_STYLE_FILL_AREA ( #298 ) ;
#297 = EDGE_LOOP ( 'NONE', ( #259, #32 ) ) ;
#298 = FILL_AREA_STYLE ('',( #78 ) ) ;
#299 = DIRECTION ( 'NONE',  ( 1.000000000000000000, 4.846530102532920424E-33, 0.000000000000000000 ) ) ;
#300 = CARTESIAN_POINT ( 'NONE',  ( 1.777096411741933493E-16, 0.04889065730689284156, 0.000000000000000000 ) ) ;
#301 = ORIENTED_EDGE ( 'NONE', *, *, #5, .T. ) ;
#302 = MECHANICAL_DESIGN_GEOMETRIC_PRESENTATION_REPRESENTATION (  '', ( #39 ), #152 ) ;
#303 = CIRCLE ( 'NONE', #172, 0.06249999999999981959 ) ;
#304 = PRODUCT_CONTEXT ( 'NONE', #239, 'mechanical' ) ;
#305 = DIRECTION ( 'NONE',  ( -8.026776328285230384E-17, 1.000000000000000000, -0.000000000000000000 ) ) ;
#306 = ADVANCED_FACE ( 'NONE', ( #73 ), #224, .T. ) ;
#307 = DIRECTION ( 'NONE',  ( 1.000000000000000000, 0.000000000000000000, 0.000000000000000000 ) ) ;
#308 = FILL_AREA_STYLE ('',( #23 ) ) ;
#309 = COLOUR_RGB ( '',1.000000000000000000, 0.000000000000000000, 0.000000000000000000 ) ;
ENDSEC;
END-ISO-10303-21;
