ISO-10303-21;
HEADER;
FILE_DESCRIPTION (( 'STEP AP214' ),
    '1' );
FILE_NAME ('26422.STEP',
    '2023-06-22T17:48:01',
    ( '' ),
    ( '' ),
    'SwSTEP 2.0',
    'SolidWorks 2023',
    '' );
FILE_SCHEMA (( 'AUTOMOTIVE_DESIGN' ));
ENDSEC;

DATA;
#1 = PLANE ( 'NONE',  #39 ) ;
#2 = ORIENTED_EDGE ( 'NONE', *, *, #258, .F. ) ;
#3 = EDGE_CURVE ( 'NONE', #271, #304, #210, .T. ) ;
#4 = DIRECTION ( 'NONE',  ( -4.082155997157843818E-17, 1.000000000000000000, -0.000000000000000000 ) ) ;
#5 = CYLINDRICAL_SURFACE ( 'NONE', #69, 0.5000000000000001110 ) ;
#6 = CIRCLE ( 'NONE', #20, 0.5000000000000000000 ) ;
#7 = DIRECTION ( 'NONE',  ( 1.000000000000000000, 4.082155997157843818E-17, 0.000000000000000000 ) ) ;
#8 = SURFACE_STYLE_FILL_AREA ( #272 ) ;
#9 = MANIFOLD_SOLID_BREP ( 'Revolve - Cutting Edge', #98 ) ;
#10 = MECHANICAL_DESIGN_GEOMETRIC_PRESENTATION_REPRESENTATION (  '', ( #59 ), #134 ) ;
#11 = FACE_OUTER_BOUND ( 'NONE', #288, .T. ) ;
#12 = DIRECTION ( 'NONE',  ( -0.000000000000000000, -1.000000000000000000, -0.000000000000000000 ) ) ;
#13 = PRODUCT_DEFINITION_SHAPE ( 'NONE', 'NONE',  #273 ) ;
#14 = DIRECTION ( 'NONE',  ( 0.000000000000000000, 0.000000000000000000, -1.000000000000000000 ) ) ;
#15 = DIRECTION ( 'NONE',  ( 0.000000000000000000, -1.000000000000000000, -0.000000000000000000 ) ) ;
#16 = DIRECTION ( 'NONE',  ( -0.000000000000000000, -1.000000000000000000, -0.000000000000000000 ) ) ;
#17 = ADVANCED_FACE ( 'NONE', ( #157 ), #1, .T. ) ;
#18 = LENGTH_MEASURE_WITH_UNIT ( LENGTH_MEASURE( 0.02539999999999999897 ), #140 );
#19 =( NAMED_UNIT ( * ) SI_UNIT ( $, .STERADIAN. ) SOLID_ANGLE_UNIT ( ) );
#20 = AXIS2_PLACEMENT_3D ( 'NONE', #139, #16, #88 ) ;
#21 = DIRECTION ( 'NONE',  ( -0.000000000000000000, -1.000000000000000000, -0.000000000000000000 ) ) ;
#22 = PRESENTATION_STYLE_ASSIGNMENT (( #48 ) ) ;
#23 = VERTEX_POINT ( 'NONE', #243 ) ;
#24 = CIRCLE ( 'NONE', #249, 0.5000000000000000000 ) ;
#25 = PRESENTATION_LAYER_ASSIGNMENT (  '', '', ( #121 ) ) ;
#26 = ORIENTED_EDGE ( 'NONE', *, *, #64, .F. ) ;
#27 = EDGE_LOOP ( 'NONE', ( #47, #241, #175, #266 ) ) ;
#28 = DIRECTION ( 'NONE',  ( 0.000000000000000000, 1.000000000000000000, 0.000000000000000000 ) ) ;
#29 = DIRECTION ( 'NONE',  ( -1.000000000000000000, 0.000000000000000000, 0.000000000000000000 ) ) ;
#30 = CARTESIAN_POINT ( 'NONE',  ( 0.000000000000000000, 2.000000000000000000, 0.000000000000000000 ) ) ;
#31 = FILL_AREA_STYLE_COLOUR ( '', #113 ) ;
#32 = MECHANICAL_DESIGN_GEOMETRIC_PRESENTATION_REPRESENTATION (  '', ( #104 ), #143 ) ;
#33 = COLOUR_RGB ( '',1.000000000000000000, 0.000000000000000000, 0.000000000000000000 ) ;
#34 = PLANE ( 'NONE',  #217 ) ;
#35 = DIRECTION ( 'NONE',  ( 0.000000000000000000, 0.000000000000000000, -1.000000000000000000 ) ) ;
#36 = ADVANCED_FACE ( 'NONE', ( #58 ), #34, .F. ) ;
#37 =( CONVERSION_BASED_UNIT ( 'INCH', #66 ) LENGTH_UNIT ( ) NAMED_UNIT ( #122 ) );
#38 = LENGTH_MEASURE_WITH_UNIT ( LENGTH_MEASURE( 0.02539999999999999897 ), #260 );
#39 = AXIS2_PLACEMENT_3D ( 'NONE', #246, #28, #136 ) ;
#40 = UNCERTAINTY_MEASURE_WITH_UNIT (LENGTH_MEASURE( 1.000000000000000082E-05 ), #230, 'distance_accuracy_value', 'NONE');
#41 = LENGTH_MEASURE_WITH_UNIT ( LENGTH_MEASURE( 0.02539999999999999897 ), #191 );
#42 = CARTESIAN_POINT ( 'NONE',  ( 0.000000000000000000, 0.000000000000000000, 0.000000000000000000 ) ) ;
#43 = CARTESIAN_POINT ( 'NONE',  ( -1.224646799147353207E-16, 5.000000000000000000, 0.000000000000000000 ) ) ;
#44 = DIRECTION ( 'NONE',  ( -4.082155997157843818E-17, 1.000000000000000000, -0.000000000000000000 ) ) ;
#45 = AXIS2_PLACEMENT_3D ( 'NONE', #277, #248, #253 ) ;
#46 = APPLICATION_CONTEXT ( 'automotive_design' ) ;
#47 = ORIENTED_EDGE ( 'NONE', *, *, #101, .F. ) ;
#48 = SURFACE_STYLE_USAGE ( .BOTH. , #265 ) ;
#49 = SURFACE_STYLE_USAGE ( .BOTH. , #235 ) ;
#50 =( LENGTH_UNIT ( ) NAMED_UNIT ( * ) SI_UNIT ( $, .METRE. ) );
#51 = ORIENTED_EDGE ( 'NONE', *, *, #268, .T. ) ;
#52 = FILL_AREA_STYLE_COLOUR ( '', #33 ) ;
#53 = FILL_AREA_STYLE ('',( #31 ) ) ;
#54 = ORIENTED_EDGE ( 'NONE', *, *, #268, .F. ) ;
#55 = DIRECTION ( 'NONE',  ( -1.000000000000000000, 0.000000000000000000, 0.000000000000000000 ) ) ;
#56 = EDGE_LOOP ( 'NONE', ( #26, #289 ) ) ;
#57 = SURFACE_SIDE_STYLE ('',( #8 ) ) ;
#58 = FACE_OUTER_BOUND ( 'NONE', #56, .T. ) ;
#59 = STYLED_ITEM ( 'NONE', ( #22 ), #133 ) ;
#60 =( NAMED_UNIT ( * ) SI_UNIT ( $, .STERADIAN. ) SOLID_ANGLE_UNIT ( ) );
#61 = CARTESIAN_POINT ( 'NONE',  ( 0.000000000000000000, 0.000000000000000000, 0.000000000000000000 ) ) ;
#62 = PRODUCT ( '26422', '26422', '', ( #284 ) ) ;
#63 =( LENGTH_UNIT ( ) NAMED_UNIT ( * ) SI_UNIT ( $, .METRE. ) );
#64 = EDGE_CURVE ( 'NONE', #23, #198, #84, .T. ) ;
#65 =( GEOMETRIC_REPRESENTATION_CONTEXT ( 3 ) GLOBAL_UNCERTAINTY_ASSIGNED_CONTEXT ( ( #239 ) ) GLOBAL_UNIT_ASSIGNED_CONTEXT ( ( #37, #161, #19 ) ) REPRESENTATION_CONTEXT ( 'NONE', 'WORKASPACE' ) );
#66 = LENGTH_MEASURE_WITH_UNIT ( LENGTH_MEASURE( 0.02539999999999999897 ), #251 );
#67 = DIMENSIONAL_EXPONENTS ( 1.000000000000000000, 0.000000000000000000, 0.000000000000000000, 0.000000000000000000, 0.000000000000000000, 0.000000000000000000, 0.000000000000000000 ) ;
#68 = DIRECTION ( 'NONE',  ( -0.000000000000000000, -1.000000000000000000, -0.000000000000000000 ) ) ;
#69 = AXIS2_PLACEMENT_3D ( 'NONE', #187, #87, #29 ) ;
#70 = VECTOR ( 'NONE', #68, 39.37007874015748143 ) ;
#71 = EDGE_CURVE ( 'NONE', #23, #220, #162, .T. ) ;
#72 = CYLINDRICAL_SURFACE ( 'NONE', #276, 0.5000000000000001110 ) ;
#73 = MECHANICAL_DESIGN_GEOMETRIC_PRESENTATION_REPRESENTATION (  '', ( #152 ), #99 ) ;
#74 = ORIENTED_EDGE ( 'NONE', *, *, #301, .F. ) ;
#75 = UNCERTAINTY_MEASURE_WITH_UNIT (LENGTH_MEASURE( 1.000000000000000082E-05 ), #299, 'distance_accuracy_value', 'NONE');
#76 = CYLINDRICAL_SURFACE ( 'NONE', #45, 0.5000000000000000000 ) ;
#77 = ORIENTED_EDGE ( 'NONE', *, *, #71, .F. ) ;
#78 =( NAMED_UNIT ( * ) PLANE_ANGLE_UNIT ( ) SI_UNIT ( $, .RADIAN. ) );
#79 = ADVANCED_FACE ( 'NONE', ( #11 ), #5, .T. ) ;
#80 = PLANE ( 'NONE',  #185 ) ;
#81 = ORIENTED_EDGE ( 'NONE', *, *, #71, .T. ) ;
#82 = CARTESIAN_POINT ( 'NONE',  ( 0.000000000000000000, 2.000000000000000000, 0.000000000000000000 ) ) ;
#83 = PRODUCT_RELATED_PRODUCT_CATEGORY ( 'part', '', ( #62 ) ) ;
#84 = CIRCLE ( 'NONE', #130, 0.5000000000000000000 ) ;
#85 = AXIS2_PLACEMENT_3D ( 'NONE', #42, #95, #149 ) ;
#86 = EDGE_CURVE ( 'NONE', #198, #23, #24, .T. ) ;
#87 = DIRECTION ( 'NONE',  ( -4.082155997157843818E-17, 1.000000000000000000, -0.000000000000000000 ) ) ;
#88 = DIRECTION ( 'NONE',  ( 0.000000000000000000, 0.000000000000000000, -1.000000000000000000 ) ) ;
#89 = SURFACE_STYLE_USAGE ( .BOTH. , #167 ) ;
#90 = CARTESIAN_POINT ( 'NONE',  ( 6.123233995736766036E-17, 0.000000000000000000, 0.5000000000000000000 ) ) ;
#91 =( NAMED_UNIT ( * ) PLANE_ANGLE_UNIT ( ) SI_UNIT ( $, .RADIAN. ) );
#92 = LINE ( 'NONE', #209, #70 ) ;
#93 = DIMENSIONAL_EXPONENTS ( 1.000000000000000000, 0.000000000000000000, 0.000000000000000000, 0.000000000000000000, 0.000000000000000000, 0.000000000000000000, 0.000000000000000000 ) ;
#94 = CARTESIAN_POINT ( 'NONE',  ( 0.5000000000000000000, 5.000000000000000000, 0.000000000000000000 ) ) ;
#95 = DIRECTION ( 'NONE',  ( 0.000000000000000000, 0.000000000000000000, 1.000000000000000000 ) ) ;
#96 = SURFACE_STYLE_FILL_AREA ( #212 ) ;
#97 = ADVANCED_FACE ( 'NONE', ( #207 ), #80, .T. ) ;
#98 = CLOSED_SHELL ( 'NONE', ( #261, #17, #133, #97 ) ) ;
#99 =( GEOMETRIC_REPRESENTATION_CONTEXT ( 3 ) GLOBAL_UNCERTAINTY_ASSIGNED_CONTEXT ( ( #126 ) ) GLOBAL_UNIT_ASSIGNED_CONTEXT ( ( #142, #78, #286 ) ) REPRESENTATION_CONTEXT ( 'NONE', 'WORKASPACE' ) );
#100 = LENGTH_MEASURE_WITH_UNIT ( LENGTH_MEASURE( 0.02539999999999999897 ), #233 );
#101 = EDGE_CURVE ( 'NONE', #223, #271, #92, .T. ) ;
#102 = DIMENSIONAL_EXPONENTS ( 1.000000000000000000, 0.000000000000000000, 0.000000000000000000, 0.000000000000000000, 0.000000000000000000, 0.000000000000000000, 0.000000000000000000 ) ;
#103 = ORIENTED_EDGE ( 'NONE', *, *, #127, .F. ) ;
#104 = STYLED_ITEM ( 'NONE', ( #222 ), #17 ) ;
#105 = MECHANICAL_DESIGN_GEOMETRIC_PRESENTATION_REPRESENTATION (  '', ( #232 ), #307 ) ;
#106 = ORIENTED_EDGE ( 'NONE', *, *, #234, .T. ) ;
#107 = CARTESIAN_POINT ( 'NONE',  ( 0.000000000000000000, 0.000000000000000000, 0.000000000000000000 ) ) ;
#108 = CIRCLE ( 'NONE', #173, 0.5000000000000000000 ) ;
#109 = CARTESIAN_POINT ( 'NONE',  ( 0.000000000000000000, 2.000000000000000000, 0.000000000000000000 ) ) ;
#110 = DIRECTION ( 'NONE',  ( -1.000000000000000000, -4.082155997157843818E-17, 0.000000000000000000 ) ) ;
#111 = CARTESIAN_POINT ( 'NONE',  ( 4.165999396282937514E-34, 2.000000000000000000, 0.000000000000000000 ) ) ;
#112 = DIRECTION ( 'NONE',  ( -4.082155997157843818E-17, 1.000000000000000000, -0.000000000000000000 ) ) ;
#113 = COLOUR_RGB ( '',1.000000000000000000, 0.000000000000000000, 0.000000000000000000 ) ;
#114 =( CONVERSION_BASED_UNIT ( 'INCH', #165 ) LENGTH_UNIT ( ) NAMED_UNIT ( #102 ) );
#115 = VECTOR ( 'NONE', #21, 39.37007874015748143 ) ;
#116 = DIRECTION ( 'NONE',  ( -4.082155997157843818E-17, 1.000000000000000000, -0.000000000000000000 ) ) ;
#117 = DIRECTION ( 'NONE',  ( 0.000000000000000000, 0.000000000000000000, -1.000000000000000000 ) ) ;
#118 = DIRECTION ( 'NONE',  ( 0.000000000000000000, 0.000000000000000000, -1.000000000000000000 ) ) ;
#119 = DIMENSIONAL_EXPONENTS ( 1.000000000000000000, 0.000000000000000000, 0.000000000000000000, 0.000000000000000000, 0.000000000000000000, 0.000000000000000000, 0.000000000000000000 ) ;
#120 = STYLED_ITEM ( 'NONE', ( #282 ), #9 ) ;
#121 = STYLED_ITEM ( 'NONE', ( #216 ), #261 ) ;
#122 = DIMENSIONAL_EXPONENTS ( 1.000000000000000000, 0.000000000000000000, 0.000000000000000000, 0.000000000000000000, 0.000000000000000000, 0.000000000000000000, 0.000000000000000000 ) ;
#123 = SHAPE_DEFINITION_REPRESENTATION ( #13, #229 ) ;
#124 = SURFACE_STYLE_USAGE ( .BOTH. , #255 ) ;
#125 = MANIFOLD_SOLID_BREP ( 'Revolve - Tool Body (Straight Shanked)', #164 ) ;
#126 = UNCERTAINTY_MEASURE_WITH_UNIT (LENGTH_MEASURE( 1.000000000000000082E-05 ), #142, 'distance_accuracy_value', 'NONE');
#127 = EDGE_CURVE ( 'NONE', #183, #304, #151, .T. ) ;
#128 =( NAMED_UNIT ( * ) SI_UNIT ( $, .STERADIAN. ) SOLID_ANGLE_UNIT ( ) );
#129 = EDGE_LOOP ( 'NONE', ( #270, #181, #155, #77 ) ) ;
#130 = AXIS2_PLACEMENT_3D ( 'NONE', #82, #203, #224 ) ;
#131 = ORIENTED_EDGE ( 'NONE', *, *, #86, .T. ) ;
#132 = ORIENTED_EDGE ( 'NONE', *, *, #3, .T. ) ;
#133 = ADVANCED_FACE ( 'NONE', ( #300 ), #221, .T. ) ;
#134 =( GEOMETRIC_REPRESENTATION_CONTEXT ( 3 ) GLOBAL_UNCERTAINTY_ASSIGNED_CONTEXT ( ( #75 ) ) GLOBAL_UNIT_ASSIGNED_CONTEXT ( ( #299, #91, #128 ) ) REPRESENTATION_CONTEXT ( 'NONE', 'WORKASPACE' ) );
#135 = PLANE ( 'NONE',  #137 ) ;
#136 = DIRECTION ( 'NONE',  ( 0.000000000000000000, -0.000000000000000000, 1.000000000000000000 ) ) ;
#137 = AXIS2_PLACEMENT_3D ( 'NONE', #94, #199, #7 ) ;
#138 = DIRECTION ( 'NONE',  ( -4.082155997157843818E-17, 1.000000000000000000, 0.000000000000000000 ) ) ;
#139 = CARTESIAN_POINT ( 'NONE',  ( 0.000000000000000000, 2.000000000000000000, 0.000000000000000000 ) ) ;
#140 =( LENGTH_UNIT ( ) NAMED_UNIT ( * ) SI_UNIT ( $, .METRE. ) );
#141 = ADVANCED_FACE ( 'NONE', ( #283 ), #72, .T. ) ;
#142 =( CONVERSION_BASED_UNIT ( 'INCH', #18 ) LENGTH_UNIT ( ) NAMED_UNIT ( #119 ) );
#143 =( GEOMETRIC_REPRESENTATION_CONTEXT ( 3 ) GLOBAL_UNCERTAINTY_ASSIGNED_CONTEXT ( ( #290 ) ) GLOBAL_UNIT_ASSIGNED_CONTEXT ( ( #114, #206, #60 ) ) REPRESENTATION_CONTEXT ( 'NONE', 'WORKASPACE' ) );
#144 = AXIS2_PLACEMENT_3D ( 'NONE', #302, #193, #14 ) ;
#145 = CARTESIAN_POINT ( 'NONE',  ( 0.5000000000000000000, 5.000000000000000000, 6.123233995736767268E-17 ) ) ;
#146 = VECTOR ( 'NONE', #4, 39.37007874015748143 ) ;
#147 = FILL_AREA_STYLE ('',( #256 ) ) ;
#148 =( NAMED_UNIT ( * ) PLANE_ANGLE_UNIT ( ) SI_UNIT ( $, .RADIAN. ) );
#149 = DIRECTION ( 'NONE',  ( 1.000000000000000000, 0.000000000000000000, 0.000000000000000000 ) ) ;
#150 = ORIENTED_EDGE ( 'NONE', *, *, #189, .T. ) ;
#151 = LINE ( 'NONE', #218, #115 ) ;
#152 = STYLED_ITEM ( 'NONE', ( #188 ), #125 ) ;
#153 = FILL_AREA_STYLE_COLOUR ( '', #269 ) ;
#154 = FILL_AREA_STYLE ('',( #52 ) ) ;
#155 = ORIENTED_EDGE ( 'NONE', *, *, #234, .F. ) ;
#156 = CARTESIAN_POINT ( 'NONE',  ( -1.224646799147353207E-16, 5.000000000000000000, 0.000000000000000000 ) ) ;
#157 = FACE_OUTER_BOUND ( 'NONE', #293, .T. ) ;
#158 = EDGE_LOOP ( 'NONE', ( #178, #236, #54, #103 ) ) ;
#159 = MECHANICAL_DESIGN_GEOMETRIC_PRESENTATION_REPRESENTATION (  '', ( #120 ), #184 ) ;
#160 =( GEOMETRIC_REPRESENTATION_CONTEXT ( 3 ) GLOBAL_UNCERTAINTY_ASSIGNED_CONTEXT ( ( #170 ) ) GLOBAL_UNIT_ASSIGNED_CONTEXT ( ( #278, #227, #163 ) ) REPRESENTATION_CONTEXT ( 'NONE', 'WORKASPACE' ) );
#161 =( NAMED_UNIT ( * ) PLANE_ANGLE_UNIT ( ) SI_UNIT ( $, .RADIAN. ) );
#162 = LINE ( 'NONE', #226, #171 ) ;
#163 =( NAMED_UNIT ( * ) SI_UNIT ( $, .STERADIAN. ) SOLID_ANGLE_UNIT ( ) );
#164 = CLOSED_SHELL ( 'NONE', ( #141, #36, #79, #208 ) ) ;
#165 = LENGTH_MEASURE_WITH_UNIT ( LENGTH_MEASURE( 0.02539999999999999897 ), #50 );
#166 = AXIS2_PLACEMENT_3D ( 'NONE', #43, #112, #55 ) ;
#167 = SURFACE_SIDE_STYLE ('',( #231 ) ) ;
#168 = APPLICATION_CONTEXT ( 'automotive_design' ) ;
#169 = CARTESIAN_POINT ( 'NONE',  ( 0.000000000000000000, 0.000000000000000000, 0.000000000000000000 ) ) ;
#170 = UNCERTAINTY_MEASURE_WITH_UNIT (LENGTH_MEASURE( 1.000000000000000082E-05 ), #278, 'distance_accuracy_value', 'NONE');
#171 = VECTOR ( 'NONE', #296, 39.37007874015748143 ) ;
#172 = COLOUR_RGB ( '',1.000000000000000000, 0.000000000000000000, 0.000000000000000000 ) ;
#173 = AXIS2_PLACEMENT_3D ( 'NONE', #61, #274, #117 ) ;
#174 = SURFACE_STYLE_FILL_AREA ( #53 ) ;
#175 = ORIENTED_EDGE ( 'NONE', *, *, #127, .T. ) ;
#176 = DIRECTION ( 'NONE',  ( -4.082155997157843818E-17, 1.000000000000000000, -0.000000000000000000 ) ) ;
#177 = FACE_OUTER_BOUND ( 'NONE', #158, .T. ) ;
#178 = ORIENTED_EDGE ( 'NONE', *, *, #301, .T. ) ;
#179 = CIRCLE ( 'NONE', #166, 0.5000000000000001110 ) ;
#180 = FACE_OUTER_BOUND ( 'NONE', #309, .T. ) ;
#181 = ORIENTED_EDGE ( 'NONE', *, *, #258, .T. ) ;
#182 = FILL_AREA_STYLE_COLOUR ( '', #172 ) ;
#183 = VERTEX_POINT ( 'NONE', #305 ) ;
#184 =( GEOMETRIC_REPRESENTATION_CONTEXT ( 3 ) GLOBAL_UNCERTAINTY_ASSIGNED_CONTEXT ( ( #40 ) ) GLOBAL_UNIT_ASSIGNED_CONTEXT ( ( #230, #237, #196 ) ) REPRESENTATION_CONTEXT ( 'NONE', 'WORKASPACE' ) );
#185 = AXIS2_PLACEMENT_3D ( 'NONE', #169, #15, #118 ) ;
#186 = FILL_AREA_STYLE_COLOUR ( '', #244 ) ;
#187 = CARTESIAN_POINT ( 'NONE',  ( -1.224646799147353207E-16, 5.000000000000000000, 0.000000000000000000 ) ) ;
#188 = PRESENTATION_STYLE_ASSIGNMENT (( #89 ) ) ;
#189 = EDGE_CURVE ( 'NONE', #204, #220, #192, .T. ) ;
#190 = LINE ( 'NONE', #295, #146 ) ;
#191 =( LENGTH_UNIT ( ) NAMED_UNIT ( * ) SI_UNIT ( $, .METRE. ) );
#192 = CIRCLE ( 'NONE', #245, 0.5000000000000001110 ) ;
#193 = DIRECTION ( 'NONE',  ( -0.000000000000000000, -1.000000000000000000, -0.000000000000000000 ) ) ;
#194 = FILL_AREA_STYLE ('',( #153 ) ) ;
#195 = COLOUR_RGB ( '',0.7921568627450980005, 0.8196078431372548767, 0.9333333333333333481 ) ;
#196 =( NAMED_UNIT ( * ) SI_UNIT ( $, .STERADIAN. ) SOLID_ANGLE_UNIT ( ) );
#197 = EDGE_LOOP ( 'NONE', ( #51, #132 ) ) ;
#198 = VERTEX_POINT ( 'NONE', #228 ) ;
#199 = DIRECTION ( 'NONE',  ( 4.082155997157843818E-17, -1.000000000000000000, 0.000000000000000000 ) ) ;
#200 = SURFACE_SIDE_STYLE ('',( #174 ) ) ;
#201 = DIRECTION ( 'NONE',  ( -0.000000000000000000, -1.000000000000000000, -0.000000000000000000 ) ) ;
#202 = SURFACE_STYLE_FILL_AREA ( #154 ) ;
#203 = DIRECTION ( 'NONE',  ( -4.082155997157843818E-17, 1.000000000000000000, -0.000000000000000000 ) ) ;
#204 = VERTEX_POINT ( 'NONE', #145 ) ;
#205 = SURFACE_STYLE_USAGE ( .BOTH. , #57 ) ;
#206 =( NAMED_UNIT ( * ) PLANE_ANGLE_UNIT ( ) SI_UNIT ( $, .RADIAN. ) );
#207 = FACE_OUTER_BOUND ( 'NONE', #197, .T. ) ;
#208 = ADVANCED_FACE ( 'NONE', ( #180 ), #135, .F. ) ;
#209 = CARTESIAN_POINT ( 'NONE',  ( 6.123233995736766036E-17, 0.000000000000000000, 0.5000000000000000000 ) ) ;
#210 = CIRCLE ( 'NONE', #275, 0.5000000000000000000 ) ;
#211 =( NAMED_UNIT ( * ) SI_UNIT ( $, .STERADIAN. ) SOLID_ANGLE_UNIT ( ) );
#212 = FILL_AREA_STYLE ('',( #186 ) ) ;
#213 = PRESENTATION_STYLE_ASSIGNMENT (( #205 ) ) ;
#214 = PRODUCT_DEFINITION_CONTEXT ( 'detailed design', #168, 'design' ) ;
#215 = DIRECTION ( 'NONE',  ( -1.000000000000000000, 0.000000000000000000, 0.000000000000000000 ) ) ;
#216 = PRESENTATION_STYLE_ASSIGNMENT (( #49 ) ) ;
#217 = AXIS2_PLACEMENT_3D ( 'NONE', #111, #138, #110 ) ;
#218 = CARTESIAN_POINT ( 'NONE',  ( 0.000000000000000000, 0.000000000000000000, -0.5000000000000000000 ) ) ;
#219 = CARTESIAN_POINT ( 'NONE',  ( -0.5000000000000002220, 5.000000000000000000, 0.000000000000000000 ) ) ;
#220 = VERTEX_POINT ( 'NONE', #219 ) ;
#221 = CYLINDRICAL_SURFACE ( 'NONE', #144, 0.5000000000000000000 ) ;
#222 = PRESENTATION_STYLE_ASSIGNMENT (( #285 ) ) ;
#223 = VERTEX_POINT ( 'NONE', #252 ) ;
#224 = DIRECTION ( 'NONE',  ( -1.000000000000000000, 0.000000000000000000, 0.000000000000000000 ) ) ;
#225 = PRESENTATION_LAYER_ASSIGNMENT (  '', '', ( #152 ) ) ;
#226 = CARTESIAN_POINT ( 'NONE',  ( -0.5000000000000002220, 5.000000000000000000, 0.000000000000000000 ) ) ;
#227 =( NAMED_UNIT ( * ) PLANE_ANGLE_UNIT ( ) SI_UNIT ( $, .RADIAN. ) );
#228 = CARTESIAN_POINT ( 'NONE',  ( 0.5000000000000000000, 2.000000000000000000, 6.123233995736767268E-17 ) ) ;
#229 = ADVANCED_BREP_SHAPE_REPRESENTATION ( '26422', ( #9, #125, #85 ), #65 ) ;
#230 =( CONVERSION_BASED_UNIT ( 'INCH', #38 ) LENGTH_UNIT ( ) NAMED_UNIT ( #259 ) );
#231 = SURFACE_STYLE_FILL_AREA ( #147 ) ;
#232 = STYLED_ITEM ( 'NONE', ( #213 ), #97 ) ;
#233 =( LENGTH_UNIT ( ) NAMED_UNIT ( * ) SI_UNIT ( $, .METRE. ) );
#234 = EDGE_CURVE ( 'NONE', #220, #204, #179, .T. ) ;
#235 = SURFACE_SIDE_STYLE ('',( #202 ) ) ;
#236 = ORIENTED_EDGE ( 'NONE', *, *, #101, .T. ) ;
#237 =( NAMED_UNIT ( * ) PLANE_ANGLE_UNIT ( ) SI_UNIT ( $, .RADIAN. ) );
#238 = ORIENTED_EDGE ( 'NONE', *, *, #308, .F. ) ;
#239 = UNCERTAINTY_MEASURE_WITH_UNIT (LENGTH_MEASURE( 1.000000000000000082E-05 ), #37, 'distance_accuracy_value', 'NONE');
#240 = SURFACE_STYLE_FILL_AREA ( #194 ) ;
#241 = ORIENTED_EDGE ( 'NONE', *, *, #308, .T. ) ;
#242 = ORIENTED_EDGE ( 'NONE', *, *, #189, .F. ) ;
#243 = CARTESIAN_POINT ( 'NONE',  ( -0.5000000000000000000, 2.000000000000000000, 0.000000000000000000 ) ) ;
#244 = COLOUR_RGB ( '',0.7921568627450980005, 0.8196078431372548767, 0.9333333333333333481 ) ;
#245 = AXIS2_PLACEMENT_3D ( 'NONE', #156, #176, #267 ) ;
#246 = CARTESIAN_POINT ( 'NONE',  ( 0.000000000000000000, 2.000000000000000000, 0.000000000000000000 ) ) ;
#247 = DIRECTION ( 'NONE',  ( 0.000000000000000000, 0.000000000000000000, -1.000000000000000000 ) ) ;
#248 = DIRECTION ( 'NONE',  ( -0.000000000000000000, -1.000000000000000000, -0.000000000000000000 ) ) ;
#249 = AXIS2_PLACEMENT_3D ( 'NONE', #109, #116, #292 ) ;
#250 = CIRCLE ( 'NONE', #291, 0.5000000000000000000 ) ;
#251 =( LENGTH_UNIT ( ) NAMED_UNIT ( * ) SI_UNIT ( $, .METRE. ) );
#252 = CARTESIAN_POINT ( 'NONE',  ( 6.123233995736766036E-17, 2.000000000000000000, 0.5000000000000000000 ) ) ;
#253 = DIRECTION ( 'NONE',  ( 0.000000000000000000, 0.000000000000000000, -1.000000000000000000 ) ) ;
#254 = DIMENSIONAL_EXPONENTS ( 1.000000000000000000, 0.000000000000000000, 0.000000000000000000, 0.000000000000000000, 0.000000000000000000, 0.000000000000000000, 0.000000000000000000 ) ;
#255 = SURFACE_SIDE_STYLE ('',( #96 ) ) ;
#256 = FILL_AREA_STYLE_COLOUR ( '', #195 ) ;
#257 = PRESENTATION_LAYER_ASSIGNMENT (  '', '', ( #104 ) ) ;
#258 = EDGE_CURVE ( 'NONE', #198, #204, #190, .T. ) ;
#259 = DIMENSIONAL_EXPONENTS ( 1.000000000000000000, 0.000000000000000000, 0.000000000000000000, 0.000000000000000000, 0.000000000000000000, 0.000000000000000000, 0.000000000000000000 ) ;
#260 =( LENGTH_UNIT ( ) NAMED_UNIT ( * ) SI_UNIT ( $, .METRE. ) );
#261 = ADVANCED_FACE ( 'NONE', ( #177 ), #76, .T. ) ;
#262 = CARTESIAN_POINT ( 'NONE',  ( -1.224646799147353207E-16, 5.000000000000000000, 0.000000000000000000 ) ) ;
#263 = UNCERTAINTY_MEASURE_WITH_UNIT (LENGTH_MEASURE( 1.000000000000000082E-05 ), #298, 'distance_accuracy_value', 'NONE');
#264 = PRESENTATION_LAYER_ASSIGNMENT (  '', '', ( #232 ) ) ;
#265 = SURFACE_SIDE_STYLE ('',( #240 ) ) ;
#266 = ORIENTED_EDGE ( 'NONE', *, *, #3, .F. ) ;
#267 = DIRECTION ( 'NONE',  ( -1.000000000000000000, 0.000000000000000000, 0.000000000000000000 ) ) ;
#268 = EDGE_CURVE ( 'NONE', #304, #271, #108, .T. ) ;
#269 = COLOUR_RGB ( '',1.000000000000000000, 0.000000000000000000, 0.000000000000000000 ) ;
#270 = ORIENTED_EDGE ( 'NONE', *, *, #64, .T. ) ;
#271 = VERTEX_POINT ( 'NONE', #90 ) ;
#272 = FILL_AREA_STYLE ('',( #182 ) ) ;
#273 = PRODUCT_DEFINITION ( 'UNKNOWN', '', #279, #214 ) ;
#274 = DIRECTION ( 'NONE',  ( -0.000000000000000000, -1.000000000000000000, -0.000000000000000000 ) ) ;
#275 = AXIS2_PLACEMENT_3D ( 'NONE', #107, #201, #247 ) ;
#276 = AXIS2_PLACEMENT_3D ( 'NONE', #262, #44, #215 ) ;
#277 = CARTESIAN_POINT ( 'NONE',  ( 0.000000000000000000, 0.000000000000000000, 0.000000000000000000 ) ) ;
#278 =( CONVERSION_BASED_UNIT ( 'INCH', #294 ) LENGTH_UNIT ( ) NAMED_UNIT ( #93 ) );
#279 = PRODUCT_DEFINITION_FORMATION_WITH_SPECIFIED_SOURCE ( 'ANY', '', #62, .NOT_KNOWN. ) ;
#280 = APPLICATION_PROTOCOL_DEFINITION ( 'draft international standard', 'automotive_design', 1998, #168 ) ;
#281 = PRESENTATION_LAYER_ASSIGNMENT (  '', '', ( #59 ) ) ;
#282 = PRESENTATION_STYLE_ASSIGNMENT (( #124 ) ) ;
#283 = FACE_OUTER_BOUND ( 'NONE', #129, .T. ) ;
#284 = PRODUCT_CONTEXT ( 'NONE', #46, 'mechanical' ) ;
#285 = SURFACE_STYLE_USAGE ( .BOTH. , #200 ) ;
#286 =( NAMED_UNIT ( * ) SI_UNIT ( $, .STERADIAN. ) SOLID_ANGLE_UNIT ( ) );
#287 = PRESENTATION_LAYER_ASSIGNMENT (  '', '', ( #120 ) ) ;
#288 = EDGE_LOOP ( 'NONE', ( #2, #131, #81, #242 ) ) ;
#289 = ORIENTED_EDGE ( 'NONE', *, *, #86, .F. ) ;
#290 = UNCERTAINTY_MEASURE_WITH_UNIT (LENGTH_MEASURE( 1.000000000000000082E-05 ), #114, 'distance_accuracy_value', 'NONE');
#291 = AXIS2_PLACEMENT_3D ( 'NONE', #30, #12, #35 ) ;
#292 = DIRECTION ( 'NONE',  ( -1.000000000000000000, 0.000000000000000000, 0.000000000000000000 ) ) ;
#293 = EDGE_LOOP ( 'NONE', ( #74, #238 ) ) ;
#294 = LENGTH_MEASURE_WITH_UNIT ( LENGTH_MEASURE( 0.02539999999999999897 ), #63 );
#295 = CARTESIAN_POINT ( 'NONE',  ( 0.4999999999999999445, 5.000000000000000000, 6.123233995736767268E-17 ) ) ;
#296 = DIRECTION ( 'NONE',  ( -4.082155997157843818E-17, 1.000000000000000000, -0.000000000000000000 ) ) ;
#297 = CARTESIAN_POINT ( 'NONE',  ( 0.000000000000000000, 0.000000000000000000, -0.5000000000000000000 ) ) ;
#298 =( CONVERSION_BASED_UNIT ( 'INCH', #41 ) LENGTH_UNIT ( ) NAMED_UNIT ( #67 ) );
#299 =( CONVERSION_BASED_UNIT ( 'INCH', #100 ) LENGTH_UNIT ( ) NAMED_UNIT ( #254 ) );
#300 = FACE_OUTER_BOUND ( 'NONE', #27, .T. ) ;
#301 = EDGE_CURVE ( 'NONE', #183, #223, #250, .T. ) ;
#302 = CARTESIAN_POINT ( 'NONE',  ( 0.000000000000000000, 0.000000000000000000, 0.000000000000000000 ) ) ;
#303 = APPLICATION_PROTOCOL_DEFINITION ( 'draft international standard', 'automotive_design', 1998, #46 ) ;
#304 = VERTEX_POINT ( 'NONE', #297 ) ;
#305 = CARTESIAN_POINT ( 'NONE',  ( 0.000000000000000000, 2.000000000000000000, -0.5000000000000000000 ) ) ;
#306 = MECHANICAL_DESIGN_GEOMETRIC_PRESENTATION_REPRESENTATION (  '', ( #121 ), #160 ) ;
#307 =( GEOMETRIC_REPRESENTATION_CONTEXT ( 3 ) GLOBAL_UNCERTAINTY_ASSIGNED_CONTEXT ( ( #263 ) ) GLOBAL_UNIT_ASSIGNED_CONTEXT ( ( #298, #148, #211 ) ) REPRESENTATION_CONTEXT ( 'NONE', 'WORKASPACE' ) );
#308 = EDGE_CURVE ( 'NONE', #223, #183, #6, .T. ) ;
#309 = EDGE_LOOP ( 'NONE', ( #106, #150 ) ) ;
ENDSEC;
END-ISO-10303-21;
