ISO-10303-21;
HEADER;
FILE_DESCRIPTION (( 'STEP AP214' ),
    '1' );
FILE_NAME ('Micro_SEM-375-04.STEP',
    '2021-09-02T03:09:57',
    ( '' ),
    ( '' ),
    'SwSTEP 2.0',
    'SolidWorks 2020',
    '' );
FILE_SCHEMA (( 'AUTOMOTIVE_DESIGN' ));
ENDSEC;

DATA;
#1 = LINE ( 'NONE', #278, #208 ) ;
#2 = SURFACE_STYLE_FILL_AREA ( #161 ) ;
#3 = PRESENTATION_LAYER_ASSIGNMENT (  '', '', ( #212 ) ) ;
#4 = CARTESIAN_POINT ( 'NONE',  ( -0.1725000000000001532, 0.0000000000000000000, 2.000000000000000000 ) ) ;
#5 = VERTEX_POINT ( 'NONE', #136 ) ;
#6 = ADVANCED_FACE ( 'NONE', ( #39 ), #185, .T. ) ;
#7 = ORIENTED_EDGE ( 'NONE', *, *, #56, .F. ) ;
#8 = EDGE_CURVE ( 'NONE', #148, #71, #82, .T. ) ;
#9 =( NAMED_UNIT ( * ) PLANE_ANGLE_UNIT ( ) SI_UNIT ( $, .RADIAN. ) );
#10 = VECTOR ( 'NONE', #84, 39.37007874015747433 ) ;
#11 = EDGE_LOOP ( 'NONE', ( #147, #183, #31, #122 ) ) ;
#12 = ORIENTED_EDGE ( 'NONE', *, *, #157, .F. ) ;
#13 = COLOUR_RGB ( '',0.7921568627450980005, 0.8196078431372548767, 0.9333333333333333481 ) ;
#14 = FACE_OUTER_BOUND ( 'NONE', #229, .T. ) ;
#15 = DIRECTION ( 'NONE',  ( 1.000000000000000000, 0.0000000000000000000, 0.0000000000000000000 ) ) ;
#16 = CARTESIAN_POINT ( 'NONE',  ( 7.654042494670957853E-17, 0.0000000000000000000, 0.6250000000000000000 ) ) ;
#17 = CARTESIAN_POINT ( 'NONE',  ( 0.0000000000000000000, 0.0000000000000000000, 2.000000000000000000 ) ) ;
#18 = EDGE_CURVE ( 'NONE', #287, #71, #121, .T. ) ;
#19 = CARTESIAN_POINT ( 'NONE',  ( 7.667064964284941550E-17, 0.0000000000000000000, 0.6260633653411784572 ) ) ;
#20 = LINE ( 'NONE', #115, #141 ) ;
#21 = CARTESIAN_POINT ( 'NONE',  ( 0.0000000000000000000, 0.0000000000000000000, 2.000000000000000000 ) ) ;
#22 = AXIS2_PLACEMENT_3D ( 'NONE', #16, #207, #274 ) ;
#23 = DIRECTION ( 'NONE',  ( -0.7071067811865386910, 0.0000000000000000000, -0.7071067811865563435 ) ) ;
#24 = DIRECTION ( 'NONE',  ( -1.000000000000000000, 0.0000000000000000000, 0.0000000000000000000 ) ) ;
#25 = CIRCLE ( 'NONE', #158, 0.1875000000000000278 ) ;
#26 = ORIENTED_EDGE ( 'NONE', *, *, #56, .T. ) ;
#27 = DIRECTION ( 'NONE',  ( 1.000000000000000000, 0.0000000000000000000, 0.0000000000000000000 ) ) ;
#28 = ORIENTED_EDGE ( 'NONE', *, *, #47, .F. ) ;
#29 = ADVANCED_FACE ( 'NONE', ( #86 ), #246, .T. ) ;
#30 = CONICAL_SURFACE ( 'NONE', #49, 0.1725000000000001532, 0.7853981633974357335 ) ;
#31 = ORIENTED_EDGE ( 'NONE', *, *, #157, .T. ) ;
#32 = EDGE_LOOP ( 'NONE', ( #7, #109, #145, #28 ) ) ;
#33 = ADVANCED_FACE ( 'NONE', ( #14 ), #107, .T. ) ;
#34 = FACE_OUTER_BOUND ( 'NONE', #262, .T. ) ;
#35 = APPLICATION_CONTEXT ( 'automotive_design' ) ;
#36 = DIRECTION ( 'NONE',  ( 1.000000000000000000, 0.0000000000000000000, 0.0000000000000000000 ) ) ;
#37 = CARTESIAN_POINT ( 'NONE',  ( -0.1874999999999999445, 0.0000000000000000000, 0.6260633653411784572 ) ) ;
#38 = CARTESIAN_POINT ( 'NONE',  ( 0.0000000000000000000, 0.0000000000000000000, 0.0000000000000000000 ) ) ;
#39 = FACE_OUTER_BOUND ( 'NONE', #197, .T. ) ;
#40 = AXIS2_PLACEMENT_3D ( 'NONE', #57, #132, #62 ) ;
#41 = CARTESIAN_POINT ( 'NONE',  ( 0.0000000000000000000, 0.0000000000000000000, 2.000000000000000000 ) ) ;
#42 = DIMENSIONAL_EXPONENTS ( 1.000000000000000000, 0.0000000000000000000, 0.0000000000000000000, 0.0000000000000000000, 0.0000000000000000000, 0.0000000000000000000, 0.0000000000000000000 ) ;
#43 = DIRECTION ( 'NONE',  ( 0.0000000000000000000, 0.0000000000000000000, -1.000000000000000000 ) ) ;
#44 = CIRCLE ( 'NONE', #89, 0.1725000000000001532 ) ;
#45 = DIRECTION ( 'NONE',  ( -1.224646799147353207E-16, -0.0000000000000000000, -1.000000000000000000 ) ) ;
#46 = UNCERTAINTY_MEASURE_WITH_UNIT (LENGTH_MEASURE( 1.000000000000000082E-05 ), #108, 'distance_accuracy_value', 'NONE');
#47 = EDGE_CURVE ( 'NONE', #285, #177, #112, .T. ) ;
#48 =( LENGTH_UNIT ( ) NAMED_UNIT ( * ) SI_UNIT ( $, .METRE. ) );
#49 = AXIS2_PLACEMENT_3D ( 'NONE', #162, #43, #190 ) ;
#50 = SHAPE_DEFINITION_REPRESENTATION ( #103, #167 ) ;
#51 = ORIENTED_EDGE ( 'NONE', *, *, #18, .F. ) ;
#52 = ORIENTED_EDGE ( 'NONE', *, *, #105, .T. ) ;
#53 = ADVANCED_FACE ( 'NONE', ( #273 ), #154, .T. ) ;
#54 = ORIENTED_EDGE ( 'NONE', *, *, #267, .F. ) ;
#55 = CARTESIAN_POINT ( 'NONE',  ( 2.809237542898491532E-33, 0.0000000000000000000, 2.293916535652885596E-17 ) ) ;
#56 = EDGE_CURVE ( 'NONE', #175, #285, #268, .T. ) ;
#57 = CARTESIAN_POINT ( 'NONE',  ( 7.654042494670957853E-17, 0.0000000000000000000, 0.6250000000000000000 ) ) ;
#58 =( CONVERSION_BASED_UNIT ( 'INCH', #260 ) LENGTH_UNIT ( ) NAMED_UNIT ( #137 ) );
#59 = CIRCLE ( 'NONE', #236, 0.1725000000000001532 ) ;
#60 = DIRECTION ( 'NONE',  ( 1.000000000000000000, 0.0000000000000000000, 0.0000000000000000000 ) ) ;
#61 = APPLICATION_CONTEXT ( 'automotive_design' ) ;
#62 = DIRECTION ( 'NONE',  ( -1.000000000000000000, 0.0000000000000000000, 0.0000000000000000000 ) ) ;
#63 = CARTESIAN_POINT ( 'NONE',  ( -0.1873124999999999096, 2.295064642027086507E-17, 0.6250000000000000000 ) ) ;
#64 = AXIS2_PLACEMENT_3D ( 'NONE', #17, #113, #209 ) ;
#65 = DIRECTION ( 'NONE',  ( -1.000000000000000000, 0.0000000000000000000, 1.224646799147352961E-16 ) ) ;
#66 = DIMENSIONAL_EXPONENTS ( 1.000000000000000000, 0.0000000000000000000, 0.0000000000000000000, 0.0000000000000000000, 0.0000000000000000000, 0.0000000000000000000, 0.0000000000000000000 ) ;
#67 = LENGTH_MEASURE_WITH_UNIT ( LENGTH_MEASURE( 0.02539999999999999897 ), #275 );
#68 = LINE ( 'NONE', #298, #83 ) ;
#69 = SURFACE_STYLE_USAGE ( .BOTH. , #282 ) ;
#70 = CARTESIAN_POINT ( 'NONE',  ( 0.1875000000000000278, 2.296212748401287726E-17, 2.000000000000000000 ) ) ;
#71 = VERTEX_POINT ( 'NONE', #37 ) ;
#72 = ORIENTED_EDGE ( 'NONE', *, *, #116, .F. ) ;
#73 = ORIENTED_EDGE ( 'NONE', *, *, #200, .F. ) ;
#74 = ORIENTED_EDGE ( 'NONE', *, *, #283, .F. ) ;
#75 = VECTOR ( 'NONE', #23, 39.37007874015748143 ) ;
#76 = PRESENTATION_LAYER_ASSIGNMENT (  '', '', ( #125 ) ) ;
#77 = PRODUCT ( 'Micro_SEM-375-04', 'Micro_SEM-375-04', '', ( #98 ) ) ;
#78 = ORIENTED_EDGE ( 'NONE', *, *, #264, .T. ) ;
#79 = FILL_AREA_STYLE_COLOUR ( '', #13 ) ;
#80 = DIRECTION ( 'NONE',  ( 0.0000000000000000000, 0.0000000000000000000, 1.000000000000000000 ) ) ;
#81 = SURFACE_STYLE_FILL_AREA ( #123 ) ;
#82 = LINE ( 'NONE', #270, #10 ) ;
#83 = VECTOR ( 'NONE', #45, 39.37007874015748143 ) ;
#84 = DIRECTION ( 'NONE',  ( -0.1736481776669311916, 2.126576849575783316E-17, 0.9848077530122080203 ) ) ;
#85 = AXIS2_PLACEMENT_3D ( 'NONE', #96, #196, #27 ) ;
#86 = FACE_OUTER_BOUND ( 'NONE', #127, .T. ) ;
#87 = DIRECTION ( 'NONE',  ( -1.224646799147353207E-16, -0.0000000000000000000, -1.000000000000000000 ) ) ;
#88 = PLANE ( 'NONE',  #254 ) ;
#89 = AXIS2_PLACEMENT_3D ( 'NONE', #41, #95, #233 ) ;
#90 = EDGE_CURVE ( 'NONE', #5, #170, #226, .T. ) ;
#91 = CARTESIAN_POINT ( 'NONE',  ( 0.0000000000000000000, 0.0000000000000000000, 0.0000000000000000000 ) ) ;
#92 = SURFACE_STYLE_USAGE ( .BOTH. , #163 ) ;
#93 = FACE_OUTER_BOUND ( 'NONE', #32, .T. ) ;
#94 = AXIS2_PLACEMENT_3D ( 'NONE', #124, #286, #131 ) ;
#95 = DIRECTION ( 'NONE',  ( 0.0000000000000000000, 0.0000000000000000000, 1.000000000000000000 ) ) ;
#96 = CARTESIAN_POINT ( 'NONE',  ( 0.0000000000000000000, 0.0000000000000000000, 0.0000000000000000000 ) ) ;
#97 = ORIENTED_EDGE ( 'NONE', *, *, #186, .F. ) ;
#98 = PRODUCT_CONTEXT ( 'NONE', #35, 'mechanical' ) ;
#99 = ORIENTED_EDGE ( 'NONE', *, *, #178, .T. ) ;
#100 = AXIS2_PLACEMENT_3D ( 'NONE', #249, #134, #36 ) ;
#101 = CARTESIAN_POINT ( 'NONE',  ( 0.1873125000000000484, 0.0000000000000000000, 0.6250000000000000000 ) ) ;
#102 = EDGE_LOOP ( 'NONE', ( #252, #104, #245, #51 ) ) ;
#103 = PRODUCT_DEFINITION_SHAPE ( 'NONE', 'NONE',  #234 ) ;
#104 = ORIENTED_EDGE ( 'NONE', *, *, #47, .T. ) ;
#105 = EDGE_CURVE ( 'NONE', #148, #289, #171, .T. ) ;
#106 =( GEOMETRIC_REPRESENTATION_CONTEXT ( 3 ) GLOBAL_UNCERTAINTY_ASSIGNED_CONTEXT ( ( #216 ) ) GLOBAL_UNIT_ASSIGNED_CONTEXT ( ( #58, #9, #248 ) ) REPRESENTATION_CONTEXT ( 'NONE', 'WORKASPACE' ) );
#107 = CYLINDRICAL_SURFACE ( 'NONE', #165, 0.1873124999999999929 ) ;
#108 =( CONVERSION_BASED_UNIT ( 'INCH', #259 ) LENGTH_UNIT ( ) NAMED_UNIT ( #42 ) );
#109 = ORIENTED_EDGE ( 'NONE', *, *, #264, .F. ) ;
#110 = ADVANCED_FACE ( 'NONE', ( #34 ), #276, .T. ) ;
#111 = CARTESIAN_POINT ( 'NONE',  ( 7.667064964284941550E-17, 0.0000000000000000000, 0.6260633653411784572 ) ) ;
#112 = CIRCLE ( 'NONE', #261, 0.1875000000000000278 ) ;
#113 = DIRECTION ( 'NONE',  ( -0.0000000000000000000, -0.0000000000000000000, -1.000000000000000000 ) ) ;
#114 = DIRECTION ( 'NONE',  ( -1.224646799147353207E-16, -0.0000000000000000000, -1.000000000000000000 ) ) ;
#115 = CARTESIAN_POINT ( 'NONE',  ( 0.1873125000000000484, 0.0000000000000000000, 0.6250000000000000000 ) ) ;
#116 = EDGE_CURVE ( 'NONE', #71, #287, #25, .T. ) ;
#117 = FACE_OUTER_BOUND ( 'NONE', #206, .T. ) ;
#118 = CIRCLE ( 'NONE', #203, 0.1873124999999999929 ) ;
#119 = DIRECTION ( 'NONE',  ( 0.0000000000000000000, 0.0000000000000000000, 1.000000000000000000 ) ) ;
#120 = DIRECTION ( 'NONE',  ( -1.224646799147353207E-16, -0.0000000000000000000, -1.000000000000000000 ) ) ;
#121 = CIRCLE ( 'NONE', #295, 0.1875000000000000278 ) ;
#122 = ORIENTED_EDGE ( 'NONE', *, *, #178, .F. ) ;
#123 = FILL_AREA_STYLE ('',( #79 ) ) ;
#124 = CARTESIAN_POINT ( 'NONE',  ( 0.0000000000000000000, 0.0000000000000000000, 1.984999999999999654 ) ) ;
#125 = STYLED_ITEM ( 'NONE', ( #244 ), #167 ) ;
#126 = EDGE_CURVE ( 'NONE', #289, #148, #176, .T. ) ;
#127 = EDGE_LOOP ( 'NONE', ( #73, #26, #74, #97 ) ) ;
#128 = DIRECTION ( 'NONE',  ( -1.224646799147353207E-16, -0.0000000000000000000, -1.000000000000000000 ) ) ;
#129 = AXIS2_PLACEMENT_3D ( 'NONE', #156, #253, #296 ) ;
#130 = DIRECTION ( 'NONE',  ( 1.000000000000000000, 0.0000000000000000000, -0.0000000000000000000 ) ) ;
#131 = DIRECTION ( 'NONE',  ( 1.000000000000000000, 0.0000000000000000000, 0.0000000000000000000 ) ) ;
#132 = DIRECTION ( 'NONE',  ( -1.224646799147353207E-16, -0.0000000000000000000, -1.000000000000000000 ) ) ;
#133 = ADVANCED_FACE ( 'NONE', ( #230 ), #294, .T. ) ;
#134 = DIRECTION ( 'NONE',  ( 1.224646799147353207E-16, 0.0000000000000000000, 1.000000000000000000 ) ) ;
#135 = AXIS2_PLACEMENT_3D ( 'NONE', #38, #87, #251 ) ;
#136 = CARTESIAN_POINT ( 'NONE',  ( -0.1873124999999999929, 0.0000000000000000000, 4.587833071305771192E-17 ) ) ;
#137 = DIMENSIONAL_EXPONENTS ( 1.000000000000000000, 0.0000000000000000000, 0.0000000000000000000, 0.0000000000000000000, 0.0000000000000000000, 0.0000000000000000000, 0.0000000000000000000 ) ;
#138 = DIRECTION ( 'NONE',  ( -1.224646799147353207E-16, -0.0000000000000000000, -1.000000000000000000 ) ) ;
#139 = LINE ( 'NONE', #4, #75 ) ;
#140 = CARTESIAN_POINT ( 'NONE',  ( 0.1873124999999999929, 2.293916535652885596E-17, 0.0000000000000000000 ) ) ;
#141 = VECTOR ( 'NONE', #211, 39.37007874015748143 ) ;
#142 = CARTESIAN_POINT ( 'NONE',  ( 0.1725000000000001532, 2.204364238465236130E-17, 2.000000000000000000 ) ) ;
#143 = UNCERTAINTY_MEASURE_WITH_UNIT (LENGTH_MEASURE( 1.000000000000000082E-05 ), #279, 'distance_accuracy_value', 'NONE');
#144 = CARTESIAN_POINT ( 'NONE',  ( 0.0000000000000000000, 0.0000000000000000000, 2.000000000000000000 ) ) ;
#145 = ORIENTED_EDGE ( 'NONE', *, *, #186, .T. ) ;
#146 = ORIENTED_EDGE ( 'NONE', *, *, #105, .F. ) ;
#147 = ORIENTED_EDGE ( 'NONE', *, *, #187, .F. ) ;
#148 = VERTEX_POINT ( 'NONE', #63 ) ;
#149 = VECTOR ( 'NONE', #120, 39.37007874015748143 ) ;
#150 = ORIENTED_EDGE ( 'NONE', *, *, #116, .T. ) ;
#151 = DIRECTION ( 'NONE',  ( -1.224646799147353207E-16, -0.0000000000000000000, -1.000000000000000000 ) ) ;
#152 = PRODUCT_RELATED_PRODUCT_CATEGORY ( 'part', '', ( #77 ) ) ;
#153 = CARTESIAN_POINT ( 'NONE',  ( 0.1725000000000001532, 2.112515728529185460E-17, 2.000000000000000000 ) ) ;
#154 = CYLINDRICAL_SURFACE ( 'NONE', #135, 0.1873124999999999929 ) ;
#155 = DIRECTION ( 'NONE',  ( -1.000000000000000000, 0.0000000000000000000, 1.224646799147352961E-16 ) ) ;
#156 = CARTESIAN_POINT ( 'NONE',  ( 0.0000000000000000000, 0.0000000000000000000, 2.000000000000000000 ) ) ;
#157 = EDGE_CURVE ( 'NONE', #148, #5, #68, .T. ) ;
#158 = AXIS2_PLACEMENT_3D ( 'NONE', #111, #128, #291 ) ;
#159 = CARTESIAN_POINT ( 'NONE',  ( -0.1725000000000001532, 0.0000000000000000000, 2.000000000000000000 ) ) ;
#160 = PRODUCT_DEFINITION_FORMATION_WITH_SPECIFIED_SOURCE ( 'ANY', '', #77, .NOT_KNOWN. ) ;
#161 = FILL_AREA_STYLE ('',( #255 ) ) ;
#162 = CARTESIAN_POINT ( 'NONE',  ( 0.0000000000000000000, 0.0000000000000000000, 2.000000000000000000 ) ) ;
#163 = SURFACE_SIDE_STYLE ('',( #2 ) ) ;
#164 = EDGE_CURVE ( 'NONE', #177, #71, #1, .T. ) ;
#165 = AXIS2_PLACEMENT_3D ( 'NONE', #205, #114, #155 ) ;
#166 = CLOSED_SHELL ( 'NONE', ( #33, #277, #29, #133, #239, #6, #222, #110, #53, #218 ) ) ;
#167 = ADVANCED_BREP_SHAPE_REPRESENTATION ( 'Micro_SEM-375-04', ( #184, #85 ), #106 ) ;
#168 =( LENGTH_UNIT ( ) NAMED_UNIT ( * ) SI_UNIT ( $, .METRE. ) );
#169 = CARTESIAN_POINT ( 'NONE',  ( 7.654042494670957853E-17, 0.0000000000000000000, 0.6250000000000000000 ) ) ;
#170 = VERTEX_POINT ( 'NONE', #140 ) ;
#171 = CIRCLE ( 'NONE', #40, 0.1873124999999999929 ) ;
#172 = FACE_OUTER_BOUND ( 'NONE', #227, .T. ) ;
#173 = ORIENTED_EDGE ( 'NONE', *, *, #267, .T. ) ;
#174 = ORIENTED_EDGE ( 'NONE', *, *, #8, .F. ) ;
#175 = VERTEX_POINT ( 'NONE', #142 ) ;
#176 = CIRCLE ( 'NONE', #22, 0.1873124999999999929 ) ;
#177 = VERTEX_POINT ( 'NONE', #213 ) ;
#178 = EDGE_CURVE ( 'NONE', #170, #5, #118, .T. ) ;
#179 = ORIENTED_EDGE ( 'NONE', *, *, #90, .T. ) ;
#180 =( NAMED_UNIT ( * ) PLANE_ANGLE_UNIT ( ) SI_UNIT ( $, .RADIAN. ) );
#181 = DIRECTION ( 'NONE',  ( -1.224646799147353207E-16, -0.0000000000000000000, -1.000000000000000000 ) ) ;
#182 = AXIS2_PLACEMENT_3D ( 'NONE', #169, #269, #204 ) ;
#183 = ORIENTED_EDGE ( 'NONE', *, *, #126, .T. ) ;
#184 = MANIFOLD_SOLID_BREP ( 'Cut-Revolve1', #166 ) ;
#185 = PLANE ( 'NONE',  #194 ) ;
#186 = EDGE_CURVE ( 'NONE', #224, #177, #139, .T. ) ;
#187 = EDGE_CURVE ( 'NONE', #289, #170, #235, .T. ) ;
#188 = DIRECTION ( 'NONE',  ( 0.7071067811865386910, 8.659560562354824390E-17, -0.7071067811865563435 ) ) ;
#189 = DIRECTION ( 'NONE',  ( 0.0000000000000000000, 0.0000000000000000000, 1.000000000000000000 ) ) ;
#190 = DIRECTION ( 'NONE',  ( -1.000000000000000000, 0.0000000000000000000, 0.0000000000000000000 ) ) ;
#191 = FACE_OUTER_BOUND ( 'NONE', #102, .T. ) ;
#192 = VECTOR ( 'NONE', #198, 39.37007874015748143 ) ;
#193 = MECHANICAL_DESIGN_GEOMETRIC_PRESENTATION_REPRESENTATION (  '', ( #125 ), #257 ) ;
#194 = AXIS2_PLACEMENT_3D ( 'NONE', #225, #80, #130 ) ;
#195 = PRODUCT_DEFINITION_CONTEXT ( 'detailed design', #61, 'design' ) ;
#196 = DIRECTION ( 'NONE',  ( 0.0000000000000000000, 0.0000000000000000000, 1.000000000000000000 ) ) ;
#197 = EDGE_LOOP ( 'NONE', ( #78, #288 ) ) ;
#198 = DIRECTION ( 'NONE',  ( -0.0000000000000000000, -0.0000000000000000000, -1.000000000000000000 ) ) ;
#199 = COLOUR_RGB ( '',0.7921568627450980005, 0.8196078431372548767, 0.9333333333333333481 ) ;
#200 = EDGE_CURVE ( 'NONE', #175, #224, #59, .T. ) ;
#201 = ORIENTED_EDGE ( 'NONE', *, *, #187, .T. ) ;
#202 = ORIENTED_EDGE ( 'NONE', *, *, #126, .F. ) ;
#203 = AXIS2_PLACEMENT_3D ( 'NONE', #214, #138, #65 ) ;
#204 = DIRECTION ( 'NONE',  ( 1.000000000000000000, 0.0000000000000000000, 0.0000000000000000000 ) ) ;
#205 = CARTESIAN_POINT ( 'NONE',  ( 0.0000000000000000000, 0.0000000000000000000, 0.0000000000000000000 ) ) ;
#206 = EDGE_LOOP ( 'NONE', ( #179, #99 ) ) ;
#207 = DIRECTION ( 'NONE',  ( -1.224646799147353207E-16, -0.0000000000000000000, -1.000000000000000000 ) ) ;
#208 = VECTOR ( 'NONE', #258, 39.37007874015748143 ) ;
#209 = DIRECTION ( 'NONE',  ( -1.000000000000000000, 0.0000000000000000000, 0.0000000000000000000 ) ) ;
#210 = DIRECTION ( 'NONE',  ( 0.0000000000000000000, 0.0000000000000000000, -1.000000000000000000 ) ) ;
#211 = DIRECTION ( 'NONE',  ( 0.1736481776669313859, 0.0000000000000000000, 0.9848077530122077983 ) ) ;
#212 = STYLED_ITEM ( 'NONE', ( #238 ), #184 ) ;
#213 = CARTESIAN_POINT ( 'NONE',  ( -0.1875000000000000278, 0.0000000000000000000, 1.984999999999999654 ) ) ;
#214 = CARTESIAN_POINT ( 'NONE',  ( 2.809237542898491532E-33, 0.0000000000000000000, 2.293916535652885596E-17 ) ) ;
#215 =( NAMED_UNIT ( * ) PLANE_ANGLE_UNIT ( ) SI_UNIT ( $, .RADIAN. ) );
#216 = UNCERTAINTY_MEASURE_WITH_UNIT (LENGTH_MEASURE( 1.000000000000000082E-05 ), #58, 'distance_accuracy_value', 'NONE');
#217 = DIRECTION ( 'NONE',  ( 1.000000000000000000, 0.0000000000000000000, 0.0000000000000000000 ) ) ;
#218 = ADVANCED_FACE ( 'NONE', ( #117 ), #88, .F. ) ;
#219 =( GEOMETRIC_REPRESENTATION_CONTEXT ( 3 ) GLOBAL_UNCERTAINTY_ASSIGNED_CONTEXT ( ( #143 ) ) GLOBAL_UNIT_ASSIGNED_CONTEXT ( ( #279, #215, #256 ) ) REPRESENTATION_CONTEXT ( 'NONE', 'WORKASPACE' ) );
#220 = ORIENTED_EDGE ( 'NONE', *, *, #272, .T. ) ;
#221 = APPLICATION_PROTOCOL_DEFINITION ( 'draft international standard', 'automotive_design', 1998, #35 ) ;
#222 = ADVANCED_FACE ( 'NONE', ( #93 ), #30, .T. ) ;
#223 = ORIENTED_EDGE ( 'NONE', *, *, #8, .T. ) ;
#224 = VERTEX_POINT ( 'NONE', #159 ) ;
#225 = CARTESIAN_POINT ( 'NONE',  ( 0.0000000000000000000, 0.0000000000000000000, 2.000000000000000000 ) ) ;
#226 = CIRCLE ( 'NONE', #250, 0.1873124999999999929 ) ;
#227 = EDGE_LOOP ( 'NONE', ( #146, #223, #150, #54 ) ) ;
#228 = CARTESIAN_POINT ( 'NONE',  ( 0.1875000000000000833, 2.296212748401288650E-17, 0.6260633653411784572 ) ) ;
#229 = EDGE_LOOP ( 'NONE', ( #52, #201, #243, #12 ) ) ;
#230 = FACE_OUTER_BOUND ( 'NONE', #232, .T. ) ;
#231 = CONICAL_SURFACE ( 'NONE', #182, 0.1873124999999999929, 0.1745329251994338915 ) ;
#232 = EDGE_LOOP ( 'NONE', ( #293, #220, #72, #265 ) ) ;
#233 = DIRECTION ( 'NONE',  ( 1.000000000000000000, 0.0000000000000000000, 0.0000000000000000000 ) ) ;
#234 = PRODUCT_DEFINITION ( 'UNKNOWN', '', #160, #195 ) ;
#235 = LINE ( 'NONE', #237, #149 ) ;
#236 = AXIS2_PLACEMENT_3D ( 'NONE', #21, #119, #217 ) ;
#237 = CARTESIAN_POINT ( 'NONE',  ( 0.1873124999999999929, 2.293916535652885596E-17, -2.293916535652885596E-17 ) ) ;
#238 = PRESENTATION_STYLE_ASSIGNMENT (( #92 ) ) ;
#239 = ADVANCED_FACE ( 'NONE', ( #191 ), #281, .T. ) ;
#240 = DIRECTION ( 'NONE',  ( -0.0000000000000000000, -0.0000000000000000000, -1.000000000000000000 ) ) ;
#241 =( NAMED_UNIT ( * ) SI_UNIT ( $, .STERADIAN. ) SOLID_ANGLE_UNIT ( ) );
#242 = AXIS2_PLACEMENT_3D ( 'NONE', #144, #240, #24 ) ;
#243 = ORIENTED_EDGE ( 'NONE', *, *, #90, .F. ) ;
#244 = PRESENTATION_STYLE_ASSIGNMENT (( #69 ) ) ;
#245 = ORIENTED_EDGE ( 'NONE', *, *, #164, .T. ) ;
#246 = CONICAL_SURFACE ( 'NONE', #129, 0.1725000000000001532, 0.7853981633974357335 ) ;
#247 = DIRECTION ( 'NONE',  ( -1.000000000000000000, 0.0000000000000000000, 1.224646799147352961E-16 ) ) ;
#248 =( NAMED_UNIT ( * ) SI_UNIT ( $, .STERADIAN. ) SOLID_ANGLE_UNIT ( ) );
#249 = CARTESIAN_POINT ( 'NONE',  ( 7.654042494670957853E-17, 0.0000000000000000000, 0.6250000000000000000 ) ) ;
#250 = AXIS2_PLACEMENT_3D ( 'NONE', #55, #151, #247 ) ;
#251 = DIRECTION ( 'NONE',  ( -1.000000000000000000, 0.0000000000000000000, 1.224646799147352961E-16 ) ) ;
#252 = ORIENTED_EDGE ( 'NONE', *, *, #272, .F. ) ;
#253 = DIRECTION ( 'NONE',  ( 0.0000000000000000000, 0.0000000000000000000, -1.000000000000000000 ) ) ;
#254 = AXIS2_PLACEMENT_3D ( 'NONE', #91, #189, #280 ) ;
#255 = FILL_AREA_STYLE_COLOUR ( '', #199 ) ;
#256 =( NAMED_UNIT ( * ) SI_UNIT ( $, .STERADIAN. ) SOLID_ANGLE_UNIT ( ) );
#257 =( GEOMETRIC_REPRESENTATION_CONTEXT ( 3 ) GLOBAL_UNCERTAINTY_ASSIGNED_CONTEXT ( ( #46 ) ) GLOBAL_UNIT_ASSIGNED_CONTEXT ( ( #108, #180, #241 ) ) REPRESENTATION_CONTEXT ( 'NONE', 'WORKASPACE' ) );
#258 = DIRECTION ( 'NONE',  ( -0.0000000000000000000, -0.0000000000000000000, -1.000000000000000000 ) ) ;
#259 = LENGTH_MEASURE_WITH_UNIT ( LENGTH_MEASURE( 0.02539999999999999897 ), #168 );
#260 = LENGTH_MEASURE_WITH_UNIT ( LENGTH_MEASURE( 0.02539999999999999897 ), #48 );
#261 = AXIS2_PLACEMENT_3D ( 'NONE', #297, #210, #60 ) ;
#262 = EDGE_LOOP ( 'NONE', ( #174, #202, #173, #263 ) ) ;
#263 = ORIENTED_EDGE ( 'NONE', *, *, #18, .T. ) ;
#264 = EDGE_CURVE ( 'NONE', #224, #175, #44, .T. ) ;
#265 = ORIENTED_EDGE ( 'NONE', *, *, #164, .F. ) ;
#266 = CIRCLE ( 'NONE', #94, 0.1875000000000000278 ) ;
#267 = EDGE_CURVE ( 'NONE', #289, #287, #20, .T. ) ;
#268 = LINE ( 'NONE', #153, #299 ) ;
#269 = DIRECTION ( 'NONE',  ( 1.224646799147353207E-16, 0.0000000000000000000, 1.000000000000000000 ) ) ;
#270 = CARTESIAN_POINT ( 'NONE',  ( -0.1873124999999999096, 2.293916535652885596E-17, 0.6250000000000000000 ) ) ;
#271 = MECHANICAL_DESIGN_GEOMETRIC_PRESENTATION_REPRESENTATION (  '', ( #212 ), #219 ) ;
#272 = EDGE_CURVE ( 'NONE', #285, #287, #284, .T. ) ;
#273 = FACE_OUTER_BOUND ( 'NONE', #11, .T. ) ;
#274 = DIRECTION ( 'NONE',  ( -1.000000000000000000, 0.0000000000000000000, 0.0000000000000000000 ) ) ;
#275 =( LENGTH_UNIT ( ) NAMED_UNIT ( * ) SI_UNIT ( $, .METRE. ) );
#276 = CONICAL_SURFACE ( 'NONE', #100, 0.1873124999999999929, 0.1745329251994338915 ) ;
#277 = ADVANCED_FACE ( 'NONE', ( #172 ), #231, .T. ) ;
#278 = CARTESIAN_POINT ( 'NONE',  ( -0.1875000000000000278, 0.0000000000000000000, 2.000000000000000000 ) ) ;
#279 =( CONVERSION_BASED_UNIT ( 'INCH', #67 ) LENGTH_UNIT ( ) NAMED_UNIT ( #66 ) );
#280 = DIRECTION ( 'NONE',  ( 1.000000000000000000, 0.0000000000000000000, -0.0000000000000000000 ) ) ;
#281 = CYLINDRICAL_SURFACE ( 'NONE', #242, 0.1875000000000000278 ) ;
#282 = SURFACE_SIDE_STYLE ('',( #81 ) ) ;
#283 = EDGE_CURVE ( 'NONE', #177, #285, #266, .T. ) ;
#284 = LINE ( 'NONE', #70, #192 ) ;
#285 = VERTEX_POINT ( 'NONE', #292 ) ;
#286 = DIRECTION ( 'NONE',  ( 0.0000000000000000000, 0.0000000000000000000, -1.000000000000000000 ) ) ;
#287 = VERTEX_POINT ( 'NONE', #228 ) ;
#288 = ORIENTED_EDGE ( 'NONE', *, *, #200, .T. ) ;
#289 = VERTEX_POINT ( 'NONE', #101 ) ;
#290 = APPLICATION_PROTOCOL_DEFINITION ( 'draft international standard', 'automotive_design', 1998, #61 ) ;
#291 = DIRECTION ( 'NONE',  ( 1.000000000000000000, 0.0000000000000000000, 0.0000000000000000000 ) ) ;
#292 = CARTESIAN_POINT ( 'NONE',  ( 0.1875000000000000278, 2.296212748401287726E-17, 1.984999999999999654 ) ) ;
#293 = ORIENTED_EDGE ( 'NONE', *, *, #283, .T. ) ;
#294 = CYLINDRICAL_SURFACE ( 'NONE', #64, 0.1875000000000000278 ) ;
#295 = AXIS2_PLACEMENT_3D ( 'NONE', #19, #181, #15 ) ;
#296 = DIRECTION ( 'NONE',  ( -1.000000000000000000, 0.0000000000000000000, 0.0000000000000000000 ) ) ;
#297 = CARTESIAN_POINT ( 'NONE',  ( 0.0000000000000000000, 0.0000000000000000000, 1.984999999999999654 ) ) ;
#298 = CARTESIAN_POINT ( 'NONE',  ( -0.1873124999999999929, 0.0000000000000000000, 2.293916535652885596E-17 ) ) ;
#299 = VECTOR ( 'NONE', #188, 39.37007874015748143 ) ;
ENDSEC;
END-ISO-10303-21;
