ISO-10303-21;
HEADER;
FILE_DESCRIPTION (( 'STEP AP214' ),
    '1' );
FILE_NAME ('59947.STEP',
    '2023-06-23T00:17:35',
    ( '' ),
    ( '' ),
    'SwSTEP 2.0',
    'SolidWorks 2023',
    '' );
FILE_SCHEMA (( 'AUTOMOTIVE_DESIGN' ));
ENDSEC;

DATA;
#1 = COLOUR_RGB ( '',0.7921568627450980005, 0.8196078431372548767, 0.9333333333333333481 ) ;
#2 = MECHANICAL_DESIGN_GEOMETRIC_PRESENTATION_REPRESENTATION (  '', ( #167 ), #180 ) ;
#3 = EDGE_CURVE ( 'NONE', #61, #249, #192, .T. ) ;
#4 = CARTESIAN_POINT ( 'NONE',  ( 0.000000000000000000, 0.000000000000000000, 0.000000000000000000 ) ) ;
#5 =( GEOMETRIC_REPRESENTATION_CONTEXT ( 3 ) GLOBAL_UNCERTAINTY_ASSIGNED_CONTEXT ( ( #57 ) ) GLOBAL_UNIT_ASSIGNED_CONTEXT ( ( #275, #286, #113 ) ) REPRESENTATION_CONTEXT ( 'NONE', 'WORKASPACE' ) );
#6 = VERTEX_POINT ( 'NONE', #17 ) ;
#7 = EDGE_CURVE ( 'NONE', #197, #61, #19, .T. ) ;
#8 = CARTESIAN_POINT ( 'NONE',  ( -6.123233995736772199E-17, 3.000000000000000444, 0.000000000000000000 ) ) ;
#9 = ORIENTED_EDGE ( 'NONE', *, *, #26, .T. ) ;
#10 = LINE ( 'NONE', #213, #84 ) ;
#11 = AXIS2_PLACEMENT_3D ( 'NONE', #281, #35, #159 ) ;
#12 = FILL_AREA_STYLE ('',( #303 ) ) ;
#13 = LINE ( 'NONE', #287, #225 ) ;
#14 =( LENGTH_UNIT ( ) NAMED_UNIT ( * ) SI_UNIT ( $, .METRE. ) );
#15 = ORIENTED_EDGE ( 'NONE', *, *, #39, .T. ) ;
#16 = CARTESIAN_POINT ( 'NONE',  ( 0.000000000000000000, 1.250000000000000000, -0.2500000000000000000 ) ) ;
#17 = CARTESIAN_POINT ( 'NONE',  ( 0.2500000000000000000, 3.000000000000000444, 3.061616997868383634E-17 ) ) ;
#18 =( NAMED_UNIT ( * ) PLANE_ANGLE_UNIT ( ) SI_UNIT ( $, .RADIAN. ) );
#19 = CIRCLE ( 'NONE', #23, 0.2500000000000000000 ) ;
#20 =( NAMED_UNIT ( * ) SI_UNIT ( $, .STERADIAN. ) SOLID_ANGLE_UNIT ( ) );
#21 = FILL_AREA_STYLE ('',( #290 ) ) ;
#22 = MANIFOLD_SOLID_BREP ( 'Revolve - Tool Body (Straight Shanked)', #246 ) ;
#23 = AXIS2_PLACEMENT_3D ( 'NONE', #136, #107, #308 ) ;
#24 = FACE_OUTER_BOUND ( 'NONE', #36, .T. ) ;
#25 = EDGE_LOOP ( 'NONE', ( #38, #31, #15, #141 ) ) ;
#26 = EDGE_CURVE ( 'NONE', #249, #236, #114, .T. ) ;
#27 = CARTESIAN_POINT ( 'NONE',  ( 0.000000000000000000, 0.000000000000000000, 0.000000000000000000 ) ) ;
#28 = AXIS2_PLACEMENT_3D ( 'NONE', #4, #309, #203 ) ;
#29 = ORIENTED_EDGE ( 'NONE', *, *, #3, .F. ) ;
#30 = DIRECTION ( 'NONE',  ( -1.000000000000000000, 0.000000000000000000, 0.000000000000000000 ) ) ;
#31 = ORIENTED_EDGE ( 'NONE', *, *, #206, .T. ) ;
#32 = CARTESIAN_POINT ( 'NONE',  ( 1.530367125165163595E-34, 1.250000000000000000, 0.000000000000000000 ) ) ;
#33 =( LENGTH_UNIT ( ) NAMED_UNIT ( * ) SI_UNIT ( $, .METRE. ) );
#34 = AXIS2_PLACEMENT_3D ( 'NONE', #157, #254, #30 ) ;
#35 = DIRECTION ( 'NONE',  ( -3.498990854706726443E-17, 1.000000000000000000, -0.000000000000000000 ) ) ;
#36 = EDGE_LOOP ( 'NONE', ( #29, #163, #296, #183 ) ) ;
#37 =( NAMED_UNIT ( * ) PLANE_ANGLE_UNIT ( ) SI_UNIT ( $, .RADIAN. ) );
#38 = ORIENTED_EDGE ( 'NONE', *, *, #235, .F. ) ;
#39 = EDGE_CURVE ( 'NONE', #209, #49, #13, .T. ) ;
#40 = CARTESIAN_POINT ( 'NONE',  ( 0.000000000000000000, 0.000000000000000000, 0.000000000000000000 ) ) ;
#41 = PRESENTATION_STYLE_ASSIGNMENT (( #261 ) ) ;
#42 = MECHANICAL_DESIGN_GEOMETRIC_PRESENTATION_REPRESENTATION (  '', ( #280 ), #174 ) ;
#43 = FILL_AREA_STYLE ('',( #170 ) ) ;
#44 = MECHANICAL_DESIGN_GEOMETRIC_PRESENTATION_REPRESENTATION (  '', ( #256 ), #127 ) ;
#45 = AXIS2_PLACEMENT_3D ( 'NONE', #81, #108, #307 ) ;
#46 = DIRECTION ( 'NONE',  ( -1.000000000000000000, 0.000000000000000000, 0.000000000000000000 ) ) ;
#47 =( CONVERSION_BASED_UNIT ( 'INCH', #291 ) LENGTH_UNIT ( ) NAMED_UNIT ( #219 ) );
#48 =( CONVERSION_BASED_UNIT ( 'INCH', #99 ) LENGTH_UNIT ( ) NAMED_UNIT ( #133 ) );
#49 = VERTEX_POINT ( 'NONE', #109 ) ;
#50 = ADVANCED_FACE ( 'NONE', ( #216 ), #282, .T. ) ;
#51 = SURFACE_STYLE_FILL_AREA ( #277 ) ;
#52 = DIRECTION ( 'NONE',  ( 0.000000000000000000, 0.000000000000000000, -1.000000000000000000 ) ) ;
#53 = PRODUCT_DEFINITION ( 'UNKNOWN', '', #156, #224 ) ;
#54 = ORIENTED_EDGE ( 'NONE', *, *, #7, .F. ) ;
#55 =( NAMED_UNIT ( * ) PLANE_ANGLE_UNIT ( ) SI_UNIT ( $, .RADIAN. ) );
#56 = LENGTH_MEASURE_WITH_UNIT ( LENGTH_MEASURE( 0.02539999999999999897 ), #14 );
#57 = UNCERTAINTY_MEASURE_WITH_UNIT (LENGTH_MEASURE( 1.000000000000000082E-05 ), #275, 'distance_accuracy_value', 'NONE');
#58 = ADVANCED_FACE ( 'NONE', ( #273 ), #153, .T. ) ;
#59 = PRESENTATION_STYLE_ASSIGNMENT (( #234 ) ) ;
#60 = DIRECTION ( 'NONE',  ( -3.498990854706726443E-17, 1.000000000000000000, -0.000000000000000000 ) ) ;
#61 = VERTEX_POINT ( 'NONE', #247 ) ;
#62 = COLOUR_RGB ( '',1.000000000000000000, 0.000000000000000000, 0.000000000000000000 ) ;
#63 = CIRCLE ( 'NONE', #169, 0.2500000000000000000 ) ;
#64 = SURFACE_STYLE_USAGE ( .BOTH. , #172 ) ;
#65 = SURFACE_STYLE_FILL_AREA ( #21 ) ;
#66 = PRESENTATION_LAYER_ASSIGNMENT (  '', '', ( #167 ) ) ;
#67 = LENGTH_MEASURE_WITH_UNIT ( LENGTH_MEASURE( 0.02539999999999999897 ), #204 );
#68 = PRODUCT_CONTEXT ( 'NONE', #106, 'mechanical' ) ;
#69 = UNCERTAINTY_MEASURE_WITH_UNIT (LENGTH_MEASURE( 1.000000000000000082E-05 ), #176, 'distance_accuracy_value', 'NONE');
#70 = LENGTH_MEASURE_WITH_UNIT ( LENGTH_MEASURE( 0.02539999999999999897 ), #129 );
#71 = EDGE_LOOP ( 'NONE', ( #276, #138, #186, #103 ) ) ;
#72 = DIRECTION ( 'NONE',  ( -0.000000000000000000, -1.000000000000000000, -0.000000000000000000 ) ) ;
#73 = ORIENTED_EDGE ( 'NONE', *, *, #147, .F. ) ;
#74 = FACE_OUTER_BOUND ( 'NONE', #71, .T. ) ;
#75 = STYLED_ITEM ( 'NONE', ( #59 ), #22 ) ;
#76 = DIRECTION ( 'NONE',  ( -0.000000000000000000, -1.000000000000000000, -0.000000000000000000 ) ) ;
#77 = ORIENTED_EDGE ( 'NONE', *, *, #298, .F. ) ;
#78 = SURFACE_STYLE_FILL_AREA ( #12 ) ;
#79 = SURFACE_SIDE_STYLE ('',( #166 ) ) ;
#80 = EDGE_CURVE ( 'NONE', #197, #236, #208, .T. ) ;
#81 = CARTESIAN_POINT ( 'NONE',  ( 0.000000000000000000, 0.000000000000000000, 0.000000000000000000 ) ) ;
#82 = PRESENTATION_LAYER_ASSIGNMENT (  '', '', ( #75 ) ) ;
#83 = DIMENSIONAL_EXPONENTS ( 1.000000000000000000, 0.000000000000000000, 0.000000000000000000, 0.000000000000000000, 0.000000000000000000, 0.000000000000000000, 0.000000000000000000 ) ;
#84 = VECTOR ( 'NONE', #301, 39.37007874015748143 ) ;
#85 =( NAMED_UNIT ( * ) SI_UNIT ( $, .STERADIAN. ) SOLID_ANGLE_UNIT ( ) );
#86 =( NAMED_UNIT ( * ) SI_UNIT ( $, .STERADIAN. ) SOLID_ANGLE_UNIT ( ) );
#87 = CARTESIAN_POINT ( 'NONE',  ( 0.000000000000000000, 1.250000000000000000, 0.000000000000000000 ) ) ;
#88 = PRODUCT_DEFINITION_SHAPE ( 'NONE', 'NONE',  #53 ) ;
#89 = DIRECTION ( 'NONE',  ( 0.000000000000000000, 0.000000000000000000, -1.000000000000000000 ) ) ;
#90 = STYLED_ITEM ( 'NONE', ( #251 ), #96 ) ;
#91 = COLOUR_RGB ( '',0.7921568627450980005, 0.8196078431372548767, 0.9333333333333333481 ) ;
#92 = SURFACE_SIDE_STYLE ('',( #266 ) ) ;
#93 =( LENGTH_UNIT ( ) NAMED_UNIT ( * ) SI_UNIT ( $, .METRE. ) );
#94 = DIMENSIONAL_EXPONENTS ( 1.000000000000000000, 0.000000000000000000, 0.000000000000000000, 0.000000000000000000, 0.000000000000000000, 0.000000000000000000, 0.000000000000000000 ) ;
#95 = DIRECTION ( 'NONE',  ( -0.000000000000000000, -1.000000000000000000, -0.000000000000000000 ) ) ;
#96 = ADVANCED_FACE ( 'NONE', ( #24 ), #124, .T. ) ;
#97 = MECHANICAL_DESIGN_GEOMETRIC_PRESENTATION_REPRESENTATION (  '', ( #205 ), #252 ) ;
#98 = DIRECTION ( 'NONE',  ( 1.000000000000000000, 0.000000000000000000, 0.000000000000000000 ) ) ;
#99 = LENGTH_MEASURE_WITH_UNIT ( LENGTH_MEASURE( 0.02539999999999999897 ), #294 );
#100 = UNCERTAINTY_MEASURE_WITH_UNIT (LENGTH_MEASURE( 1.000000000000000082E-05 ), #111, 'distance_accuracy_value', 'NONE');
#101 = VECTOR ( 'NONE', #168, 39.37007874015748143 ) ;
#102 = CARTESIAN_POINT ( 'NONE',  ( 0.000000000000000000, 1.250000000000000000, 0.000000000000000000 ) ) ;
#103 = ORIENTED_EDGE ( 'NONE', *, *, #39, .F. ) ;
#104 = ORIENTED_EDGE ( 'NONE', *, *, #147, .T. ) ;
#105 = EDGE_LOOP ( 'NONE', ( #112, #262, #73, #278 ) ) ;
#106 = APPLICATION_CONTEXT ( 'automotive_design' ) ;
#107 = DIRECTION ( 'NONE',  ( -0.000000000000000000, -1.000000000000000000, -0.000000000000000000 ) ) ;
#108 = DIRECTION ( 'NONE',  ( -0.000000000000000000, -1.000000000000000000, -0.000000000000000000 ) ) ;
#109 = CARTESIAN_POINT ( 'NONE',  ( -0.2500000000000001110, 3.000000000000000444, 0.000000000000000000 ) ) ;
#110 = ADVANCED_FACE ( 'NONE', ( #74 ), #140, .T. ) ;
#111 =( CONVERSION_BASED_UNIT ( 'INCH', #56 ) LENGTH_UNIT ( ) NAMED_UNIT ( #191 ) );
#112 = ORIENTED_EDGE ( 'NONE', *, *, #7, .T. ) ;
#113 =( NAMED_UNIT ( * ) SI_UNIT ( $, .STERADIAN. ) SOLID_ANGLE_UNIT ( ) );
#114 = CIRCLE ( 'NONE', #289, 0.2500000000000000000 ) ;
#115 = EDGE_LOOP ( 'NONE', ( #54, #302 ) ) ;
#116 = AXIS2_PLACEMENT_3D ( 'NONE', #226, #264, #46 ) ;
#117 = CARTESIAN_POINT ( 'NONE',  ( 0.2500000000000000000, 3.000000000000000444, 0.000000000000000000 ) ) ;
#118 = FILL_AREA_STYLE_COLOUR ( '', #1 ) ;
#119 = DIRECTION ( 'NONE',  ( -3.498990854706726443E-17, 1.000000000000000000, -0.000000000000000000 ) ) ;
#120 = CARTESIAN_POINT ( 'NONE',  ( -6.123233995736772199E-17, 3.000000000000000444, 0.000000000000000000 ) ) ;
#121 = CIRCLE ( 'NONE', #196, 0.2500000000000000555 ) ;
#122 = ADVANCED_FACE ( 'NONE', ( #305 ), #189, .F. ) ;
#123 = MECHANICAL_DESIGN_GEOMETRIC_PRESENTATION_REPRESENTATION (  '', ( #90 ), #5 ) ;
#124 = CYLINDRICAL_SURFACE ( 'NONE', #45, 0.2500000000000000000 ) ;
#125 = EDGE_LOOP ( 'NONE', ( #104, #9 ) ) ;
#126 = UNCERTAINTY_MEASURE_WITH_UNIT (LENGTH_MEASURE( 1.000000000000000082E-05 ), #47, 'distance_accuracy_value', 'NONE');
#127 =( GEOMETRIC_REPRESENTATION_CONTEXT ( 3 ) GLOBAL_UNCERTAINTY_ASSIGNED_CONTEXT ( ( #69 ) ) GLOBAL_UNIT_ASSIGNED_CONTEXT ( ( #176, #271, #299 ) ) REPRESENTATION_CONTEXT ( 'NONE', 'WORKASPACE' ) );
#128 = AXIS2_PLACEMENT_3D ( 'NONE', #142, #238, #52 ) ;
#129 =( LENGTH_UNIT ( ) NAMED_UNIT ( * ) SI_UNIT ( $, .METRE. ) );
#130 = DIMENSIONAL_EXPONENTS ( 1.000000000000000000, 0.000000000000000000, 0.000000000000000000, 0.000000000000000000, 0.000000000000000000, 0.000000000000000000, 0.000000000000000000 ) ;
#131 = EDGE_LOOP ( 'NONE', ( #187, #211 ) ) ;
#132 = CARTESIAN_POINT ( 'NONE',  ( -0.2500000000000000000, 1.250000000000000000, 0.000000000000000000 ) ) ;
#133 = DIMENSIONAL_EXPONENTS ( 1.000000000000000000, 0.000000000000000000, 0.000000000000000000, 0.000000000000000000, 0.000000000000000000, 0.000000000000000000, 0.000000000000000000 ) ;
#134 = CARTESIAN_POINT ( 'NONE',  ( 0.2500000000000000000, 1.250000000000000000, 3.061616997868383634E-17 ) ) ;
#135 = VECTOR ( 'NONE', #72, 39.37007874015748143 ) ;
#136 = CARTESIAN_POINT ( 'NONE',  ( 0.000000000000000000, 1.250000000000000000, 0.000000000000000000 ) ) ;
#137 = CYLINDRICAL_SURFACE ( 'NONE', #128, 0.2500000000000000000 ) ;
#138 = ORIENTED_EDGE ( 'NONE', *, *, #235, .T. ) ;
#139 = ADVANCED_FACE ( 'NONE', ( #230 ), #255, .F. ) ;
#140 = CYLINDRICAL_SURFACE ( 'NONE', #11, 0.2500000000000000555 ) ;
#141 = ORIENTED_EDGE ( 'NONE', *, *, #241, .F. ) ;
#142 = CARTESIAN_POINT ( 'NONE',  ( 0.000000000000000000, 0.000000000000000000, 0.000000000000000000 ) ) ;
#143 = COLOUR_RGB ( '',1.000000000000000000, 0.000000000000000000, 0.000000000000000000 ) ;
#144 =( GEOMETRIC_REPRESENTATION_CONTEXT ( 3 ) GLOBAL_UNCERTAINTY_ASSIGNED_CONTEXT ( ( #268 ) ) GLOBAL_UNIT_ASSIGNED_CONTEXT ( ( #48, #207, #272 ) ) REPRESENTATION_CONTEXT ( 'NONE', 'WORKASPACE' ) );
#145 =( CONVERSION_BASED_UNIT ( 'INCH', #151 ) LENGTH_UNIT ( ) NAMED_UNIT ( #83 ) );
#146 = SURFACE_STYLE_USAGE ( .BOTH. , #92 ) ;
#147 = EDGE_CURVE ( 'NONE', #236, #249, #300, .T. ) ;
#148 = MECHANICAL_DESIGN_GEOMETRIC_PRESENTATION_REPRESENTATION (  '', ( #75 ), #218 ) ;
#149 = PRESENTATION_LAYER_ASSIGNMENT (  '', '', ( #280 ) ) ;
#150 = FACE_OUTER_BOUND ( 'NONE', #125, .T. ) ;
#151 = LENGTH_MEASURE_WITH_UNIT ( LENGTH_MEASURE( 0.02539999999999999897 ), #202 );
#152 = SHAPE_DEFINITION_REPRESENTATION ( #88, #161 ) ;
#153 = CYLINDRICAL_SURFACE ( 'NONE', #173, 0.2500000000000000555 ) ;
#154 = APPLICATION_PROTOCOL_DEFINITION ( 'draft international standard', 'automotive_design', 1998, #250 ) ;
#155 = SURFACE_STYLE_USAGE ( .BOTH. , #178 ) ;
#156 = PRODUCT_DEFINITION_FORMATION_WITH_SPECIFIED_SOURCE ( 'ANY', '', #212, .NOT_KNOWN. ) ;
#157 = CARTESIAN_POINT ( 'NONE',  ( 0.000000000000000000, 1.250000000000000000, 0.000000000000000000 ) ) ;
#158 = DIRECTION ( 'NONE',  ( -0.000000000000000000, -1.000000000000000000, -0.000000000000000000 ) ) ;
#159 = DIRECTION ( 'NONE',  ( -1.000000000000000000, 0.000000000000000000, 0.000000000000000000 ) ) ;
#160 = PRESENTATION_LAYER_ASSIGNMENT (  '', '', ( #90 ) ) ;
#161 = ADVANCED_BREP_SHAPE_REPRESENTATION ( '59947', ( #239, #22, #220 ), #144 ) ;
#162 = PRESENTATION_LAYER_ASSIGNMENT (  '', '', ( #205 ) ) ;
#163 = ORIENTED_EDGE ( 'NONE', *, *, #253, .T. ) ;
#164 = DIRECTION ( 'NONE',  ( 1.000000000000000000, 3.498990854706726443E-17, 0.000000000000000000 ) ) ;
#165 = SURFACE_SIDE_STYLE ('',( #306 ) ) ;
#166 = SURFACE_STYLE_FILL_AREA ( #222 ) ;
#167 = STYLED_ITEM ( 'NONE', ( #233 ), #185 ) ;
#168 = DIRECTION ( 'NONE',  ( -0.000000000000000000, -1.000000000000000000, -0.000000000000000000 ) ) ;
#169 = AXIS2_PLACEMENT_3D ( 'NONE', #240, #95, #175 ) ;
#170 = FILL_AREA_STYLE_COLOUR ( '', #265 ) ;
#171 =( NAMED_UNIT ( * ) SI_UNIT ( $, .STERADIAN. ) SOLID_ANGLE_UNIT ( ) );
#172 = SURFACE_SIDE_STYLE ('',( #65 ) ) ;
#173 = AXIS2_PLACEMENT_3D ( 'NONE', #8, #297, #210 ) ;
#174 =( GEOMETRIC_REPRESENTATION_CONTEXT ( 3 ) GLOBAL_UNCERTAINTY_ASSIGNED_CONTEXT ( ( #260 ) ) GLOBAL_UNIT_ASSIGNED_CONTEXT ( ( #145, #18, #20 ) ) REPRESENTATION_CONTEXT ( 'NONE', 'WORKASPACE' ) );
#175 = DIRECTION ( 'NONE',  ( 0.000000000000000000, 0.000000000000000000, -1.000000000000000000 ) ) ;
#176 =( CONVERSION_BASED_UNIT ( 'INCH', #67 ) LENGTH_UNIT ( ) NAMED_UNIT ( #130 ) );
#177 = DIRECTION ( 'NONE',  ( 0.000000000000000000, -0.000000000000000000, 1.000000000000000000 ) ) ;
#178 = SURFACE_SIDE_STYLE ('',( #51 ) ) ;
#179 = VERTEX_POINT ( 'NONE', #134 ) ;
#180 =( GEOMETRIC_REPRESENTATION_CONTEXT ( 3 ) GLOBAL_UNCERTAINTY_ASSIGNED_CONTEXT ( ( #100 ) ) GLOBAL_UNIT_ASSIGNED_CONTEXT ( ( #111, #37, #85 ) ) REPRESENTATION_CONTEXT ( 'NONE', 'WORKASPACE' ) );
#181 = DIRECTION ( 'NONE',  ( 0.000000000000000000, 0.000000000000000000, 1.000000000000000000 ) ) ;
#182 = DIRECTION ( 'NONE',  ( 0.000000000000000000, 1.000000000000000000, 0.000000000000000000 ) ) ;
#183 = ORIENTED_EDGE ( 'NONE', *, *, #26, .F. ) ;
#184 = FILL_AREA_STYLE_COLOUR ( '', #263 ) ;
#185 = ADVANCED_FACE ( 'NONE', ( #284 ), #137, .T. ) ;
#186 = ORIENTED_EDGE ( 'NONE', *, *, #244, .F. ) ;
#187 = ORIENTED_EDGE ( 'NONE', *, *, #244, .T. ) ;
#188 = DIRECTION ( 'NONE',  ( -1.000000000000000000, -3.498990854706726443E-17, 0.000000000000000000 ) ) ;
#189 = PLANE ( 'NONE',  #194 ) ;
#190 = SURFACE_SIDE_STYLE ('',( #78 ) ) ;
#191 = DIMENSIONAL_EXPONENTS ( 1.000000000000000000, 0.000000000000000000, 0.000000000000000000, 0.000000000000000000, 0.000000000000000000, 0.000000000000000000, 0.000000000000000000 ) ;
#192 = LINE ( 'NONE', #199, #101 ) ;
#193 = DIRECTION ( 'NONE',  ( -3.498990854706726443E-17, 1.000000000000000000, 0.000000000000000000 ) ) ;
#194 = AXIS2_PLACEMENT_3D ( 'NONE', #117, #283, #164 ) ;
#195 = UNCERTAINTY_MEASURE_WITH_UNIT (LENGTH_MEASURE( 1.000000000000000082E-05 ), #285, 'distance_accuracy_value', 'NONE');
#196 = AXIS2_PLACEMENT_3D ( 'NONE', #120, #119, #269 ) ;
#197 = VERTEX_POINT ( 'NONE', #16 ) ;
#198 = PRODUCT_RELATED_PRODUCT_CATEGORY ( 'part', '', ( #212 ) ) ;
#199 = CARTESIAN_POINT ( 'NONE',  ( 3.061616997868383018E-17, 0.000000000000000000, 0.2500000000000000000 ) ) ;
#200 = PRESENTATION_STYLE_ASSIGNMENT (( #64 ) ) ;
#201 =( NAMED_UNIT ( * ) PLANE_ANGLE_UNIT ( ) SI_UNIT ( $, .RADIAN. ) );
#202 =( LENGTH_UNIT ( ) NAMED_UNIT ( * ) SI_UNIT ( $, .METRE. ) );
#203 = DIRECTION ( 'NONE',  ( 0.000000000000000000, 0.000000000000000000, -1.000000000000000000 ) ) ;
#204 =( LENGTH_UNIT ( ) NAMED_UNIT ( * ) SI_UNIT ( $, .METRE. ) );
#205 = STYLED_ITEM ( 'NONE', ( #242 ), #248 ) ;
#206 = EDGE_CURVE ( 'NONE', #179, #209, #257, .T. ) ;
#207 =( NAMED_UNIT ( * ) PLANE_ANGLE_UNIT ( ) SI_UNIT ( $, .RADIAN. ) );
#208 = LINE ( 'NONE', #245, #135 ) ;
#209 = VERTEX_POINT ( 'NONE', #132 ) ;
#210 = DIRECTION ( 'NONE',  ( -1.000000000000000000, 0.000000000000000000, 0.000000000000000000 ) ) ;
#211 = ORIENTED_EDGE ( 'NONE', *, *, #241, .T. ) ;
#212 = PRODUCT ( '59947', '59947', '', ( #68 ) ) ;
#213 = CARTESIAN_POINT ( 'NONE',  ( 0.2499999999999999722, 3.000000000000000444, 3.061616997868383634E-17 ) ) ;
#214 = CARTESIAN_POINT ( 'NONE',  ( 0.000000000000000000, 0.000000000000000000, 0.000000000000000000 ) ) ;
#215 = DIRECTION ( 'NONE',  ( 0.000000000000000000, 0.000000000000000000, -1.000000000000000000 ) ) ;
#216 = FACE_OUTER_BOUND ( 'NONE', #115, .T. ) ;
#217 = FILL_AREA_STYLE ('',( #304 ) ) ;
#218 =( GEOMETRIC_REPRESENTATION_CONTEXT ( 3 ) GLOBAL_UNCERTAINTY_ASSIGNED_CONTEXT ( ( #195 ) ) GLOBAL_UNIT_ASSIGNED_CONTEXT ( ( #285, #55, #86 ) ) REPRESENTATION_CONTEXT ( 'NONE', 'WORKASPACE' ) );
#219 = DIMENSIONAL_EXPONENTS ( 1.000000000000000000, 0.000000000000000000, 0.000000000000000000, 0.000000000000000000, 0.000000000000000000, 0.000000000000000000, 0.000000000000000000 ) ;
#220 = AXIS2_PLACEMENT_3D ( 'NONE', #27, #181, #98 ) ;
#221 = DIMENSIONAL_EXPONENTS ( 1.000000000000000000, 0.000000000000000000, 0.000000000000000000, 0.000000000000000000, 0.000000000000000000, 0.000000000000000000, 0.000000000000000000 ) ;
#222 = FILL_AREA_STYLE ('',( #118 ) ) ;
#223 = CARTESIAN_POINT ( 'NONE',  ( 0.000000000000000000, 0.000000000000000000, -0.2500000000000000000 ) ) ;
#224 = PRODUCT_DEFINITION_CONTEXT ( 'detailed design', #250, 'design' ) ;
#225 = VECTOR ( 'NONE', #60, 39.37007874015748143 ) ;
#226 = CARTESIAN_POINT ( 'NONE',  ( -6.123233995736772199E-17, 3.000000000000000444, 0.000000000000000000 ) ) ;
#227 = CIRCLE ( 'NONE', #116, 0.2500000000000000555 ) ;
#228 = AXIS2_PLACEMENT_3D ( 'NONE', #40, #76, #215 ) ;
#229 = AXIS2_PLACEMENT_3D ( 'NONE', #32, #193, #188 ) ;
#230 = FACE_OUTER_BOUND ( 'NONE', #259, .T. ) ;
#231 = LENGTH_MEASURE_WITH_UNIT ( LENGTH_MEASURE( 0.02539999999999999897 ), #33 );
#232 = AXIS2_PLACEMENT_3D ( 'NONE', #87, #288, #270 ) ;
#233 = PRESENTATION_STYLE_ASSIGNMENT (( #258 ) ) ;
#234 = SURFACE_STYLE_USAGE ( .BOTH. , #79 ) ;
#235 = EDGE_CURVE ( 'NONE', #179, #6, #10, .T. ) ;
#236 = VERTEX_POINT ( 'NONE', #223 ) ;
#237 = CLOSED_SHELL ( 'NONE', ( #185, #50, #96, #248 ) ) ;
#238 = DIRECTION ( 'NONE',  ( -0.000000000000000000, -1.000000000000000000, -0.000000000000000000 ) ) ;
#239 = MANIFOLD_SOLID_BREP ( 'Revolve - Cutting Edge', #237 ) ;
#240 = CARTESIAN_POINT ( 'NONE',  ( 0.000000000000000000, 1.250000000000000000, 0.000000000000000000 ) ) ;
#241 = EDGE_CURVE ( 'NONE', #6, #49, #121, .T. ) ;
#242 = PRESENTATION_STYLE_ASSIGNMENT (( #146 ) ) ;
#243 = PRESENTATION_LAYER_ASSIGNMENT (  '', '', ( #256 ) ) ;
#244 = EDGE_CURVE ( 'NONE', #49, #6, #227, .T. ) ;
#245 = CARTESIAN_POINT ( 'NONE',  ( 0.000000000000000000, 0.000000000000000000, -0.2500000000000000000 ) ) ;
#246 = CLOSED_SHELL ( 'NONE', ( #110, #139, #58, #122 ) ) ;
#247 = CARTESIAN_POINT ( 'NONE',  ( 3.061616997868383018E-17, 1.250000000000000000, 0.2500000000000000000 ) ) ;
#248 = ADVANCED_FACE ( 'NONE', ( #150 ), #267, .T. ) ;
#249 = VERTEX_POINT ( 'NONE', #292 ) ;
#250 = APPLICATION_CONTEXT ( 'automotive_design' ) ;
#251 = PRESENTATION_STYLE_ASSIGNMENT (( #155 ) ) ;
#252 =( GEOMETRIC_REPRESENTATION_CONTEXT ( 3 ) GLOBAL_UNCERTAINTY_ASSIGNED_CONTEXT ( ( #126 ) ) GLOBAL_UNIT_ASSIGNED_CONTEXT ( ( #47, #201, #171 ) ) REPRESENTATION_CONTEXT ( 'NONE', 'WORKASPACE' ) );
#253 = EDGE_CURVE ( 'NONE', #61, #197, #63, .T. ) ;
#254 = DIRECTION ( 'NONE',  ( -3.498990854706726443E-17, 1.000000000000000000, -0.000000000000000000 ) ) ;
#255 = PLANE ( 'NONE',  #229 ) ;
#256 = STYLED_ITEM ( 'NONE', ( #41 ), #50 ) ;
#257 = CIRCLE ( 'NONE', #34, 0.2500000000000000000 ) ;
#258 = SURFACE_STYLE_USAGE ( .BOTH. , #190 ) ;
#259 = EDGE_LOOP ( 'NONE', ( #77, #279 ) ) ;
#260 = UNCERTAINTY_MEASURE_WITH_UNIT (LENGTH_MEASURE( 1.000000000000000082E-05 ), #145, 'distance_accuracy_value', 'NONE');
#261 = SURFACE_STYLE_USAGE ( .BOTH. , #165 ) ;
#262 = ORIENTED_EDGE ( 'NONE', *, *, #3, .T. ) ;
#263 = COLOUR_RGB ( '',1.000000000000000000, 0.000000000000000000, 0.000000000000000000 ) ;
#264 = DIRECTION ( 'NONE',  ( -3.498990854706726443E-17, 1.000000000000000000, -0.000000000000000000 ) ) ;
#265 = COLOUR_RGB ( '',1.000000000000000000, 0.000000000000000000, 0.000000000000000000 ) ;
#266 = SURFACE_STYLE_FILL_AREA ( #43 ) ;
#267 = PLANE ( 'NONE',  #28 ) ;
#268 = UNCERTAINTY_MEASURE_WITH_UNIT (LENGTH_MEASURE( 1.000000000000000082E-05 ), #48, 'distance_accuracy_value', 'NONE');
#269 = DIRECTION ( 'NONE',  ( -1.000000000000000000, 0.000000000000000000, 0.000000000000000000 ) ) ;
#270 = DIRECTION ( 'NONE',  ( -1.000000000000000000, 0.000000000000000000, 0.000000000000000000 ) ) ;
#271 =( NAMED_UNIT ( * ) PLANE_ANGLE_UNIT ( ) SI_UNIT ( $, .RADIAN. ) );
#272 =( NAMED_UNIT ( * ) SI_UNIT ( $, .STERADIAN. ) SOLID_ANGLE_UNIT ( ) );
#273 = FACE_OUTER_BOUND ( 'NONE', #25, .T. ) ;
#274 = APPLICATION_PROTOCOL_DEFINITION ( 'draft international standard', 'automotive_design', 1998, #106 ) ;
#275 =( CONVERSION_BASED_UNIT ( 'INCH', #70 ) LENGTH_UNIT ( ) NAMED_UNIT ( #221 ) );
#276 = ORIENTED_EDGE ( 'NONE', *, *, #298, .T. ) ;
#277 = FILL_AREA_STYLE ('',( #184 ) ) ;
#278 = ORIENTED_EDGE ( 'NONE', *, *, #80, .F. ) ;
#279 = ORIENTED_EDGE ( 'NONE', *, *, #206, .F. ) ;
#280 = STYLED_ITEM ( 'NONE', ( #200 ), #239 ) ;
#281 = CARTESIAN_POINT ( 'NONE',  ( -6.123233995736772199E-17, 3.000000000000000444, 0.000000000000000000 ) ) ;
#282 = PLANE ( 'NONE',  #295 ) ;
#283 = DIRECTION ( 'NONE',  ( 3.498990854706726443E-17, -1.000000000000000000, 0.000000000000000000 ) ) ;
#284 = FACE_OUTER_BOUND ( 'NONE', #105, .T. ) ;
#285 =( CONVERSION_BASED_UNIT ( 'INCH', #231 ) LENGTH_UNIT ( ) NAMED_UNIT ( #94 ) );
#286 =( NAMED_UNIT ( * ) PLANE_ANGLE_UNIT ( ) SI_UNIT ( $, .RADIAN. ) );
#287 = CARTESIAN_POINT ( 'NONE',  ( -0.2500000000000001110, 3.000000000000000444, 0.000000000000000000 ) ) ;
#288 = DIRECTION ( 'NONE',  ( -3.498990854706726443E-17, 1.000000000000000000, -0.000000000000000000 ) ) ;
#289 = AXIS2_PLACEMENT_3D ( 'NONE', #214, #158, #89 ) ;
#290 = FILL_AREA_STYLE_COLOUR ( '', #91 ) ;
#291 = LENGTH_MEASURE_WITH_UNIT ( LENGTH_MEASURE( 0.02539999999999999897 ), #93 );
#292 = CARTESIAN_POINT ( 'NONE',  ( 3.061616997868383018E-17, 0.000000000000000000, 0.2500000000000000000 ) ) ;
#293 = CIRCLE ( 'NONE', #232, 0.2500000000000000000 ) ;
#294 =( LENGTH_UNIT ( ) NAMED_UNIT ( * ) SI_UNIT ( $, .METRE. ) );
#295 = AXIS2_PLACEMENT_3D ( 'NONE', #102, #182, #177 ) ;
#296 = ORIENTED_EDGE ( 'NONE', *, *, #80, .T. ) ;
#297 = DIRECTION ( 'NONE',  ( -3.498990854706726443E-17, 1.000000000000000000, -0.000000000000000000 ) ) ;
#298 = EDGE_CURVE ( 'NONE', #209, #179, #293, .T. ) ;
#299 =( NAMED_UNIT ( * ) SI_UNIT ( $, .STERADIAN. ) SOLID_ANGLE_UNIT ( ) );
#300 = CIRCLE ( 'NONE', #228, 0.2500000000000000000 ) ;
#301 = DIRECTION ( 'NONE',  ( -3.498990854706726443E-17, 1.000000000000000000, -0.000000000000000000 ) ) ;
#302 = ORIENTED_EDGE ( 'NONE', *, *, #253, .F. ) ;
#303 = FILL_AREA_STYLE_COLOUR ( '', #143 ) ;
#304 = FILL_AREA_STYLE_COLOUR ( '', #62 ) ;
#305 = FACE_OUTER_BOUND ( 'NONE', #131, .T. ) ;
#306 = SURFACE_STYLE_FILL_AREA ( #217 ) ;
#307 = DIRECTION ( 'NONE',  ( 0.000000000000000000, 0.000000000000000000, -1.000000000000000000 ) ) ;
#308 = DIRECTION ( 'NONE',  ( 0.000000000000000000, 0.000000000000000000, -1.000000000000000000 ) ) ;
#309 = DIRECTION ( 'NONE',  ( 0.000000000000000000, -1.000000000000000000, -0.000000000000000000 ) ) ;
ENDSEC;
END-ISO-10303-21;
