ISO-10303-21;
HEADER;
FILE_DESCRIPTION (( 'STEP AP214' ),
    '1' );
FILE_NAME ('Micro_RNCM-030-2.STEP',
    '2021-09-03T17:39:42',
    ( '' ),
    ( '' ),
    'SwSTEP 2.0',
    'SolidWorks 2020',
    '' );
FILE_SCHEMA (( 'AUTOMOTIVE_DESIGN' ));
ENDSEC;

DATA;
#1 = DIRECTION ( 'NONE',  ( -1.000000000000000000, 0.0000000000000000000, 0.0000000000000000000 ) ) ;
#2 = SURFACE_STYLE_USAGE ( .BOTH. , #178 ) ;
#3 = VECTOR ( 'NONE', #124, 39.37007874015748143 ) ;
#4 = CARTESIAN_POINT ( 'NONE',  ( 0.0000000000000000000, 0.0000000000000000000, 1.440944999999999920 ) ) ;
#5 = EDGE_LOOP ( 'NONE', ( #46, #42, #47, #245 ) ) ;
#6 = FILL_AREA_STYLE_COLOUR ( '', #122 ) ;
#7 = STYLED_ITEM ( 'NONE', ( #27 ), #204 ) ;
#8 = EDGE_LOOP ( 'NONE', ( #115, #173 ) ) ;
#9 = VERTEX_POINT ( 'NONE', #194 ) ;
#10 = VERTEX_POINT ( 'NONE', #83 ) ;
#11 = DIRECTION ( 'NONE',  ( -0.0000000000000000000, -0.0000000000000000000, -1.000000000000000000 ) ) ;
#12 = ORIENTED_EDGE ( 'NONE', *, *, #85, .F. ) ;
#13 = CARTESIAN_POINT ( 'NONE',  ( 0.0000000000000000000, 0.0000000000000000000, 0.0000000000000000000 ) ) ;
#14 = DIRECTION ( 'NONE',  ( 1.000000000000000000, 0.0000000000000000000, 0.0000000000000000000 ) ) ;
#15 = ORIENTED_EDGE ( 'NONE', *, *, #183, .F. ) ;
#16 = CYLINDRICAL_SURFACE ( 'NONE', #221, 0.05905500000000001720 ) ;
#17 = EDGE_LOOP ( 'NONE', ( #112, #232, #43, #229 ) ) ;
#18 = CARTESIAN_POINT ( 'NONE',  ( 0.0000000000000000000, 0.0000000000000000000, 0.0000000000000000000 ) ) ;
#19 = CARTESIAN_POINT ( 'NONE',  ( 0.0000000000000000000, 0.0000000000000000000, 0.0000000000000000000 ) ) ;
#20 =( LENGTH_UNIT ( ) NAMED_UNIT ( * ) SI_UNIT ( $, .METRE. ) );
#21 = CIRCLE ( 'NONE', #33, 0.05905499999999998251 ) ;
#22 = CARTESIAN_POINT ( 'NONE',  ( -0.003936999999999995191, 3.857147558594503404E-18, 0.0000000000000000000 ) ) ;
#23 = DIMENSIONAL_EXPONENTS ( 1.000000000000000000, 0.0000000000000000000, 0.0000000000000000000, 0.0000000000000000000, 0.0000000000000000000, 0.0000000000000000000, 0.0000000000000000000 ) ;
#24 = ORIENTED_EDGE ( 'NONE', *, *, #70, .T. ) ;
#25 = CARTESIAN_POINT ( 'NONE',  ( 0.05905499999999998251, 7.232151672364692341E-18, 1.440944999999999920 ) ) ;
#26 = ADVANCED_FACE ( 'NONE', ( #61 ), #58, .T. ) ;
#27 = PRESENTATION_STYLE_ASSIGNMENT (( #2 ) ) ;
#28 = APPLICATION_CONTEXT ( 'automotive_design' ) ;
#29 = PRODUCT ( 'Micro_RNCM-030-2', 'Micro_RNCM-030-2', '', ( #64 ) ) ;
#30 = ORIENTED_EDGE ( 'NONE', *, *, #183, .T. ) ;
#31 = CARTESIAN_POINT ( 'NONE',  ( 0.0000000000000000000, 0.0000000000000000000, 0.05511799999999983379 ) ) ;
#32 = CONICAL_SURFACE ( 'NONE', #191, 0.003936999999999995191, 0.7853981633974497223 ) ;
#33 = AXIS2_PLACEMENT_3D ( 'NONE', #242, #184, #134 ) ;
#34 = CARTESIAN_POINT ( 'NONE',  ( -0.003936999999999995191, -4.821434448243123477E-19, 1.496062999999999921 ) ) ;
#35 = ORIENTED_EDGE ( 'NONE', *, *, #182, .F. ) ;
#36 = DIRECTION ( 'NONE',  ( -1.000000000000000000, 0.0000000000000000000, 0.0000000000000000000 ) ) ;
#37 = ADVANCED_FACE ( 'NONE', ( #171 ), #32, .T. ) ;
#38 = LINE ( 'NONE', #155, #207 ) ;
#39 = CARTESIAN_POINT ( 'NONE',  ( 0.0000000000000000000, 0.0000000000000000000, 1.496062999999999921 ) ) ;
#40 =( GEOMETRIC_REPRESENTATION_CONTEXT ( 3 ) GLOBAL_UNCERTAINTY_ASSIGNED_CONTEXT ( ( #152 ) ) GLOBAL_UNIT_ASSIGNED_CONTEXT ( ( #84, #160, #69 ) ) REPRESENTATION_CONTEXT ( 'NONE', 'WORKASPACE' ) );
#41 = DIRECTION ( 'NONE',  ( -0.0000000000000000000, -0.0000000000000000000, -1.000000000000000000 ) ) ;
#42 = ORIENTED_EDGE ( 'NONE', *, *, #222, .T. ) ;
#43 = ORIENTED_EDGE ( 'NONE', *, *, #182, .T. ) ;
#44 = LINE ( 'NONE', #210, #161 ) ;
#45 = PRESENTATION_LAYER_ASSIGNMENT (  '', '', ( #7 ) ) ;
#46 = ORIENTED_EDGE ( 'NONE', *, *, #62, .T. ) ;
#47 = ORIENTED_EDGE ( 'NONE', *, *, #143, .F. ) ;
#48 = CARTESIAN_POINT ( 'NONE',  ( -0.05905500000000001720, 0.0000000000000000000, 1.496062999999999921 ) ) ;
#49 = MECHANICAL_DESIGN_GEOMETRIC_PRESENTATION_REPRESENTATION (  '', ( #136 ), #148 ) ;
#50 = VERTEX_POINT ( 'NONE', #193 ) ;
#51 =( GEOMETRIC_REPRESENTATION_CONTEXT ( 3 ) GLOBAL_UNCERTAINTY_ASSIGNED_CONTEXT ( ( #216 ) ) GLOBAL_UNIT_ASSIGNED_CONTEXT ( ( #94, #225, #75 ) ) REPRESENTATION_CONTEXT ( 'NONE', 'WORKASPACE' ) );
#52 = PRODUCT_DEFINITION_CONTEXT ( 'detailed design', #28, 'design' ) ;
#53 = EDGE_CURVE ( 'NONE', #147, #162, #146, .T. ) ;
#54 = CARTESIAN_POINT ( 'NONE',  ( 0.003936999999999995191, 0.0000000000000000000, 0.0000000000000000000 ) ) ;
#55 = LINE ( 'NONE', #223, #92 ) ;
#56 = AXIS2_PLACEMENT_3D ( 'NONE', #4, #177, #1 ) ;
#57 = DIRECTION ( 'NONE',  ( 0.7071067811865484609, 0.0000000000000000000, -0.7071067811865464625 ) ) ;
#58 = PLANE ( 'NONE',  #218 ) ;
#59 = DIRECTION ( 'NONE',  ( 0.0000000000000000000, 0.0000000000000000000, -1.000000000000000000 ) ) ;
#60 = CIRCLE ( 'NONE', #226, 0.003936999999999995191 ) ;
#61 = FACE_OUTER_BOUND ( 'NONE', #8, .T. ) ;
#62 = EDGE_CURVE ( 'NONE', #162, #147, #247, .T. ) ;
#63 = ORIENTED_EDGE ( 'NONE', *, *, #126, .F. ) ;
#64 = PRODUCT_CONTEXT ( 'NONE', #109, 'mechanical' ) ;
#65 = APPLICATION_PROTOCOL_DEFINITION ( 'draft international standard', 'automotive_design', 1998, #109 ) ;
#66 = VECTOR ( 'NONE', #238, 39.37007874015748143 ) ;
#67 = ORIENTED_EDGE ( 'NONE', *, *, #233, .T. ) ;
#68 = DIRECTION ( 'NONE',  ( 1.000000000000000000, 0.0000000000000000000, 0.0000000000000000000 ) ) ;
#69 =( NAMED_UNIT ( * ) SI_UNIT ( $, .STERADIAN. ) SOLID_ANGLE_UNIT ( ) );
#70 = EDGE_CURVE ( 'NONE', #185, #9, #44, .T. ) ;
#71 = DIRECTION ( 'NONE',  ( 0.0000000000000000000, 0.0000000000000000000, 1.000000000000000000 ) ) ;
#72 = ORIENTED_EDGE ( 'NONE', *, *, #53, .T. ) ;
#73 = CIRCLE ( 'NONE', #157, 0.003936999999999995191 ) ;
#74 = LENGTH_MEASURE_WITH_UNIT ( LENGTH_MEASURE( 0.02539999999999999897 ), #80 );
#75 =( NAMED_UNIT ( * ) SI_UNIT ( $, .STERADIAN. ) SOLID_ANGLE_UNIT ( ) );
#76 = CIRCLE ( 'NONE', #56, 0.05905499999999998251 ) ;
#77 = PRESENTATION_STYLE_ASSIGNMENT (( #236 ) ) ;
#78 = DIMENSIONAL_EXPONENTS ( 1.000000000000000000, 0.0000000000000000000, 0.0000000000000000000, 0.0000000000000000000, 0.0000000000000000000, 0.0000000000000000000, 0.0000000000000000000 ) ;
#79 = DIRECTION ( 'NONE',  ( -1.000000000000000000, 0.0000000000000000000, 0.0000000000000000000 ) ) ;
#80 =( LENGTH_UNIT ( ) NAMED_UNIT ( * ) SI_UNIT ( $, .METRE. ) );
#81 = ORIENTED_EDGE ( 'NONE', *, *, #199, .F. ) ;
#82 = AXIS2_PLACEMENT_3D ( 'NONE', #18, #71, #119 ) ;
#83 = CARTESIAN_POINT ( 'NONE',  ( -0.05905499999999998251, 0.0000000000000000000, 0.05511799999999983379 ) ) ;
#84 =( CONVERSION_BASED_UNIT ( 'INCH', #74 ) LENGTH_UNIT ( ) NAMED_UNIT ( #228 ) );
#85 = EDGE_CURVE ( 'NONE', #185, #141, #60, .T. ) ;
#86 = AXIS2_PLACEMENT_3D ( 'NONE', #249, #246, #234 ) ;
#87 = ADVANCED_FACE ( 'NONE', ( #196 ), #16, .T. ) ;
#88 = SURFACE_STYLE_FILL_AREA ( #101 ) ;
#89 = FACE_OUTER_BOUND ( 'NONE', #214, .T. ) ;
#90 = SURFACE_STYLE_FILL_AREA ( #100 ) ;
#91 = DIRECTION ( 'NONE',  ( -1.000000000000000000, 0.0000000000000000000, 0.0000000000000000000 ) ) ;
#92 = VECTOR ( 'NONE', #129, 39.37007874015748854 ) ;
#93 = ADVANCED_FACE ( 'NONE', ( #97 ), #113, .T. ) ;
#94 =( CONVERSION_BASED_UNIT ( 'INCH', #125 ) LENGTH_UNIT ( ) NAMED_UNIT ( #78 ) );
#95 = EDGE_CURVE ( 'NONE', #141, #185, #73, .T. ) ;
#96 = DIRECTION ( 'NONE',  ( 1.000000000000000000, 0.0000000000000000000, -0.0000000000000000000 ) ) ;
#97 = FACE_OUTER_BOUND ( 'NONE', #17, .T. ) ;
#98 = SHAPE_DEFINITION_REPRESENTATION ( #149, #204 ) ;
#99 = LINE ( 'NONE', #203, #66 ) ;
#100 = FILL_AREA_STYLE ('',( #202 ) ) ;
#101 = FILL_AREA_STYLE ('',( #6 ) ) ;
#102 = CONICAL_SURFACE ( 'NONE', #107, 0.003936999999999995191, 0.7853981633974497223 ) ;
#103 = CARTESIAN_POINT ( 'NONE',  ( -0.003936999999999995191, -3.857147558594503404E-18, 1.496062999999999921 ) ) ;
#104 = CARTESIAN_POINT ( 'NONE',  ( 0.003936999999999995191, 0.0000000000000000000, 1.496062999999999921 ) ) ;
#105 = ORIENTED_EDGE ( 'NONE', *, *, #189, .F. ) ;
#106 = MECHANICAL_DESIGN_GEOMETRIC_PRESENTATION_REPRESENTATION (  '', ( #7 ), #51 ) ;
#107 = AXIS2_PLACEMENT_3D ( 'NONE', #198, #164, #219 ) ;
#108 = DIRECTION ( 'NONE',  ( -1.000000000000000000, 0.0000000000000000000, 0.0000000000000000000 ) ) ;
#109 = APPLICATION_CONTEXT ( 'automotive_design' ) ;
#110 = DIRECTION ( 'NONE',  ( -0.0000000000000000000, -0.0000000000000000000, -1.000000000000000000 ) ) ;
#111 =( NAMED_UNIT ( * ) PLANE_ANGLE_UNIT ( ) SI_UNIT ( $, .RADIAN. ) );
#112 = ORIENTED_EDGE ( 'NONE', *, *, #95, .F. ) ;
#113 = CONICAL_SURFACE ( 'NONE', #86, 0.003936999999999995191, 0.7853981633974497223 ) ;
#114 = DIRECTION ( 'NONE',  ( -1.000000000000000000, 0.0000000000000000000, 0.0000000000000000000 ) ) ;
#115 = ORIENTED_EDGE ( 'NONE', *, *, #62, .F. ) ;
#116 = ADVANCED_FACE ( 'NONE', ( #145 ), #239, .T. ) ;
#117 = DIRECTION ( 'NONE',  ( 0.7071067811865484609, 0.0000000000000000000, 0.7071067811865464625 ) ) ;
#118 = APPLICATION_PROTOCOL_DEFINITION ( 'draft international standard', 'automotive_design', 1998, #28 ) ;
#119 = DIRECTION ( 'NONE',  ( 1.000000000000000000, 0.0000000000000000000, -0.0000000000000000000 ) ) ;
#120 = PLANE ( 'NONE',  #82 ) ;
#121 = EDGE_LOOP ( 'NONE', ( #63, #213, #166, #15 ) ) ;
#122 = COLOUR_RGB ( '',0.7921568627450980005, 0.8196078431372548767, 0.9333333333333333481 ) ;
#123 = ADVANCED_FACE ( 'NONE', ( #217 ), #120, .F. ) ;
#124 = DIRECTION ( 'NONE',  ( -0.0000000000000000000, -0.0000000000000000000, -1.000000000000000000 ) ) ;
#125 = LENGTH_MEASURE_WITH_UNIT ( LENGTH_MEASURE( 0.02539999999999999897 ), #20 );
#126 = EDGE_CURVE ( 'NONE', #159, #9, #99, .T. ) ;
#127 = CIRCLE ( 'NONE', #174, 0.05905499999999998251 ) ;
#128 = PRODUCT_DEFINITION ( 'UNKNOWN', '', #154, #52 ) ;
#129 = DIRECTION ( 'NONE',  ( -0.7071067811865484609, 8.659560562354943952E-17, 0.7071067811865464625 ) ) ;
#130 = AXIS2_PLACEMENT_3D ( 'NONE', #187, #110, #108 ) ;
#131 = PRESENTATION_LAYER_ASSIGNMENT (  '', '', ( #136 ) ) ;
#132 = CYLINDRICAL_SURFACE ( 'NONE', #130, 0.05905500000000001720 ) ;
#133 =( CONVERSION_BASED_UNIT ( 'INCH', #224 ) LENGTH_UNIT ( ) NAMED_UNIT ( #23 ) );
#134 = DIRECTION ( 'NONE',  ( -1.000000000000000000, 0.0000000000000000000, 0.0000000000000000000 ) ) ;
#135 = CARTESIAN_POINT ( 'NONE',  ( 0.0000000000000000000, 0.0000000000000000000, 1.496062999999999921 ) ) ;
#136 = STYLED_ITEM ( 'NONE', ( #77 ), #165 ) ;
#137 = DIRECTION ( 'NONE',  ( -1.000000000000000000, 0.0000000000000000000, 0.0000000000000000000 ) ) ;
#138 = EDGE_CURVE ( 'NONE', #50, #10, #179, .T. ) ;
#139 = DIRECTION ( 'NONE',  ( -1.000000000000000000, 0.0000000000000000000, 0.0000000000000000000 ) ) ;
#140 = DIRECTION ( 'NONE',  ( 0.0000000000000000000, 0.0000000000000000000, 1.000000000000000000 ) ) ;
#141 = VERTEX_POINT ( 'NONE', #22 ) ;
#142 = ORIENTED_EDGE ( 'NONE', *, *, #85, .T. ) ;
#143 = EDGE_CURVE ( 'NONE', #159, #50, #76, .T. ) ;
#144 = AXIS2_PLACEMENT_3D ( 'NONE', #201, #197, #68 ) ;
#145 = FACE_OUTER_BOUND ( 'NONE', #181, .T. ) ;
#146 = CIRCLE ( 'NONE', #170, 0.003936999999999995191 ) ;
#147 = VERTEX_POINT ( 'NONE', #103 ) ;
#148 =( GEOMETRIC_REPRESENTATION_CONTEXT ( 3 ) GLOBAL_UNCERTAINTY_ASSIGNED_CONTEXT ( ( #231 ) ) GLOBAL_UNIT_ASSIGNED_CONTEXT ( ( #133, #111, #188 ) ) REPRESENTATION_CONTEXT ( 'NONE', 'WORKASPACE' ) );
#149 = PRODUCT_DEFINITION_SHAPE ( 'NONE', 'NONE',  #128 ) ;
#150 = ADVANCED_FACE ( 'NONE', ( #89 ), #102, .T. ) ;
#151 = AXIS2_PLACEMENT_3D ( 'NONE', #31, #11, #36 ) ;
#152 = UNCERTAINTY_MEASURE_WITH_UNIT (LENGTH_MEASURE( 1.000000000000000082E-05 ), #84, 'distance_accuracy_value', 'NONE');
#153 = CARTESIAN_POINT ( 'NONE',  ( 0.0000000000000000000, 0.0000000000000000000, 1.440944999999999920 ) ) ;
#154 = PRODUCT_DEFINITION_FORMATION_WITH_SPECIFIED_SOURCE ( 'ANY', '', #29, .NOT_KNOWN. ) ;
#155 = CARTESIAN_POINT ( 'NONE',  ( 0.003936999999999995191, 0.0000000000000000000, 1.496062999999999921 ) ) ;
#156 = DIRECTION ( 'NONE',  ( 0.0000000000000000000, 0.0000000000000000000, -1.000000000000000000 ) ) ;
#157 = AXIS2_PLACEMENT_3D ( 'NONE', #19, #237, #91 ) ;
#158 = ORIENTED_EDGE ( 'NONE', *, *, #138, .F. ) ;
#159 = VERTEX_POINT ( 'NONE', #25 ) ;
#160 =( NAMED_UNIT ( * ) PLANE_ANGLE_UNIT ( ) SI_UNIT ( $, .RADIAN. ) );
#161 = VECTOR ( 'NONE', #117, 39.37007874015748854 ) ;
#162 = VERTEX_POINT ( 'NONE', #104 ) ;
#163 = SURFACE_SIDE_STYLE ('',( #88 ) ) ;
#164 = DIRECTION ( 'NONE',  ( 0.0000000000000000000, 0.0000000000000000000, 1.000000000000000000 ) ) ;
#165 = MANIFOLD_SOLID_BREP ( 'Mirror1', #200 ) ;
#166 = ORIENTED_EDGE ( 'NONE', *, *, #138, .T. ) ;
#167 = EDGE_LOOP ( 'NONE', ( #168, #208, #35, #158 ) ) ;
#168 = ORIENTED_EDGE ( 'NONE', *, *, #189, .T. ) ;
#169 = DIRECTION ( 'NONE',  ( 0.0000000000000000000, 0.0000000000000000000, -1.000000000000000000 ) ) ;
#170 = AXIS2_PLACEMENT_3D ( 'NONE', #39, #227, #211 ) ;
#171 = FACE_OUTER_BOUND ( 'NONE', #5, .T. ) ;
#172 = CARTESIAN_POINT ( 'NONE',  ( 0.0000000000000000000, 0.0000000000000000000, 1.496062999999999921 ) ) ;
#173 = ORIENTED_EDGE ( 'NONE', *, *, #53, .F. ) ;
#174 = AXIS2_PLACEMENT_3D ( 'NONE', #153, #169, #79 ) ;
#175 = CARTESIAN_POINT ( 'NONE',  ( 0.0000000000000000000, 0.0000000000000000000, 1.496062999999999921 ) ) ;
#176 = DIRECTION ( 'NONE',  ( -0.0000000000000000000, -0.0000000000000000000, -1.000000000000000000 ) ) ;
#177 = DIRECTION ( 'NONE',  ( 0.0000000000000000000, 0.0000000000000000000, -1.000000000000000000 ) ) ;
#178 = SURFACE_SIDE_STYLE ('',( #90 ) ) ;
#179 = LINE ( 'NONE', #48, #3 ) ;
#180 = AXIS2_PLACEMENT_3D ( 'NONE', #205, #140, #248 ) ;
#181 = EDGE_LOOP ( 'NONE', ( #230, #72, #67, #105 ) ) ;
#182 = EDGE_CURVE ( 'NONE', #10, #9, #220, .T. ) ;
#183 = EDGE_CURVE ( 'NONE', #9, #10, #21, .T. ) ;
#184 = DIRECTION ( 'NONE',  ( -0.0000000000000000000, -0.0000000000000000000, -1.000000000000000000 ) ) ;
#185 = VERTEX_POINT ( 'NONE', #54 ) ;
#186 = AXIS2_PLACEMENT_3D ( 'NONE', #135, #156, #137 ) ;
#187 = CARTESIAN_POINT ( 'NONE',  ( 0.0000000000000000000, 0.0000000000000000000, 1.496062999999999921 ) ) ;
#188 =( NAMED_UNIT ( * ) SI_UNIT ( $, .STERADIAN. ) SOLID_ANGLE_UNIT ( ) );
#189 = EDGE_CURVE ( 'NONE', #50, #159, #127, .T. ) ;
#190 = DIRECTION ( 'NONE',  ( 0.0000000000000000000, 0.0000000000000000000, 1.000000000000000000 ) ) ;
#191 = AXIS2_PLACEMENT_3D ( 'NONE', #175, #59, #14 ) ;
#192 = CARTESIAN_POINT ( 'NONE',  ( 0.0000000000000000000, 0.0000000000000000000, 1.496062999999999921 ) ) ;
#193 = CARTESIAN_POINT ( 'NONE',  ( -0.05905499999999998251, 0.0000000000000000000, 1.440944999999999920 ) ) ;
#194 = CARTESIAN_POINT ( 'NONE',  ( 0.05905499999999998251, 7.232151672364692341E-18, 0.05511799999999983379 ) ) ;
#195 = COLOUR_RGB ( '',0.7921568627450980005, 0.8196078431372548767, 0.9333333333333333481 ) ;
#196 = FACE_OUTER_BOUND ( 'NONE', #121, .T. ) ;
#197 = DIRECTION ( 'NONE',  ( 0.0000000000000000000, 0.0000000000000000000, -1.000000000000000000 ) ) ;
#198 = CARTESIAN_POINT ( 'NONE',  ( 0.0000000000000000000, 0.0000000000000000000, 0.0000000000000000000 ) ) ;
#199 = EDGE_CURVE ( 'NONE', #141, #10, #55, .T. ) ;
#200 = CLOSED_SHELL ( 'NONE', ( #37, #93, #240, #87, #150, #123, #116, #26 ) ) ;
#201 = CARTESIAN_POINT ( 'NONE',  ( 0.0000000000000000000, 0.0000000000000000000, 1.496062999999999921 ) ) ;
#202 = FILL_AREA_STYLE_COLOUR ( '', #195 ) ;
#203 = CARTESIAN_POINT ( 'NONE',  ( 0.05905500000000001720, 7.232151672364695422E-18, 1.496062999999999921 ) ) ;
#204 = ADVANCED_BREP_SHAPE_REPRESENTATION ( 'Micro_RNCM-030-2', ( #165, #180 ), #40 ) ;
#205 = CARTESIAN_POINT ( 'NONE',  ( 0.0000000000000000000, 0.0000000000000000000, 0.0000000000000000000 ) ) ;
#206 = FACE_OUTER_BOUND ( 'NONE', #167, .T. ) ;
#207 = VECTOR ( 'NONE', #57, 39.37007874015748854 ) ;
#208 = ORIENTED_EDGE ( 'NONE', *, *, #126, .T. ) ;
#209 = LINE ( 'NONE', #34, #215 ) ;
#210 = CARTESIAN_POINT ( 'NONE',  ( 0.003936999999999995191, 0.0000000000000000000, 0.0000000000000000000 ) ) ;
#211 = DIRECTION ( 'NONE',  ( -1.000000000000000000, 0.0000000000000000000, 0.0000000000000000000 ) ) ;
#212 = EDGE_LOOP ( 'NONE', ( #142, #243 ) ) ;
#213 = ORIENTED_EDGE ( 'NONE', *, *, #143, .T. ) ;
#214 = EDGE_LOOP ( 'NONE', ( #81, #12, #24, #30 ) ) ;
#215 = VECTOR ( 'NONE', #244, 39.37007874015748854 ) ;
#216 = UNCERTAINTY_MEASURE_WITH_UNIT (LENGTH_MEASURE( 1.000000000000000082E-05 ), #94, 'distance_accuracy_value', 'NONE');
#217 = FACE_OUTER_BOUND ( 'NONE', #212, .T. ) ;
#218 = AXIS2_PLACEMENT_3D ( 'NONE', #192, #190, #96 ) ;
#219 = DIRECTION ( 'NONE',  ( 1.000000000000000000, 0.0000000000000000000, 0.0000000000000000000 ) ) ;
#220 = CIRCLE ( 'NONE', #151, 0.05905499999999998251 ) ;
#221 = AXIS2_PLACEMENT_3D ( 'NONE', #172, #176, #114 ) ;
#222 = EDGE_CURVE ( 'NONE', #147, #50, #209, .T. ) ;
#223 = CARTESIAN_POINT ( 'NONE',  ( -0.003936999999999995191, 4.821434448243123477E-19, 0.0000000000000000000 ) ) ;
#224 = LENGTH_MEASURE_WITH_UNIT ( LENGTH_MEASURE( 0.02539999999999999897 ), #241 );
#225 =( NAMED_UNIT ( * ) PLANE_ANGLE_UNIT ( ) SI_UNIT ( $, .RADIAN. ) );
#226 = AXIS2_PLACEMENT_3D ( 'NONE', #13, #41, #139 ) ;
#227 = DIRECTION ( 'NONE',  ( 0.0000000000000000000, 0.0000000000000000000, -1.000000000000000000 ) ) ;
#228 = DIMENSIONAL_EXPONENTS ( 1.000000000000000000, 0.0000000000000000000, 0.0000000000000000000, 0.0000000000000000000, 0.0000000000000000000, 0.0000000000000000000, 0.0000000000000000000 ) ;
#229 = ORIENTED_EDGE ( 'NONE', *, *, #70, .F. ) ;
#230 = ORIENTED_EDGE ( 'NONE', *, *, #222, .F. ) ;
#231 = UNCERTAINTY_MEASURE_WITH_UNIT (LENGTH_MEASURE( 1.000000000000000082E-05 ), #133, 'distance_accuracy_value', 'NONE');
#232 = ORIENTED_EDGE ( 'NONE', *, *, #199, .T. ) ;
#233 = EDGE_CURVE ( 'NONE', #162, #159, #38, .T. ) ;
#234 = DIRECTION ( 'NONE',  ( 1.000000000000000000, 0.0000000000000000000, 0.0000000000000000000 ) ) ;
#235 = PRODUCT_RELATED_PRODUCT_CATEGORY ( 'part', '', ( #29 ) ) ;
#236 = SURFACE_STYLE_USAGE ( .BOTH. , #163 ) ;
#237 = DIRECTION ( 'NONE',  ( -0.0000000000000000000, -0.0000000000000000000, -1.000000000000000000 ) ) ;
#238 = DIRECTION ( 'NONE',  ( -0.0000000000000000000, -0.0000000000000000000, -1.000000000000000000 ) ) ;
#239 = CONICAL_SURFACE ( 'NONE', #144, 0.003936999999999995191, 0.7853981633974497223 ) ;
#240 = ADVANCED_FACE ( 'NONE', ( #206 ), #132, .T. ) ;
#241 =( LENGTH_UNIT ( ) NAMED_UNIT ( * ) SI_UNIT ( $, .METRE. ) );
#242 = CARTESIAN_POINT ( 'NONE',  ( 0.0000000000000000000, 0.0000000000000000000, 0.05511799999999983379 ) ) ;
#243 = ORIENTED_EDGE ( 'NONE', *, *, #95, .T. ) ;
#244 = DIRECTION ( 'NONE',  ( -0.7071067811865484609, -8.659560562354943952E-17, -0.7071067811865464625 ) ) ;
#245 = ORIENTED_EDGE ( 'NONE', *, *, #233, .F. ) ;
#246 = DIRECTION ( 'NONE',  ( 0.0000000000000000000, 0.0000000000000000000, 1.000000000000000000 ) ) ;
#247 = CIRCLE ( 'NONE', #186, 0.003936999999999995191 ) ;
#248 = DIRECTION ( 'NONE',  ( 1.000000000000000000, 0.0000000000000000000, 0.0000000000000000000 ) ) ;
#249 = CARTESIAN_POINT ( 'NONE',  ( 0.0000000000000000000, 0.0000000000000000000, 0.0000000000000000000 ) ) ;
ENDSEC;
END-ISO-10303-21;
