ISO-10303-21;
HEADER;
FILE_DESCRIPTION (( 'STEP AP214' ),
    '1' );
FILE_NAME ('Micro_AEMM-045-4.STEP',
    '2022-03-15T14:25:54',
    ( '' ),
    ( '' ),
    'SwSTEP 2.0',
    'SolidWorks 2022',
    '' );
FILE_SCHEMA (( 'AUTOMOTIVE_DESIGN' ));
ENDSEC;

DATA;
#1 = EDGE_CURVE ( 'NONE', #178, #108, #29, .T. ) ;
#2 = DIRECTION ( 'NONE',  ( 1.000000000000000000, 0.000000000000000000, 0.000000000000000000 ) ) ;
#3 = LINE ( 'NONE', #160, #285 ) ;
#4 = DIRECTION ( 'NONE',  ( 1.000000000000000000, 0.000000000000000000, 0.000000000000000000 ) ) ;
#5 = DIRECTION ( 'NONE',  ( 0.000000000000000000, 0.000000000000000000, 1.000000000000000000 ) ) ;
#6 = DIRECTION ( 'NONE',  ( 1.000000000000000000, 0.000000000000000000, -0.000000000000000000 ) ) ;
#7 = EDGE_CURVE ( 'NONE', #70, #108, #226, .T. ) ;
#8 =( GEOMETRIC_REPRESENTATION_CONTEXT ( 3 ) GLOBAL_UNCERTAINTY_ASSIGNED_CONTEXT ( ( #196 ) ) GLOBAL_UNIT_ASSIGNED_CONTEXT ( ( #112, #217, #189 ) ) REPRESENTATION_CONTEXT ( 'NONE', 'WORKASPACE' ) );
#9 = DIRECTION ( 'NONE',  ( 0.000000000000000000, 0.000000000000000000, 1.000000000000000000 ) ) ;
#10 = CARTESIAN_POINT ( 'NONE',  ( -0.08849391750000000501, 0.000000000000000000, 2.167475856207699061E-17 ) ) ;
#11 = CARTESIAN_POINT ( 'NONE',  ( 0.000000000000000000, 0.000000000000000000, 2.244094000000000033 ) ) ;
#12 = PRESENTATION_LAYER_ASSIGNMENT (  '', '', ( #64 ) ) ;
#13 = SURFACE_STYLE_FILL_AREA ( #173 ) ;
#14 = CYLINDRICAL_SURFACE ( 'NONE', #247, 0.1181100000000000066 ) ;
#15 = ORIENTED_EDGE ( 'NONE', *, *, #286, .F. ) ;
#16 = VECTOR ( 'NONE', #146, 39.37007874015748143 ) ;
#17 = DIMENSIONAL_EXPONENTS ( 1.000000000000000000, 0.000000000000000000, 0.000000000000000000, 0.000000000000000000, 0.000000000000000000, 0.000000000000000000, 0.000000000000000000 ) ;
#18 = FILL_AREA_STYLE ('',( #149 ) ) ;
#19 = EDGE_LOOP ( 'NONE', ( #206, #176, #66, #132 ) ) ;
#20 =( NAMED_UNIT ( * ) PLANE_ANGLE_UNIT ( ) SI_UNIT ( $, .RADIAN. ) );
#21 = CARTESIAN_POINT ( 'NONE',  ( 7.360520989889838000E-17, 0.000000000000000000, 0.6010321502505472369 ) ) ;
#22 = EDGE_CURVE ( 'NONE', #273, #128, #129, .T. ) ;
#23 = PRODUCT_DEFINITION_SHAPE ( 'NONE', 'NONE',  #45 ) ;
#24 = DIRECTION ( 'NONE',  ( -1.000000000000000000, 0.000000000000000000, 1.224646799147353207E-16 ) ) ;
#25 = DIRECTION ( 'NONE',  ( -1.224646799147353207E-16, -0.000000000000000000, -1.000000000000000000 ) ) ;
#26 = AXIS2_PLACEMENT_3D ( 'NONE', #233, #276, #101 ) ;
#27 = EDGE_LOOP ( 'NONE', ( #15, #148, #134, #291 ) ) ;
#28 = DIRECTION ( 'NONE',  ( 0.000000000000000000, 0.000000000000000000, 1.000000000000000000 ) ) ;
#29 = CIRCLE ( 'NONE', #193, 0.1181100000000000066 ) ;
#30 = AXIS2_PLACEMENT_3D ( 'NONE', #253, #214, #237 ) ;
#31 = DIRECTION ( 'NONE',  ( 1.000000000000000000, 0.000000000000000000, 0.000000000000000000 ) ) ;
#32 =( GEOMETRIC_REPRESENTATION_CONTEXT ( 3 ) GLOBAL_UNCERTAINTY_ASSIGNED_CONTEXT ( ( #58 ) ) GLOBAL_UNIT_ASSIGNED_CONTEXT ( ( #205, #264, #248 ) ) REPRESENTATION_CONTEXT ( 'NONE', 'WORKASPACE' ) );
#33 = DIRECTION ( 'NONE',  ( 1.000000000000000000, 0.000000000000000000, 0.000000000000000000 ) ) ;
#34 = EDGE_CURVE ( 'NONE', #70, #228, #208, .T. ) ;
#35 = FACE_OUTER_BOUND ( 'NONE', #267, .T. ) ;
#36 = DIRECTION ( 'NONE',  ( -1.000000000000000000, 0.000000000000000000, 0.000000000000000000 ) ) ;
#37 = AXIS2_PLACEMENT_3D ( 'NONE', #164, #192, #2 ) ;
#38 =( LENGTH_UNIT ( ) NAMED_UNIT ( * ) SI_UNIT ( $, .METRE. ) );
#39 = DIMENSIONAL_EXPONENTS ( 1.000000000000000000, 0.000000000000000000, 0.000000000000000000, 0.000000000000000000, 0.000000000000000000, 0.000000000000000000, 0.000000000000000000 ) ;
#40 = ORIENTED_EDGE ( 'NONE', *, *, #34, .T. ) ;
#41 = EDGE_LOOP ( 'NONE', ( #92, #47 ) ) ;
#42 = AXIS2_PLACEMENT_3D ( 'NONE', #167, #59, #220 ) ;
#43 = AXIS2_PLACEMENT_3D ( 'NONE', #119, #278, #74 ) ;
#44 =( LENGTH_UNIT ( ) NAMED_UNIT ( * ) SI_UNIT ( $, .METRE. ) );
#45 = PRODUCT_DEFINITION ( 'UNKNOWN', '', #95, #118 ) ;
#46 = ORIENTED_EDGE ( 'NONE', *, *, #105, .F. ) ;
#47 = ORIENTED_EDGE ( 'NONE', *, *, #89, .T. ) ;
#48 =( NAMED_UNIT ( * ) SI_UNIT ( $, .STERADIAN. ) SOLID_ANGLE_UNIT ( ) );
#49 = ORIENTED_EDGE ( 'NONE', *, *, #252, .T. ) ;
#50 = CONICAL_SURFACE ( 'NONE', #297, 0.1031100000000002570, 0.7853981633974318477 ) ;
#51 = CARTESIAN_POINT ( 'NONE',  ( 0.1181100000000000066, 1.446430334472939084E-17, 2.229093999999999465 ) ) ;
#52 = EDGE_CURVE ( 'NONE', #128, #178, #88, .T. ) ;
#53 = CARTESIAN_POINT ( 'NONE',  ( 0.000000000000000000, 0.000000000000000000, 0.000000000000000000 ) ) ;
#54 = CARTESIAN_POINT ( 'NONE',  ( 0.000000000000000000, 0.000000000000000000, 0.000000000000000000 ) ) ;
#55 = COLOUR_RGB ( '',0.7921568627450980005, 0.8196078431372548767, 0.9333333333333333481 ) ;
#56 = PRODUCT_CONTEXT ( 'NONE', #262, 'mechanical' ) ;
#57 = ADVANCED_FACE ( 'NONE', ( #182 ), #156, .T. ) ;
#58 = UNCERTAINTY_MEASURE_WITH_UNIT (LENGTH_MEASURE( 1.000000000000000082E-05 ), #205, 'distance_accuracy_value', 'NONE');
#59 = DIRECTION ( 'NONE',  ( -1.224646799147353207E-16, -0.000000000000000000, -1.000000000000000000 ) ) ;
#60 = EDGE_CURVE ( 'NONE', #90, #203, #246, .T. ) ;
#61 = LINE ( 'NONE', #197, #170 ) ;
#62 = CARTESIAN_POINT ( 'NONE',  ( 5.303590139535433909E-17, 0.000000000000000000, 0.4330709999999999837 ) ) ;
#63 = DIRECTION ( 'NONE',  ( -1.000000000000000000, 0.000000000000000000, 1.224646799147353207E-16 ) ) ;
#64 = STYLED_ITEM ( 'NONE', ( #177 ), #124 ) ;
#65 = LINE ( 'NONE', #91, #275 ) ;
#66 = ORIENTED_EDGE ( 'NONE', *, *, #105, .T. ) ;
#67 = ORIENTED_EDGE ( 'NONE', *, *, #259, .T. ) ;
#68 = CIRCLE ( 'NONE', #99, 0.1181100000000000066 ) ;
#69 = ORIENTED_EDGE ( 'NONE', *, *, #161, .T. ) ;
#70 = VERTEX_POINT ( 'NONE', #120 ) ;
#71 = ORIENTED_EDGE ( 'NONE', *, *, #236, .F. ) ;
#72 = ORIENTED_EDGE ( 'NONE', *, *, #191, .T. ) ;
#73 = DIRECTION ( 'NONE',  ( -0.7071067811865358044, 0.000000000000000000, -0.7071067811865590080 ) ) ;
#74 = DIRECTION ( 'NONE',  ( -1.000000000000000000, 0.000000000000000000, 0.000000000000000000 ) ) ;
#75 = ADVANCED_FACE ( 'NONE', ( #277 ), #235, .T. ) ;
#76 = DIRECTION ( 'NONE',  ( 1.000000000000000000, 0.000000000000000000, 0.000000000000000000 ) ) ;
#77 = VECTOR ( 'NONE', #94, 39.37007874015748143 ) ;
#78 =( GEOMETRIC_REPRESENTATION_CONTEXT ( 3 ) GLOBAL_UNCERTAINTY_ASSIGNED_CONTEXT ( ( #274 ) ) GLOBAL_UNIT_ASSIGNED_CONTEXT ( ( #231, #20, #48 ) ) REPRESENTATION_CONTEXT ( 'NONE', 'WORKASPACE' ) );
#79 = APPLICATION_PROTOCOL_DEFINITION ( 'draft international standard', 'automotive_design', 1998, #239 ) ;
#80 = FACE_OUTER_BOUND ( 'NONE', #27, .T. ) ;
#81 = CARTESIAN_POINT ( 'NONE',  ( 0.1181100000000000899, 1.446430334472940009E-17, 0.6010321502505472369 ) ) ;
#82 = ADVANCED_FACE ( 'NONE', ( #218 ), #104, .T. ) ;
#83 = VECTOR ( 'NONE', #136, 39.37007874015748143 ) ;
#84 = CARTESIAN_POINT ( 'NONE',  ( 0.000000000000000000, 0.000000000000000000, 2.229093999999999465 ) ) ;
#85 = ADVANCED_FACE ( 'NONE', ( #121 ), #162, .T. ) ;
#86 = LINE ( 'NONE', #172, #16 ) ;
#87 = COLOUR_RGB ( '',0.7921568627450980005, 0.8196078431372548767, 0.9333333333333333481 ) ;
#88 = LINE ( 'NONE', #175, #77 ) ;
#89 = EDGE_CURVE ( 'NONE', #203, #90, #243, .T. ) ;
#90 = VERTEX_POINT ( 'NONE', #122 ) ;
#91 = CARTESIAN_POINT ( 'NONE',  ( 0.1031100000000002570, 1.262733314600838667E-17, 2.244094000000000033 ) ) ;
#92 = ORIENTED_EDGE ( 'NONE', *, *, #60, .T. ) ;
#93 = ORIENTED_EDGE ( 'NONE', *, *, #140, .F. ) ;
#94 = DIRECTION ( 'NONE',  ( -0.000000000000000000, -0.000000000000000000, -1.000000000000000000 ) ) ;
#95 = PRODUCT_DEFINITION_FORMATION_WITH_SPECIFIED_SOURCE ( 'ANY', '', #270, .NOT_KNOWN. ) ;
#96 = DIRECTION ( 'NONE',  ( -1.000000000000000000, 0.000000000000000000, 1.224646799147353207E-16 ) ) ;
#97 = ORIENTED_EDGE ( 'NONE', *, *, #225, .F. ) ;
#98 = PLANE ( 'NONE',  #26 ) ;
#99 = AXIS2_PLACEMENT_3D ( 'NONE', #84, #223, #33 ) ;
#100 = ADVANCED_FACE ( 'NONE', ( #219 ), #282, .F. ) ;
#101 = DIRECTION ( 'NONE',  ( 1.000000000000000000, 0.000000000000000000, -0.000000000000000000 ) ) ;
#102 = CONICAL_SURFACE ( 'NONE', #165, 0.1031100000000002570, 0.7853981633974318477 ) ;
#103 = FACE_OUTER_BOUND ( 'NONE', #111, .T. ) ;
#104 = CONICAL_SURFACE ( 'NONE', #30, 0.08849391750000001888, 0.1745329251994338360 ) ;
#105 = EDGE_CURVE ( 'NONE', #266, #178, #3, .T. ) ;
#106 = SURFACE_SIDE_STYLE ('',( #13 ) ) ;
#107 = DIRECTION ( 'NONE',  ( -1.000000000000000000, 0.000000000000000000, 0.000000000000000000 ) ) ;
#108 = VERTEX_POINT ( 'NONE', #255 ) ;
#109 = SURFACE_STYLE_FILL_AREA ( #18 ) ;
#110 = ORIENTED_EDGE ( 'NONE', *, *, #22, .T. ) ;
#111 = EDGE_LOOP ( 'NONE', ( #72, #245, #97, #251 ) ) ;
#112 =( CONVERSION_BASED_UNIT ( 'INCH', #135 ) LENGTH_UNIT ( ) NAMED_UNIT ( #39 ) );
#113 = ORIENTED_EDGE ( 'NONE', *, *, #225, .T. ) ;
#114 = ORIENTED_EDGE ( 'NONE', *, *, #7, .T. ) ;
#115 = CARTESIAN_POINT ( 'NONE',  ( 0.000000000000000000, 0.000000000000000000, 0.000000000000000000 ) ) ;
#116 = ORIENTED_EDGE ( 'NONE', *, *, #22, .F. ) ;
#117 = CARTESIAN_POINT ( 'NONE',  ( -0.1031100000000002570, 0.000000000000000000, 2.244094000000000033 ) ) ;
#118 = PRODUCT_DEFINITION_CONTEXT ( 'detailed design', #239, 'design' ) ;
#119 = CARTESIAN_POINT ( 'NONE',  ( 0.000000000000000000, 0.000000000000000000, 2.244094000000000033 ) ) ;
#120 = CARTESIAN_POINT ( 'NONE',  ( -0.08849391749999997725, 1.265084131288394307E-17, 0.4330709999999999837 ) ) ;
#121 = FACE_OUTER_BOUND ( 'NONE', #271, .T. ) ;
#122 = CARTESIAN_POINT ( 'NONE',  ( -0.1031100000000002570, 0.000000000000000000, 2.244094000000000033 ) ) ;
#123 = AXIS2_PLACEMENT_3D ( 'NONE', #53, #5, #31 ) ;
#124 = ADVANCED_BREP_SHAPE_REPRESENTATION ( 'Micro_AEMM-045-4', ( #283, #123 ), #32 ) ;
#125 = CARTESIAN_POINT ( 'NONE',  ( 5.303590139535433909E-17, 0.000000000000000000, 0.4330709999999999837 ) ) ;
#126 = PRODUCT_RELATED_PRODUCT_CATEGORY ( 'part', '', ( #270 ) ) ;
#127 = DIRECTION ( 'NONE',  ( -1.224646799147353207E-16, -0.000000000000000000, -1.000000000000000000 ) ) ;
#128 = VERTEX_POINT ( 'NONE', #51 ) ;
#129 = CIRCLE ( 'NONE', #210, 0.1181100000000000066 ) ;
#130 = VECTOR ( 'NONE', #296, 39.37007874015747433 ) ;
#131 = AXIS2_PLACEMENT_3D ( 'NONE', #241, #288, #63 ) ;
#132 = ORIENTED_EDGE ( 'NONE', *, *, #1, .T. ) ;
#133 = ORIENTED_EDGE ( 'NONE', *, *, #139, .F. ) ;
#134 = ORIENTED_EDGE ( 'NONE', *, *, #140, .T. ) ;
#135 = LENGTH_MEASURE_WITH_UNIT ( LENGTH_MEASURE( 0.02539999999999999897 ), #44 );
#136 = DIRECTION ( 'NONE',  ( -1.224646799147353207E-16, -0.000000000000000000, -1.000000000000000000 ) ) ;
#137 = ADVANCED_FACE ( 'NONE', ( #138 ), #98, .T. ) ;
#138 = FACE_OUTER_BOUND ( 'NONE', #41, .T. ) ;
#139 = EDGE_CURVE ( 'NONE', #108, #178, #215, .T. ) ;
#140 = EDGE_CURVE ( 'NONE', #90, #273, #281, .T. ) ;
#141 = AXIS2_PLACEMENT_3D ( 'NONE', #254, #216, #76 ) ;
#142 = CARTESIAN_POINT ( 'NONE',  ( 0.08849391750000000501, 1.083737928103849530E-17, -1.895600338963814870E-33 ) ) ;
#143 = CARTESIAN_POINT ( 'NONE',  ( -0.1181100000000000066, 0.000000000000000000, 2.229093999999999465 ) ) ;
#144 = AXIS2_PLACEMENT_3D ( 'NONE', #195, #28, #4 ) ;
#145 = PRESENTATION_LAYER_ASSIGNMENT (  '', '', ( #194 ) ) ;
#146 = DIRECTION ( 'NONE',  ( -0.000000000000000000, -0.000000000000000000, -1.000000000000000000 ) ) ;
#147 = APPLICATION_PROTOCOL_DEFINITION ( 'draft international standard', 'automotive_design', 1998, #262 ) ;
#148 = ORIENTED_EDGE ( 'NONE', *, *, #60, .F. ) ;
#149 = FILL_AREA_STYLE_COLOUR ( '', #55 ) ;
#150 = MECHANICAL_DESIGN_GEOMETRIC_PRESENTATION_REPRESENTATION (  '', ( #194 ), #78 ) ;
#151 =( LENGTH_UNIT ( ) NAMED_UNIT ( * ) SI_UNIT ( $, .METRE. ) );
#152 = ORIENTED_EDGE ( 'NONE', *, *, #52, .T. ) ;
#153 = EDGE_LOOP ( 'NONE', ( #113, #49 ) ) ;
#154 = EDGE_LOOP ( 'NONE', ( #293, #114, #212, #46 ) ) ;
#155 = ADVANCED_FACE ( 'NONE', ( #80 ), #102, .T. ) ;
#156 = CYLINDRICAL_SURFACE ( 'NONE', #279, 0.08849391750000001888 ) ;
#157 = DIRECTION ( 'NONE',  ( -1.224646799147353207E-16, -0.000000000000000000, -1.000000000000000000 ) ) ;
#158 = ORIENTED_EDGE ( 'NONE', *, *, #259, .F. ) ;
#159 = ORIENTED_EDGE ( 'NONE', *, *, #89, .F. ) ;
#160 = CARTESIAN_POINT ( 'NONE',  ( 0.08849391750000007439, 0.000000000000000000, 0.4330709999999999837 ) ) ;
#161 = EDGE_CURVE ( 'NONE', #266, #70, #188, .T. ) ;
#162 = CYLINDRICAL_SURFACE ( 'NONE', #43, 0.1181100000000000066 ) ;
#163 = DIRECTION ( 'NONE',  ( 0.1736481776669313304, 0.000000000000000000, 0.9848077530122077983 ) ) ;
#164 = CARTESIAN_POINT ( 'NONE',  ( 7.360520989889838000E-17, 0.000000000000000000, 0.6010321502505472369 ) ) ;
#165 = AXIS2_PLACEMENT_3D ( 'NONE', #256, #166, #36 ) ;
#166 = DIRECTION ( 'NONE',  ( 0.000000000000000000, 0.000000000000000000, -1.000000000000000000 ) ) ;
#167 = CARTESIAN_POINT ( 'NONE',  ( 1.327196184766963528E-33, 0.000000000000000000, 1.083737928103849530E-17 ) ) ;
#168 = DIRECTION ( 'NONE',  ( -0.000000000000000000, -0.000000000000000000, -1.000000000000000000 ) ) ;
#169 = AXIS2_PLACEMENT_3D ( 'NONE', #190, #187, #234 ) ;
#170 = VECTOR ( 'NONE', #127, 39.37007874015748143 ) ;
#171 = DIRECTION ( 'NONE',  ( 0.000000000000000000, 0.000000000000000000, -1.000000000000000000 ) ) ;
#172 = CARTESIAN_POINT ( 'NONE',  ( -0.1181100000000000066, 0.000000000000000000, 2.244094000000000033 ) ) ;
#173 = FILL_AREA_STYLE ('',( #238 ) ) ;
#174 = CIRCLE ( 'NONE', #131, 0.08849391750000000501 ) ;
#175 = CARTESIAN_POINT ( 'NONE',  ( 0.1181100000000000066, 1.446430334472939084E-17, 2.244094000000000033 ) ) ;
#176 = ORIENTED_EDGE ( 'NONE', *, *, #161, .F. ) ;
#177 = PRESENTATION_STYLE_ASSIGNMENT (( #292 ) ) ;
#178 = VERTEX_POINT ( 'NONE', #81 ) ;
#179 = ADVANCED_FACE ( 'NONE', ( #35 ), #14, .T. ) ;
#180 = VERTEX_POINT ( 'NONE', #142 ) ;
#181 = CLOSED_SHELL ( 'NONE', ( #290, #82, #242, #179, #85, #137, #155, #75, #57, #100 ) ) ;
#182 = FACE_OUTER_BOUND ( 'NONE', #269, .T. ) ;
#183 = EDGE_LOOP ( 'NONE', ( #159, #227, #116, #93 ) ) ;
#184 = SHAPE_DEFINITION_REPRESENTATION ( #23, #124 ) ;
#185 = ORIENTED_EDGE ( 'NONE', *, *, #252, .F. ) ;
#186 = DIMENSIONAL_EXPONENTS ( 1.000000000000000000, 0.000000000000000000, 0.000000000000000000, 0.000000000000000000, 0.000000000000000000, 0.000000000000000000, 0.000000000000000000 ) ;
#187 = DIRECTION ( 'NONE',  ( 1.224646799147353207E-16, 0.000000000000000000, 1.000000000000000000 ) ) ;
#188 = CIRCLE ( 'NONE', #280, 0.08849391750000001888 ) ;
#189 =( NAMED_UNIT ( * ) SI_UNIT ( $, .STERADIAN. ) SOLID_ANGLE_UNIT ( ) );
#190 = CARTESIAN_POINT ( 'NONE',  ( 5.303590139535433909E-17, 0.000000000000000000, 0.4330709999999999837 ) ) ;
#191 = EDGE_CURVE ( 'NONE', #70, #266, #211, .T. ) ;
#192 = DIRECTION ( 'NONE',  ( -1.224646799147353207E-16, -0.000000000000000000, -1.000000000000000000 ) ) ;
#193 = AXIS2_PLACEMENT_3D ( 'NONE', #21, #299, #250 ) ;
#194 = STYLED_ITEM ( 'NONE', ( #261 ), #283 ) ;
#195 = CARTESIAN_POINT ( 'NONE',  ( 0.000000000000000000, 0.000000000000000000, 2.244094000000000033 ) ) ;
#196 = UNCERTAINTY_MEASURE_WITH_UNIT (LENGTH_MEASURE( 1.000000000000000082E-05 ), #112, 'distance_accuracy_value', 'NONE');
#197 = CARTESIAN_POINT ( 'NONE',  ( 0.08849391750000001888, 1.083737928103849684E-17, -1.083737928103849684E-17 ) ) ;
#198 = VECTOR ( 'NONE', #73, 39.37007874015748854 ) ;
#199 = FACE_OUTER_BOUND ( 'NONE', #183, .T. ) ;
#200 = SURFACE_STYLE_USAGE ( .BOTH. , #106 ) ;
#201 = EDGE_CURVE ( 'NONE', #128, #273, #68, .T. ) ;
#202 = DIRECTION ( 'NONE',  ( -1.224646799147353207E-16, -0.000000000000000000, -1.000000000000000000 ) ) ;
#203 = VERTEX_POINT ( 'NONE', #258 ) ;
#204 = ORIENTED_EDGE ( 'NONE', *, *, #201, .T. ) ;
#205 =( CONVERSION_BASED_UNIT ( 'INCH', #265 ) LENGTH_UNIT ( ) NAMED_UNIT ( #17 ) );
#206 = ORIENTED_EDGE ( 'NONE', *, *, #7, .F. ) ;
#207 = SURFACE_SIDE_STYLE ('',( #109 ) ) ;
#208 = LINE ( 'NONE', #224, #83 ) ;
#209 = CARTESIAN_POINT ( 'NONE',  ( -0.08849391749999997725, 1.083737928103849684E-17, 0.4330709999999999837 ) ) ;
#210 = AXIS2_PLACEMENT_3D ( 'NONE', #232, #213, #244 ) ;
#211 = CIRCLE ( 'NONE', #221, 0.08849391750000001888 ) ;
#212 = ORIENTED_EDGE ( 'NONE', *, *, #139, .T. ) ;
#213 = DIRECTION ( 'NONE',  ( 0.000000000000000000, 0.000000000000000000, -1.000000000000000000 ) ) ;
#214 = DIRECTION ( 'NONE',  ( 1.224646799147353207E-16, 0.000000000000000000, 1.000000000000000000 ) ) ;
#215 = CIRCLE ( 'NONE', #37, 0.1181100000000000066 ) ;
#216 = DIRECTION ( 'NONE',  ( 0.000000000000000000, 0.000000000000000000, 1.000000000000000000 ) ) ;
#217 =( NAMED_UNIT ( * ) PLANE_ANGLE_UNIT ( ) SI_UNIT ( $, .RADIAN. ) );
#218 = FACE_OUTER_BOUND ( 'NONE', #154, .T. ) ;
#219 = FACE_OUTER_BOUND ( 'NONE', #153, .T. ) ;
#220 = DIRECTION ( 'NONE',  ( -1.000000000000000000, 0.000000000000000000, 1.224646799147353207E-16 ) ) ;
#221 = AXIS2_PLACEMENT_3D ( 'NONE', #125, #202, #260 ) ;
#222 = CARTESIAN_POINT ( 'NONE',  ( 0.08849391750000007439, 0.000000000000000000, 0.4330709999999999837 ) ) ;
#223 = DIRECTION ( 'NONE',  ( 0.000000000000000000, 0.000000000000000000, -1.000000000000000000 ) ) ;
#224 = CARTESIAN_POINT ( 'NONE',  ( -0.08849391750000001888, 0.000000000000000000, 1.083737928103849684E-17 ) ) ;
#225 = EDGE_CURVE ( 'NONE', #228, #180, #268, .T. ) ;
#226 = LINE ( 'NONE', #209, #130 ) ;
#227 = ORIENTED_EDGE ( 'NONE', *, *, #286, .T. ) ;
#228 = VERTEX_POINT ( 'NONE', #10 ) ;
#229 = CARTESIAN_POINT ( 'NONE',  ( 0.000000000000000000, 0.000000000000000000, 0.000000000000000000 ) ) ;
#230 = AXIS2_PLACEMENT_3D ( 'NONE', #115, #157, #24 ) ;
#231 =( CONVERSION_BASED_UNIT ( 'INCH', #272 ) LENGTH_UNIT ( ) NAMED_UNIT ( #186 ) );
#232 = CARTESIAN_POINT ( 'NONE',  ( 0.000000000000000000, 0.000000000000000000, 2.229093999999999465 ) ) ;
#233 = CARTESIAN_POINT ( 'NONE',  ( 0.000000000000000000, 0.000000000000000000, 2.244094000000000033 ) ) ;
#234 = DIRECTION ( 'NONE',  ( 1.000000000000000000, 0.000000000000000000, 0.000000000000000000 ) ) ;
#235 = CONICAL_SURFACE ( 'NONE', #169, 0.08849391750000001888, 0.1745329251994338360 ) ;
#236 = EDGE_CURVE ( 'NONE', #266, #180, #61, .T. ) ;
#237 = DIRECTION ( 'NONE',  ( 1.000000000000000000, 0.000000000000000000, 0.000000000000000000 ) ) ;
#238 = FILL_AREA_STYLE_COLOUR ( '', #87 ) ;
#239 = APPLICATION_CONTEXT ( 'automotive_design' ) ;
#240 = CARTESIAN_POINT ( 'NONE',  ( 0.000000000000000000, 0.000000000000000000, 2.244094000000000033 ) ) ;
#241 = CARTESIAN_POINT ( 'NONE',  ( 1.327196184766963528E-33, 0.000000000000000000, 1.083737928103849530E-17 ) ) ;
#242 = ADVANCED_FACE ( 'NONE', ( #199 ), #50, .T. ) ;
#243 = CIRCLE ( 'NONE', #141, 0.1031100000000002570 ) ;
#244 = DIRECTION ( 'NONE',  ( 1.000000000000000000, 0.000000000000000000, 0.000000000000000000 ) ) ;
#245 = ORIENTED_EDGE ( 'NONE', *, *, #236, .T. ) ;
#246 = CIRCLE ( 'NONE', #144, 0.1031100000000002570 ) ;
#247 = AXIS2_PLACEMENT_3D ( 'NONE', #240, #168, #107 ) ;
#248 =( NAMED_UNIT ( * ) SI_UNIT ( $, .STERADIAN. ) SOLID_ANGLE_UNIT ( ) );
#249 = ORIENTED_EDGE ( 'NONE', *, *, #52, .F. ) ;
#250 = DIRECTION ( 'NONE',  ( 1.000000000000000000, 0.000000000000000000, 0.000000000000000000 ) ) ;
#251 = ORIENTED_EDGE ( 'NONE', *, *, #34, .F. ) ;
#252 = EDGE_CURVE ( 'NONE', #180, #228, #174, .T. ) ;
#253 = CARTESIAN_POINT ( 'NONE',  ( 5.303590139535433909E-17, 0.000000000000000000, 0.4330709999999999837 ) ) ;
#254 = CARTESIAN_POINT ( 'NONE',  ( 0.000000000000000000, 0.000000000000000000, 2.244094000000000033 ) ) ;
#255 = CARTESIAN_POINT ( 'NONE',  ( -0.1181099999999999373, 0.000000000000000000, 0.6010321502505472369 ) ) ;
#256 = CARTESIAN_POINT ( 'NONE',  ( 0.000000000000000000, 0.000000000000000000, 2.244094000000000033 ) ) ;
#257 = DIRECTION ( 'NONE',  ( -1.000000000000000000, 0.000000000000000000, 0.000000000000000000 ) ) ;
#258 = CARTESIAN_POINT ( 'NONE',  ( 0.1031100000000002570, 1.354581824536888722E-17, 2.244094000000000033 ) ) ;
#259 = EDGE_CURVE ( 'NONE', #273, #108, #86, .T. ) ;
#260 = DIRECTION ( 'NONE',  ( -1.000000000000000000, 0.000000000000000000, 0.000000000000000000 ) ) ;
#261 = PRESENTATION_STYLE_ASSIGNMENT (( #200 ) ) ;
#262 = APPLICATION_CONTEXT ( 'automotive_design' ) ;
#263 = MECHANICAL_DESIGN_GEOMETRIC_PRESENTATION_REPRESENTATION (  '', ( #64 ), #8 ) ;
#264 =( NAMED_UNIT ( * ) PLANE_ANGLE_UNIT ( ) SI_UNIT ( $, .RADIAN. ) );
#265 = LENGTH_MEASURE_WITH_UNIT ( LENGTH_MEASURE( 0.02539999999999999897 ), #151 );
#266 = VERTEX_POINT ( 'NONE', #222 ) ;
#267 = EDGE_LOOP ( 'NONE', ( #110, #152, #133, #158 ) ) ;
#268 = CIRCLE ( 'NONE', #42, 0.08849391750000000501 ) ;
#269 = EDGE_LOOP ( 'NONE', ( #71, #69, #40, #185 ) ) ;
#270 = PRODUCT ( 'Micro_AEMM-045-4', 'Micro_AEMM-045-4', '', ( #56 ) ) ;
#271 = EDGE_LOOP ( 'NONE', ( #249, #204, #67, #294 ) ) ;
#272 = LENGTH_MEASURE_WITH_UNIT ( LENGTH_MEASURE( 0.02539999999999999897 ), #38 );
#273 = VERTEX_POINT ( 'NONE', #143 ) ;
#274 = UNCERTAINTY_MEASURE_WITH_UNIT (LENGTH_MEASURE( 1.000000000000000082E-05 ), #231, 'distance_accuracy_value', 'NONE');
#275 = VECTOR ( 'NONE', #295, 39.37007874015748854 ) ;
#276 = DIRECTION ( 'NONE',  ( 0.000000000000000000, 0.000000000000000000, 1.000000000000000000 ) ) ;
#277 = FACE_OUTER_BOUND ( 'NONE', #19, .T. ) ;
#278 = DIRECTION ( 'NONE',  ( -0.000000000000000000, -0.000000000000000000, -1.000000000000000000 ) ) ;
#279 = AXIS2_PLACEMENT_3D ( 'NONE', #229, #25, #96 ) ;
#280 = AXIS2_PLACEMENT_3D ( 'NONE', #62, #284, #257 ) ;
#281 = LINE ( 'NONE', #117, #198 ) ;
#282 = PLANE ( 'NONE',  #289 ) ;
#283 = MANIFOLD_SOLID_BREP ( 'Cut-Revolve1', #181 ) ;
#284 = DIRECTION ( 'NONE',  ( -1.224646799147353207E-16, -0.000000000000000000, -1.000000000000000000 ) ) ;
#285 = VECTOR ( 'NONE', #163, 39.37007874015748143 ) ;
#286 = EDGE_CURVE ( 'NONE', #203, #128, #65, .T. ) ;
#287 = DIRECTION ( 'NONE',  ( -1.000000000000000000, 0.000000000000000000, 0.000000000000000000 ) ) ;
#288 = DIRECTION ( 'NONE',  ( -1.224646799147353207E-16, -0.000000000000000000, -1.000000000000000000 ) ) ;
#289 = AXIS2_PLACEMENT_3D ( 'NONE', #54, #9, #6 ) ;
#290 = ADVANCED_FACE ( 'NONE', ( #103 ), #298, .T. ) ;
#291 = ORIENTED_EDGE ( 'NONE', *, *, #201, .F. ) ;
#292 = SURFACE_STYLE_USAGE ( .BOTH. , #207 ) ;
#293 = ORIENTED_EDGE ( 'NONE', *, *, #191, .F. ) ;
#294 = ORIENTED_EDGE ( 'NONE', *, *, #1, .F. ) ;
#295 = DIRECTION ( 'NONE',  ( 0.7071067811865358044, 8.659560562354788645E-17, -0.7071067811865590080 ) ) ;
#296 = DIRECTION ( 'NONE',  ( -0.1736481776669311639, 2.126576849575782392E-17, 0.9848077530122080203 ) ) ;
#297 = AXIS2_PLACEMENT_3D ( 'NONE', #11, #171, #287 ) ;
#298 = CYLINDRICAL_SURFACE ( 'NONE', #230, 0.08849391750000001888 ) ;
#299 = DIRECTION ( 'NONE',  ( -1.224646799147353207E-16, -0.000000000000000000, -1.000000000000000000 ) ) ;
ENDSEC;
END-ISO-10303-21;
