ISO-10303-21;
HEADER;
FILE_DESCRIPTION (( 'STEP AP214' ),
    '1' );
FILE_NAME ('Micro_BEM-687-03.STEP',
    '2021-09-03T13:18:40',
    ( '' ),
    ( '' ),
    'SwSTEP 2.0',
    'SolidWorks 2020',
    '' );
FILE_SCHEMA (( 'AUTOMOTIVE_DESIGN' ));
ENDSEC;

DATA;
#1 = LINE ( 'NONE', #119, #281 ) ;
#2 = DIRECTION ( 'NONE',  ( 0.0000000000000000000, 1.000000000000000000, 0.0000000000000000000 ) ) ;
#3 = FACE_OUTER_BOUND ( 'NONE', #192, .T. ) ;
#4 = VERTEX_POINT ( 'NONE', #164 ) ;
#5 = AXIS2_PLACEMENT_3D ( 'NONE', #145, #322, #194 ) ;
#6 = ORIENTED_EDGE ( 'NONE', *, *, #207, .T. ) ;
#7 = DIMENSIONAL_EXPONENTS ( 1.000000000000000000, 0.0000000000000000000, 0.0000000000000000000, 0.0000000000000000000, 0.0000000000000000000, 0.0000000000000000000, 0.0000000000000000000 ) ;
#8 = EDGE_CURVE ( 'NONE', #20, #208, #94, .T. ) ;
#9 = SURFACE_STYLE_USAGE ( .BOTH. , #284 ) ;
#10 = ORIENTED_EDGE ( 'NONE', *, *, #292, .F. ) ;
#11 = ADVANCED_FACE ( 'NONE', ( #64 ), #210, .T. ) ;
#12 =( NAMED_UNIT ( * ) PLANE_ANGLE_UNIT ( ) SI_UNIT ( $, .RADIAN. ) );
#13 = PRESENTATION_STYLE_ASSIGNMENT (( #9 ) ) ;
#14 = AXIS2_PLACEMENT_3D ( 'NONE', #31, #82, #199 ) ;
#15 = VERTEX_POINT ( 'NONE', #18 ) ;
#16 = ORIENTED_EDGE ( 'NONE', *, *, #149, .T. ) ;
#17 = VERTEX_POINT ( 'NONE', #317 ) ;
#18 = CARTESIAN_POINT ( 'NONE',  ( -0.3749999999999998335, 0.0000000000000000000, 1.554177059988545828 ) ) ;
#19 = VECTOR ( 'NONE', #140, 39.37007874015748143 ) ;
#20 = VERTEX_POINT ( 'NONE', #270 ) ;
#21 = ADVANCED_FACE ( 'NONE', ( #238 ), #151, .T. ) ;
#22 = DIRECTION ( 'NONE',  ( 1.000000000000000000, 0.0000000000000000000, 0.0000000000000000000 ) ) ;
#23 = PRODUCT_DEFINITION_SHAPE ( 'NONE', 'NONE',  #99 ) ;
#24 = CARTESIAN_POINT ( 'NONE',  ( 0.3750000000000001665, 4.592425496802577300E-17, 1.554177059988545828 ) ) ;
#25 = AXIS2_PLACEMENT_3D ( 'NONE', #252, #259, #201 ) ;
#26 = CARTESIAN_POINT ( 'NONE',  ( 0.0000000000000000000, 0.0000000000000000000, 3.984999999999998987 ) ) ;
#27 = CARTESIAN_POINT ( 'NONE',  ( -0.3434062500000000795, 0.0000000000000000000, 4.205513648696958826E-17 ) ) ;
#28 = DIRECTION ( 'NONE',  ( -1.000000000000000000, 0.0000000000000000000, 0.0000000000000000000 ) ) ;
#29 = PRESENTATION_LAYER_ASSIGNMENT (  '', '', ( #285 ) ) ;
#30 = CARTESIAN_POINT ( 'NONE',  ( 0.3750000000000000555, 4.592425496802575451E-17, 3.984999999999998987 ) ) ;
#31 = CARTESIAN_POINT ( 'NONE',  ( 0.0000000000000000000, 0.0000000000000000000, 4.000000000000000000 ) ) ;
#32 = EDGE_LOOP ( 'NONE', ( #319, #295, #150 ) ) ;
#33 = CARTESIAN_POINT ( 'NONE',  ( 0.0000000000000000000, 0.0000000000000000000, 3.984999999999998987 ) ) ;
#34 = VECTOR ( 'NONE', #35, 39.37007874015748143 ) ;
#35 = DIRECTION ( 'NONE',  ( -0.0000000000000000000, -0.0000000000000000000, -1.000000000000000000 ) ) ;
#36 =( NAMED_UNIT ( * ) SI_UNIT ( $, .STERADIAN. ) SOLID_ANGLE_UNIT ( ) );
#37 = ORIENTED_EDGE ( 'NONE', *, *, #153, .F. ) ;
#38 = DIRECTION ( 'NONE',  ( 1.000000000000000000, 0.0000000000000000000, 0.0000000000000000000 ) ) ;
#39 = AXIS2_PLACEMENT_3D ( 'NONE', #108, #304, #301 ) ;
#40 = EDGE_LOOP ( 'NONE', ( #16, #183, #80, #37 ) ) ;
#41 = DIRECTION ( 'NONE',  ( 0.1736481776669313304, 0.0000000000000000000, 0.9848077530122077983 ) ) ;
#42 = SURFACE_SIDE_STYLE ('',( #265 ) ) ;
#43 = ORIENTED_EDGE ( 'NONE', *, *, #318, .T. ) ;
#44 = CARTESIAN_POINT ( 'NONE',  ( 0.0000000000000000000, 0.0000000000000000000, 0.0000000000000000000 ) ) ;
#45 = EDGE_CURVE ( 'NONE', #20, #83, #134, .T. ) ;
#46 = ORIENTED_EDGE ( 'NONE', *, *, #153, .T. ) ;
#47 =( NAMED_UNIT ( * ) PLANE_ANGLE_UNIT ( ) SI_UNIT ( $, .RADIAN. ) );
#48 = DIRECTION ( 'NONE',  ( 1.224646799147353207E-16, 0.0000000000000000000, 1.000000000000000000 ) ) ;
#49 = PLANE ( 'NONE',  #5 ) ;
#50 = CARTESIAN_POINT ( 'NONE',  ( 0.3599999999999994316, 4.408728476930464865E-17, 4.000000000000000000 ) ) ;
#51 = AXIS2_PLACEMENT_3D ( 'NONE', #321, #96, #193 ) ;
#52 = SPHERICAL_SURFACE ( 'NONE', #239, 0.3434062500000000240 ) ;
#53 = DIRECTION ( 'NONE',  ( 1.000000000000000000, 0.0000000000000000000, 0.0000000000000000000 ) ) ;
#54 = DIRECTION ( 'NONE',  ( 0.0000000000000000000, 0.0000000000000000000, -1.000000000000000000 ) ) ;
#55 = CIRCLE ( 'NONE', #186, 0.3434062500000000795 ) ;
#56 = CYLINDRICAL_SURFACE ( 'NONE', #14, 0.3750000000000000555 ) ;
#57 = DIRECTION ( 'NONE',  ( -1.224646799147353207E-16, -0.0000000000000000000, -1.000000000000000000 ) ) ;
#58 =( NAMED_UNIT ( * ) SI_UNIT ( $, .STERADIAN. ) SOLID_ANGLE_UNIT ( ) );
#59 = AXIS2_PLACEMENT_3D ( 'NONE', #263, #92, #22 ) ;
#60 = AXIS2_PLACEMENT_3D ( 'NONE', #98, #125, #227 ) ;
#61 = CARTESIAN_POINT ( 'NONE',  ( -0.3750000000000000555, 0.0000000000000000000, 4.000000000000000000 ) ) ;
#62 = DIMENSIONAL_EXPONENTS ( 1.000000000000000000, 0.0000000000000000000, 0.0000000000000000000, 0.0000000000000000000, 0.0000000000000000000, 0.0000000000000000000, 0.0000000000000000000 ) ;
#63 = CARTESIAN_POINT ( 'NONE',  ( 4.205513648696958210E-17, 0.0000000000000000000, 0.3434062500000000240 ) ) ;
#64 = FACE_OUTER_BOUND ( 'NONE', #40, .T. ) ;
#65 = EDGE_CURVE ( 'NONE', #4, #83, #88, .T. ) ;
#66 = ORIENTED_EDGE ( 'NONE', *, *, #45, .F. ) ;
#67 = ORIENTED_EDGE ( 'NONE', *, *, #149, .F. ) ;
#68 = AXIS2_PLACEMENT_3D ( 'NONE', #294, #86, #137 ) ;
#69 = LINE ( 'NONE', #271, #181 ) ;
#70 = EDGE_CURVE ( 'NONE', #202, #208, #214, .T. ) ;
#71 = DIRECTION ( 'NONE',  ( 1.224646799147353207E-16, 0.0000000000000000000, 1.000000000000000000 ) ) ;
#72 = CARTESIAN_POINT ( 'NONE',  ( -0.3750000000000000555, 0.0000000000000000000, 3.984999999999998987 ) ) ;
#73 = AXIS2_PLACEMENT_3D ( 'NONE', #248, #324, #172 ) ;
#74 = CARTESIAN_POINT ( 'NONE',  ( 4.205513648696958210E-17, 0.0000000000000000000, 0.3434062500000000240 ) ) ;
#75 = EDGE_CURVE ( 'NONE', #208, #15, #306, .T. ) ;
#76 = CARTESIAN_POINT ( 'NONE',  ( 1.683889348827610506E-16, 0.0000000000000000000, 1.375000000000000000 ) ) ;
#77 = DIRECTION ( 'NONE',  ( -1.000000000000000000, 0.0000000000000000000, 1.224646799147353207E-16 ) ) ;
#78 = CIRCLE ( 'NONE', #120, 0.3750000000000000555 ) ;
#79 = FILL_AREA_STYLE ('',( #126 ) ) ;
#80 = ORIENTED_EDGE ( 'NONE', *, *, #103, .T. ) ;
#81 = AXIS2_PLACEMENT_3D ( 'NONE', #44, #289, #38 ) ;
#82 = DIRECTION ( 'NONE',  ( -0.0000000000000000000, -0.0000000000000000000, -1.000000000000000000 ) ) ;
#83 = VERTEX_POINT ( 'NONE', #189 ) ;
#84 = ADVANCED_FACE ( 'NONE', ( #118 ), #217, .T. ) ;
#85 = EDGE_LOOP ( 'NONE', ( #138, #185, #155, #190 ) ) ;
#86 = DIRECTION ( 'NONE',  ( -1.224646799147353207E-16, -0.0000000000000000000, -1.000000000000000000 ) ) ;
#87 = DIMENSIONAL_EXPONENTS ( 1.000000000000000000, 0.0000000000000000000, 0.0000000000000000000, 0.0000000000000000000, 0.0000000000000000000, 0.0000000000000000000, 0.0000000000000000000 ) ;
#88 = CIRCLE ( 'NONE', #275, 0.3434062500000000795 ) ;
#89 = ORIENTED_EDGE ( 'NONE', *, *, #204, .F. ) ;
#90 = ADVANCED_FACE ( 'NONE', ( #246 ), #52, .T. ) ;
#91 =( LENGTH_UNIT ( ) NAMED_UNIT ( * ) SI_UNIT ( $, .METRE. ) );
#92 = DIRECTION ( 'NONE',  ( -1.224646799147353207E-16, -0.0000000000000000000, -1.000000000000000000 ) ) ;
#93 = ORIENTED_EDGE ( 'NONE', *, *, #282, .F. ) ;
#94 = LINE ( 'NONE', #216, #244 ) ;
#95 = COLOUR_RGB ( '',0.7921568627450980005, 0.8196078431372548767, 0.9333333333333333481 ) ;
#96 = DIRECTION ( 'NONE',  ( 0.0000000000000000000, 0.0000000000000000000, 1.000000000000000000 ) ) ;
#97 = DIRECTION ( 'NONE',  ( -0.0000000000000000000, -0.0000000000000000000, -1.000000000000000000 ) ) ;
#98 = CARTESIAN_POINT ( 'NONE',  ( 1.903317961823216266E-16, 0.0000000000000000000, 1.554177059988545828 ) ) ;
#99 = PRODUCT_DEFINITION ( 'UNKNOWN', '', #309, #269 ) ;
#100 = DIRECTION ( 'NONE',  ( 1.224646799147353207E-16, 0.0000000000000000000, 1.000000000000000000 ) ) ;
#101 = CARTESIAN_POINT ( 'NONE',  ( 4.205513648696958210E-17, 0.0000000000000000000, 0.3434062500000000240 ) ) ;
#102 = CYLINDRICAL_SURFACE ( 'NONE', #302, 0.3434062500000000795 ) ;
#103 = EDGE_CURVE ( 'NONE', #83, #4, #55, .T. ) ;
#104 = CIRCLE ( 'NONE', #51, 0.3599999999999994316 ) ;
#105 = VERTEX_POINT ( 'NONE', #146 ) ;
#106 = EDGE_CURVE ( 'NONE', #105, #15, #1, .T. ) ;
#107 = CARTESIAN_POINT ( 'NONE',  ( 4.205513648696958210E-17, 0.0000000000000000000, 0.3434062500000000240 ) ) ;
#108 = CARTESIAN_POINT ( 'NONE',  ( 4.205513648696958210E-17, 0.0000000000000000000, 0.3434062500000000240 ) ) ;
#109 = ORIENTED_EDGE ( 'NONE', *, *, #272, .T. ) ;
#110 = ADVANCED_FACE ( 'NONE', ( #243 ), #233, .T. ) ;
#111 = EDGE_LOOP ( 'NONE', ( #43, #310 ) ) ;
#112 = ADVANCED_FACE ( 'NONE', ( #198 ), #168, .T. ) ;
#113 = ORIENTED_EDGE ( 'NONE', *, *, #204, .T. ) ;
#114 = CLOSED_SHELL ( 'NONE', ( #90, #11, #21, #167, #84, #215, #178, #143, #110, #257, #112 ) ) ;
#115 = AXIS2_PLACEMENT_3D ( 'NONE', #222, #97, #298 ) ;
#116 = DIRECTION ( 'NONE',  ( -1.224646799147353207E-16, -0.0000000000000000000, -1.000000000000000000 ) ) ;
#117 = ORIENTED_EDGE ( 'NONE', *, *, #318, .F. ) ;
#118 = FACE_OUTER_BOUND ( 'NONE', #188, .T. ) ;
#119 = CARTESIAN_POINT ( 'NONE',  ( -0.3434062499999999130, 4.205513648696958826E-17, 1.375000000000000000 ) ) ;
#120 = AXIS2_PLACEMENT_3D ( 'NONE', #33, #152, #148 ) ;
#121 = FACE_OUTER_BOUND ( 'NONE', #206, .T. ) ;
#122 = EDGE_CURVE ( 'NONE', #202, #180, #228, .T. ) ;
#123 = DIRECTION ( 'NONE',  ( 1.000000000000000000, 0.0000000000000000000, 0.0000000000000000000 ) ) ;
#124 = CARTESIAN_POINT ( 'NONE',  ( 4.205513648696958210E-17, 0.0000000000000000000, 0.3434062500000000240 ) ) ;
#125 = DIRECTION ( 'NONE',  ( -1.224646799147353207E-16, -0.0000000000000000000, -1.000000000000000000 ) ) ;
#126 = FILL_AREA_STYLE_COLOUR ( '', #95 ) ;
#127 = PRESENTATION_LAYER_ASSIGNMENT (  '', '', ( #191 ) ) ;
#128 =( NAMED_UNIT ( * ) PLANE_ANGLE_UNIT ( ) SI_UNIT ( $, .RADIAN. ) );
#129 = ORIENTED_EDGE ( 'NONE', *, *, #211, .F. ) ;
#130 = DIRECTION ( 'NONE',  ( 0.0000000000000000000, 0.0000000000000000000, -1.000000000000000000 ) ) ;
#131 = ORIENTED_EDGE ( 'NONE', *, *, #292, .T. ) ;
#132 =( GEOMETRIC_REPRESENTATION_CONTEXT ( 3 ) GLOBAL_UNCERTAINTY_ASSIGNED_CONTEXT ( ( #313 ) ) GLOBAL_UNIT_ASSIGNED_CONTEXT ( ( #182, #128, #36 ) ) REPRESENTATION_CONTEXT ( 'NONE', 'WORKASPACE' ) );
#133 = LENGTH_MEASURE_WITH_UNIT ( LENGTH_MEASURE( 0.02539999999999999897 ), #91 );
#134 = LINE ( 'NONE', #290, #291 ) ;
#135 = ORIENTED_EDGE ( 'NONE', *, *, #122, .T. ) ;
#136 = SHAPE_DEFINITION_REPRESENTATION ( #23, #171 ) ;
#137 = DIRECTION ( 'NONE',  ( -1.000000000000000000, 0.0000000000000000000, 1.224646799147353207E-16 ) ) ;
#138 = ORIENTED_EDGE ( 'NONE', *, *, #106, .F. ) ;
#139 =( NAMED_UNIT ( * ) SI_UNIT ( $, .STERADIAN. ) SOLID_ANGLE_UNIT ( ) );
#140 = DIRECTION ( 'NONE',  ( -0.0000000000000000000, -0.0000000000000000000, -1.000000000000000000 ) ) ;
#141 = DIRECTION ( 'NONE',  ( -1.224646799147353207E-16, -0.0000000000000000000, -1.000000000000000000 ) ) ;
#142 = LINE ( 'NONE', #27, #196 ) ;
#143 = ADVANCED_FACE ( 'NONE', ( #300 ), #251, .T. ) ;
#144 = DIRECTION ( 'NONE',  ( 1.000000000000000000, 0.0000000000000000000, 0.0000000000000000000 ) ) ;
#145 = CARTESIAN_POINT ( 'NONE',  ( 0.0000000000000000000, 0.0000000000000000000, 4.000000000000000000 ) ) ;
#146 = CARTESIAN_POINT ( 'NONE',  ( -0.3434062499999999130, 4.398969572749766523E-17, 1.375000000000000000 ) ) ;
#147 = AXIS2_PLACEMENT_3D ( 'NONE', #274, #54, #221 ) ;
#148 = DIRECTION ( 'NONE',  ( 1.000000000000000000, 0.0000000000000000000, 0.0000000000000000000 ) ) ;
#149 = EDGE_CURVE ( 'NONE', #105, #20, #268, .T. ) ;
#150 = ORIENTED_EDGE ( 'NONE', *, *, #103, .F. ) ;
#151 = CONICAL_SURFACE ( 'NONE', #249, 0.3434062500000000795, 0.1745329251994338360 ) ;
#152 = DIRECTION ( 'NONE',  ( 0.0000000000000000000, 0.0000000000000000000, -1.000000000000000000 ) ) ;
#153 = EDGE_CURVE ( 'NONE', #105, #4, #142, .T. ) ;
#154 = CARTESIAN_POINT ( 'NONE',  ( 1.683889348827610506E-16, 0.0000000000000000000, 1.375000000000000000 ) ) ;
#155 = ORIENTED_EDGE ( 'NONE', *, *, #8, .T. ) ;
#156 = ORIENTED_EDGE ( 'NONE', *, *, #219, .F. ) ;
#157 = EDGE_CURVE ( 'NONE', #286, #202, #166, .T. ) ;
#158 = MECHANICAL_DESIGN_GEOMETRIC_PRESENTATION_REPRESENTATION (  '', ( #191 ), #132 ) ;
#159 = APPLICATION_PROTOCOL_DEFINITION ( 'draft international standard', 'automotive_design', 1998, #235 ) ;
#160 = ORIENTED_EDGE ( 'NONE', *, *, #106, .T. ) ;
#161 = EDGE_LOOP ( 'NONE', ( #156, #109, #232 ) ) ;
#162 = ORIENTED_EDGE ( 'NONE', *, *, #122, .F. ) ;
#163 = VECTOR ( 'NONE', #279, 39.37007874015748143 ) ;
#164 = CARTESIAN_POINT ( 'NONE',  ( -0.3434062500000000240, 0.0000000000000000000, 0.3434062500000000795 ) ) ;
#165 = DIRECTION ( 'NONE',  ( 0.0000000000000000000, 0.0000000000000000000, -1.000000000000000000 ) ) ;
#166 = LINE ( 'NONE', #50, #163 ) ;
#167 = ADVANCED_FACE ( 'NONE', ( #121 ), #245, .T. ) ;
#168 = SPHERICAL_SURFACE ( 'NONE', #307, 0.3434062500000000240 ) ;
#169 = AXIS2_PLACEMENT_3D ( 'NONE', #154, #253, #280 ) ;
#170 = DIRECTION ( 'NONE',  ( 1.000000000000000000, 0.0000000000000000000, 0.0000000000000000000 ) ) ;
#171 = ADVANCED_BREP_SHAPE_REPRESENTATION ( 'Micro_BEM-687-03', ( #226, #81 ), #212 ) ;
#172 = DIRECTION ( 'NONE',  ( -1.000000000000000000, 0.0000000000000000000, 0.0000000000000000000 ) ) ;
#173 = CARTESIAN_POINT ( 'NONE',  ( 0.3599999999999994316, 4.500576986866520466E-17, 4.000000000000000000 ) ) ;
#174 = CIRCLE ( 'NONE', #218, 0.3434062500000000240 ) ;
#175 = FACE_OUTER_BOUND ( 'NONE', #264, .T. ) ;
#176 = VERTEX_POINT ( 'NONE', #278 ) ;
#177 = LINE ( 'NONE', #61, #34 ) ;
#178 = ADVANCED_FACE ( 'NONE', ( #250 ), #49, .T. ) ;
#179 = SURFACE_STYLE_FILL_AREA ( #79 ) ;
#180 = VERTEX_POINT ( 'NONE', #72 ) ;
#181 = VECTOR ( 'NONE', #220, 39.37007874015748143 ) ;
#182 =( CONVERSION_BASED_UNIT ( 'INCH', #287 ) LENGTH_UNIT ( ) NAMED_UNIT ( #62 ) );
#183 = ORIENTED_EDGE ( 'NONE', *, *, #45, .T. ) ;
#184 = EDGE_LOOP ( 'NONE', ( #67, #160, #113, #241 ) ) ;
#185 = ORIENTED_EDGE ( 'NONE', *, *, #267, .F. ) ;
#186 = AXIS2_PLACEMENT_3D ( 'NONE', #101, #100, #195 ) ;
#187 = PRODUCT_CONTEXT ( 'NONE', #235, 'mechanical' ) ;
#188 = EDGE_LOOP ( 'NONE', ( #131, #303, #89, #93 ) ) ;
#189 = CARTESIAN_POINT ( 'NONE',  ( 0.3434062500000001350, 4.205513648696958826E-17, 0.3434062499999999130 ) ) ;
#190 = ORIENTED_EDGE ( 'NONE', *, *, #75, .T. ) ;
#191 = STYLED_ITEM ( 'NONE', ( #13 ), #226 ) ;
#192 = EDGE_LOOP ( 'NONE', ( #66, #237, #46, #296 ) ) ;
#193 = DIRECTION ( 'NONE',  ( 1.000000000000000000, 0.0000000000000000000, 0.0000000000000000000 ) ) ;
#194 = DIRECTION ( 'NONE',  ( 1.000000000000000000, 0.0000000000000000000, -0.0000000000000000000 ) ) ;
#195 = DIRECTION ( 'NONE',  ( -1.000000000000000000, 0.0000000000000000000, 1.988787328174911433E-16 ) ) ;
#196 = VECTOR ( 'NONE', #141, 39.37007874015748143 ) ;
#197 = DIRECTION ( 'NONE',  ( -0.1736481776669311639, 2.126576849575782392E-17, 0.9848077530122080203 ) ) ;
#198 = FACE_OUTER_BOUND ( 'NONE', #161, .T. ) ;
#199 = DIRECTION ( 'NONE',  ( -1.000000000000000000, 0.0000000000000000000, 0.0000000000000000000 ) ) ;
#200 = CIRCLE ( 'NONE', #25, 0.3599999999999994316 ) ;
#201 = DIRECTION ( 'NONE',  ( 1.000000000000000000, 0.0000000000000000000, 0.0000000000000000000 ) ) ;
#202 = VERTEX_POINT ( 'NONE', #30 ) ;
#203 = DIRECTION ( 'NONE',  ( 0.0000000000000000000, -1.000000000000000000, 0.0000000000000000000 ) ) ;
#204 = EDGE_CURVE ( 'NONE', #15, #208, #276, .T. ) ;
#205 = CIRCLE ( 'NONE', #39, 0.3434062500000000240 ) ;
#206 = EDGE_LOOP ( 'NONE', ( #129, #256, #10, #266 ) ) ;
#207 = EDGE_CURVE ( 'NONE', #176, #180, #69, .T. ) ;
#208 = VERTEX_POINT ( 'NONE', #24 ) ;
#209 = FILL_AREA_STYLE_COLOUR ( '', #299 ) ;
#210 = CYLINDRICAL_SURFACE ( 'NONE', #68, 0.3434062500000000795 ) ;
#211 = EDGE_CURVE ( 'NONE', #286, #176, #104, .T. ) ;
#212 =( GEOMETRIC_REPRESENTATION_CONTEXT ( 3 ) GLOBAL_UNCERTAINTY_ASSIGNED_CONTEXT ( ( #260 ) ) GLOBAL_UNIT_ASSIGNED_CONTEXT ( ( #229, #12, #58 ) ) REPRESENTATION_CONTEXT ( 'NONE', 'WORKASPACE' ) );
#213 = FILL_AREA_STYLE ('',( #209 ) ) ;
#214 = LINE ( 'NONE', #314, #19 ) ;
#215 = ADVANCED_FACE ( 'NONE', ( #175 ), #56, .T. ) ;
#216 = CARTESIAN_POINT ( 'NONE',  ( 0.3434062500000001905, 0.0000000000000000000, 1.375000000000000000 ) ) ;
#217 = CYLINDRICAL_SURFACE ( 'NONE', #115, 0.3750000000000000555 ) ;
#218 = AXIS2_PLACEMENT_3D ( 'NONE', #107, #203, #130 ) ;
#219 = EDGE_CURVE ( 'NONE', #17, #4, #205, .T. ) ;
#220 = DIRECTION ( 'NONE',  ( -0.7071067811865426878, 0.0000000000000000000, -0.7071067811865523467 ) ) ;
#221 = DIRECTION ( 'NONE',  ( -1.000000000000000000, 0.0000000000000000000, 0.0000000000000000000 ) ) ;
#222 = CARTESIAN_POINT ( 'NONE',  ( 0.0000000000000000000, 0.0000000000000000000, 4.000000000000000000 ) ) ;
#223 = APPLICATION_CONTEXT ( 'automotive_design' ) ;
#224 = CARTESIAN_POINT ( 'NONE',  ( 0.0000000000000000000, 0.0000000000000000000, 4.000000000000000000 ) ) ;
#225 = AXIS2_PLACEMENT_3D ( 'NONE', #76, #71, #53 ) ;
#226 = MANIFOLD_SOLID_BREP ( 'Fillet1', #114 ) ;
#227 = DIRECTION ( 'NONE',  ( 1.000000000000000000, 0.0000000000000000000, 0.0000000000000000000 ) ) ;
#228 = CIRCLE ( 'NONE', #262, 0.3750000000000000555 ) ;
#229 =( CONVERSION_BASED_UNIT ( 'INCH', #231 ) LENGTH_UNIT ( ) NAMED_UNIT ( #7 ) );
#230 = ORIENTED_EDGE ( 'NONE', *, *, #75, .F. ) ;
#231 = LENGTH_MEASURE_WITH_UNIT ( LENGTH_MEASURE( 0.02539999999999999897 ), #258 );
#232 = ORIENTED_EDGE ( 'NONE', *, *, #65, .F. ) ;
#233 = CONICAL_SURFACE ( 'NONE', #225, 0.3434062500000000795, 0.1745329251994338360 ) ;
#234 = CARTESIAN_POINT ( 'NONE',  ( 1.683889348827610506E-16, 0.0000000000000000000, 1.375000000000000000 ) ) ;
#235 = APPLICATION_CONTEXT ( 'automotive_design' ) ;
#236 =( CONVERSION_BASED_UNIT ( 'INCH', #133 ) LENGTH_UNIT ( ) NAMED_UNIT ( #87 ) );
#237 = ORIENTED_EDGE ( 'NONE', *, *, #267, .T. ) ;
#238 = FACE_OUTER_BOUND ( 'NONE', #184, .T. ) ;
#239 = AXIS2_PLACEMENT_3D ( 'NONE', #74, #2, #123 ) ;
#240 = APPLICATION_PROTOCOL_DEFINITION ( 'draft international standard', 'automotive_design', 1998, #223 ) ;
#241 = ORIENTED_EDGE ( 'NONE', *, *, #8, .F. ) ;
#242 = DIRECTION ( 'NONE',  ( -1.000000000000000000, 0.0000000000000000000, 1.988787328174911433E-16 ) ) ;
#243 = FACE_OUTER_BOUND ( 'NONE', #85, .T. ) ;
#244 = VECTOR ( 'NONE', #41, 39.37007874015748143 ) ;
#245 = CONICAL_SURFACE ( 'NONE', #147, 0.3599999999999994316, 0.7853981633974415066 ) ;
#246 = FACE_OUTER_BOUND ( 'NONE', #32, .T. ) ;
#247 = DIRECTION ( 'NONE',  ( 0.0000000000000000000, 0.0000000000000000000, -1.000000000000000000 ) ) ;
#248 = CARTESIAN_POINT ( 'NONE',  ( 1.683889348827610506E-16, 0.0000000000000000000, 1.375000000000000000 ) ) ;
#249 = AXIS2_PLACEMENT_3D ( 'NONE', #234, #261, #297 ) ;
#250 = FACE_OUTER_BOUND ( 'NONE', #111, .T. ) ;
#251 = CONICAL_SURFACE ( 'NONE', #320, 0.3599999999999994316, 0.7853981633974415066 ) ;
#252 = CARTESIAN_POINT ( 'NONE',  ( 0.0000000000000000000, 0.0000000000000000000, 4.000000000000000000 ) ) ;
#253 = DIRECTION ( 'NONE',  ( -1.224646799147353207E-16, -0.0000000000000000000, -1.000000000000000000 ) ) ;
#254 = CARTESIAN_POINT ( 'NONE',  ( 0.0000000000000000000, 0.0000000000000000000, 0.0000000000000000000 ) ) ;
#255 = MECHANICAL_DESIGN_GEOMETRIC_PRESENTATION_REPRESENTATION (  '', ( #285 ), #325 ) ;
#256 = ORIENTED_EDGE ( 'NONE', *, *, #157, .T. ) ;
#257 = ADVANCED_FACE ( 'NONE', ( #3 ), #102, .T. ) ;
#258 =( LENGTH_UNIT ( ) NAMED_UNIT ( * ) SI_UNIT ( $, .METRE. ) );
#259 = DIRECTION ( 'NONE',  ( 0.0000000000000000000, 0.0000000000000000000, 1.000000000000000000 ) ) ;
#260 = UNCERTAINTY_MEASURE_WITH_UNIT (LENGTH_MEASURE( 1.000000000000000082E-05 ), #229, 'distance_accuracy_value', 'NONE');
#261 = DIRECTION ( 'NONE',  ( 1.224646799147353207E-16, 0.0000000000000000000, 1.000000000000000000 ) ) ;
#262 = AXIS2_PLACEMENT_3D ( 'NONE', #26, #247, #170 ) ;
#263 = CARTESIAN_POINT ( 'NONE',  ( 1.903317961823216266E-16, 0.0000000000000000000, 1.554177059988545828 ) ) ;
#264 = EDGE_LOOP ( 'NONE', ( #316, #135, #308, #230 ) ) ;
#265 = SURFACE_STYLE_FILL_AREA ( #213 ) ;
#266 = ORIENTED_EDGE ( 'NONE', *, *, #207, .F. ) ;
#267 = EDGE_CURVE ( 'NONE', #20, #105, #315, .T. ) ;
#268 = CIRCLE ( 'NONE', #73, 0.3434062500000000795 ) ;
#269 = PRODUCT_DEFINITION_CONTEXT ( 'detailed design', #223, 'design' ) ;
#270 = CARTESIAN_POINT ( 'NONE',  ( 0.3434062500000001905, 0.0000000000000000000, 1.375000000000000000 ) ) ;
#271 = CARTESIAN_POINT ( 'NONE',  ( -0.3599999999999994316, 0.0000000000000000000, 4.000000000000000000 ) ) ;
#272 = EDGE_CURVE ( 'NONE', #17, #83, #174, .T. ) ;
#273 = UNCERTAINTY_MEASURE_WITH_UNIT (LENGTH_MEASURE( 1.000000000000000082E-05 ), #236, 'distance_accuracy_value', 'NONE');
#274 = CARTESIAN_POINT ( 'NONE',  ( 0.0000000000000000000, 0.0000000000000000000, 4.000000000000000000 ) ) ;
#275 = AXIS2_PLACEMENT_3D ( 'NONE', #63, #48, #242 ) ;
#276 = CIRCLE ( 'NONE', #60, 0.3750000000000000555 ) ;
#277 = DIRECTION ( 'NONE',  ( 0.0000000000000000000, 1.000000000000000000, 0.0000000000000000000 ) ) ;
#278 = CARTESIAN_POINT ( 'NONE',  ( -0.3599999999999994316, 0.0000000000000000000, 4.000000000000000000 ) ) ;
#279 = DIRECTION ( 'NONE',  ( 0.7071067811865426878, 8.659560562354873694E-17, -0.7071067811865523467 ) ) ;
#280 = DIRECTION ( 'NONE',  ( -1.000000000000000000, 0.0000000000000000000, 0.0000000000000000000 ) ) ;
#281 = VECTOR ( 'NONE', #197, 39.37007874015747433 ) ;
#282 = EDGE_CURVE ( 'NONE', #180, #15, #177, .T. ) ;
#283 =( LENGTH_UNIT ( ) NAMED_UNIT ( * ) SI_UNIT ( $, .METRE. ) );
#284 = SURFACE_SIDE_STYLE ('',( #179 ) ) ;
#285 = STYLED_ITEM ( 'NONE', ( #293 ), #171 ) ;
#286 = VERTEX_POINT ( 'NONE', #173 ) ;
#287 = LENGTH_MEASURE_WITH_UNIT ( LENGTH_MEASURE( 0.02539999999999999897 ), #283 );
#288 = ORIENTED_EDGE ( 'NONE', *, *, #157, .F. ) ;
#289 = DIRECTION ( 'NONE',  ( 0.0000000000000000000, 0.0000000000000000000, 1.000000000000000000 ) ) ;
#290 = CARTESIAN_POINT ( 'NONE',  ( 0.3434062500000000795, 4.205513648696958826E-17, -4.205513648696958826E-17 ) ) ;
#291 = VECTOR ( 'NONE', #116, 39.37007874015748143 ) ;
#292 = EDGE_CURVE ( 'NONE', #180, #202, #78, .T. ) ;
#293 = PRESENTATION_STYLE_ASSIGNMENT (( #312 ) ) ;
#294 = CARTESIAN_POINT ( 'NONE',  ( 0.0000000000000000000, 0.0000000000000000000, 0.0000000000000000000 ) ) ;
#295 = ORIENTED_EDGE ( 'NONE', *, *, #219, .T. ) ;
#296 = ORIENTED_EDGE ( 'NONE', *, *, #65, .T. ) ;
#297 = DIRECTION ( 'NONE',  ( 1.000000000000000000, 0.0000000000000000000, 0.0000000000000000000 ) ) ;
#298 = DIRECTION ( 'NONE',  ( -1.000000000000000000, 0.0000000000000000000, 0.0000000000000000000 ) ) ;
#299 = COLOUR_RGB ( '',0.7921568627450980005, 0.8196078431372548767, 0.9333333333333333481 ) ;
#300 = FACE_OUTER_BOUND ( 'NONE', #311, .T. ) ;
#301 = DIRECTION ( 'NONE',  ( -1.000000000000000000, 1.224646799147353207E-16, 0.0000000000000000000 ) ) ;
#302 = AXIS2_PLACEMENT_3D ( 'NONE', #254, #57, #77 ) ;
#303 = ORIENTED_EDGE ( 'NONE', *, *, #70, .T. ) ;
#304 = DIRECTION ( 'NONE',  ( 1.224646799147353207E-16, 1.000000000000000000, -0.0000000000000000000 ) ) ;
#305 = PRODUCT_RELATED_PRODUCT_CATEGORY ( 'part', '', ( #323 ) ) ;
#306 = CIRCLE ( 'NONE', #59, 0.3750000000000000555 ) ;
#307 = AXIS2_PLACEMENT_3D ( 'NONE', #124, #277, #144 ) ;
#308 = ORIENTED_EDGE ( 'NONE', *, *, #282, .T. ) ;
#309 = PRODUCT_DEFINITION_FORMATION_WITH_SPECIFIED_SOURCE ( 'ANY', '', #323, .NOT_KNOWN. ) ;
#310 = ORIENTED_EDGE ( 'NONE', *, *, #211, .T. ) ;
#311 = EDGE_LOOP ( 'NONE', ( #288, #117, #6, #162 ) ) ;
#312 = SURFACE_STYLE_USAGE ( .BOTH. , #42 ) ;
#313 = UNCERTAINTY_MEASURE_WITH_UNIT (LENGTH_MEASURE( 1.000000000000000082E-05 ), #182, 'distance_accuracy_value', 'NONE');
#314 = CARTESIAN_POINT ( 'NONE',  ( 0.3750000000000000555, 4.592425496802575451E-17, 4.000000000000000000 ) ) ;
#315 = CIRCLE ( 'NONE', #169, 0.3434062500000000795 ) ;
#316 = ORIENTED_EDGE ( 'NONE', *, *, #70, .F. ) ;
#317 = CARTESIAN_POINT ( 'NONE',  ( 6.308270473045437623E-17, 0.0000000000000000000, 0.0000000000000000000 ) ) ;
#318 = EDGE_CURVE ( 'NONE', #176, #286, #200, .T. ) ;
#319 = ORIENTED_EDGE ( 'NONE', *, *, #272, .F. ) ;
#320 = AXIS2_PLACEMENT_3D ( 'NONE', #224, #165, #28 ) ;
#321 = CARTESIAN_POINT ( 'NONE',  ( 0.0000000000000000000, 0.0000000000000000000, 4.000000000000000000 ) ) ;
#322 = DIRECTION ( 'NONE',  ( 0.0000000000000000000, 0.0000000000000000000, 1.000000000000000000 ) ) ;
#323 = PRODUCT ( 'Micro_BEM-687-03', 'Micro_BEM-687-03', '', ( #187 ) ) ;
#324 = DIRECTION ( 'NONE',  ( -1.224646799147353207E-16, -0.0000000000000000000, -1.000000000000000000 ) ) ;
#325 =( GEOMETRIC_REPRESENTATION_CONTEXT ( 3 ) GLOBAL_UNCERTAINTY_ASSIGNED_CONTEXT ( ( #273 ) ) GLOBAL_UNIT_ASSIGNED_CONTEXT ( ( #236, #47, #139 ) ) REPRESENTATION_CONTEXT ( 'NONE', 'WORKASPACE' ) );
ENDSEC;
END-ISO-10303-21;
