ISO-10303-21;
HEADER;
FILE_DESCRIPTION (( 'STEP AP214' ),
    '1' );
FILE_NAME ('81462.STEP',
    '2023-06-30T22:28:16',
    ( '' ),
    ( '' ),
    'SwSTEP 2.0',
    'SolidWorks 2023',
    '' );
FILE_SCHEMA (( 'AUTOMOTIVE_DESIGN' ));
ENDSEC;

DATA;
#1 = LENGTH_MEASURE_WITH_UNIT ( LENGTH_MEASURE( 0.02539999999999999897 ), #37 );
#2 = DIRECTION ( 'NONE',  ( -0.000000000000000000, -1.000000000000000000, -0.000000000000000000 ) ) ;
#3 = CIRCLE ( 'NONE', #167, 0.1562499999999998335 ) ;
#4 =( LENGTH_UNIT ( ) NAMED_UNIT ( * ) SI_UNIT ( $, .METRE. ) );
#5 = ADVANCED_FACE ( 'NONE', ( #61 ), #165, .T. ) ;
#6 = DIRECTION ( 'NONE',  ( -1.224617468841839956E-16, 1.000000000000000000, 0.000000000000000000 ) ) ;
#7 = FILL_AREA_STYLE_COLOUR ( '', #144 ) ;
#8 = EDGE_LOOP ( 'NONE', ( #301, #105, #327, #205, #233 ) ) ;
#9 = ADVANCED_FACE ( 'NONE', ( #54 ), #215, .F. ) ;
#10 = CIRCLE ( 'NONE', #42, 0.1562500000000000000 ) ;
#11 = ORIENTED_EDGE ( 'NONE', *, *, #58, .T. ) ;
#12 = PRODUCT_DEFINITION_CONTEXT ( 'detailed design', #80, 'design' ) ;
#13 = ORIENTED_EDGE ( 'NONE', *, *, #18, .F. ) ;
#14 =( NAMED_UNIT ( * ) PLANE_ANGLE_UNIT ( ) SI_UNIT ( $, .RADIAN. ) );
#15 = ORIENTED_EDGE ( 'NONE', *, *, #26, .F. ) ;
#16 = FILL_AREA_STYLE ('',( #47 ) ) ;
#17 =( NAMED_UNIT ( * ) SI_UNIT ( $, .STERADIAN. ) SOLID_ANGLE_UNIT ( ) );
#18 = EDGE_CURVE ( 'NONE', #355, #148, #118, .T. ) ;
#19 = MECHANICAL_DESIGN_GEOMETRIC_PRESENTATION_REPRESENTATION (  '', ( #342 ), #306 ) ;
#20 =( NAMED_UNIT ( * ) PLANE_ANGLE_UNIT ( ) SI_UNIT ( $, .RADIAN. ) );
#21 = COLOUR_RGB ( '',0.7921568627450980005, 0.8196078431372548767, 0.9333333333333333481 ) ;
#22 =( CONVERSION_BASED_UNIT ( 'INCH', #303 ) LENGTH_UNIT ( ) NAMED_UNIT ( #107 ) );
#23 = DIMENSIONAL_EXPONENTS ( 1.000000000000000000, 0.000000000000000000, 0.000000000000000000, 0.000000000000000000, 0.000000000000000000, 0.000000000000000000, 0.000000000000000000 ) ;
#24 = DIRECTION ( 'NONE',  ( 0.000000000000000000, 0.000000000000000000, 1.000000000000000000 ) ) ;
#25 = DIRECTION ( 'NONE',  ( -1.224617468841839956E-16, 1.000000000000000000, -0.000000000000000000 ) ) ;
#26 = EDGE_CURVE ( 'NONE', #127, #359, #3, .T. ) ;
#27 = PRESENTATION_LAYER_ASSIGNMENT (  '', '', ( #349 ) ) ;
#28 = CARTESIAN_POINT ( 'NONE',  ( 1.224646799147353700E-16, 2.000000000000000000, 0.000000000000000000 ) ) ;
#29 = EDGE_CURVE ( 'NONE', #146, #220, #91, .T. ) ;
#30 = PLANE ( 'NONE',  #361 ) ;
#31 = COLOUR_RGB ( '',1.000000000000000000, 0.000000000000000000, 0.000000000000000000 ) ;
#32 = UNCERTAINTY_MEASURE_WITH_UNIT (LENGTH_MEASURE( 1.000000000000000082E-05 ), #243, 'distance_accuracy_value', 'NONE');
#33 = LINE ( 'NONE', #116, #62 ) ;
#34 = DIRECTION ( 'NONE',  ( 0.000000000000000000, 1.000000000000000000, 0.000000000000000000 ) ) ;
#35 = SPHERICAL_SURFACE ( 'NONE', #49, 0.1562500000000000000 ) ;
#36 = CARTESIAN_POINT ( 'NONE',  ( 0.1562500000000000000, 0.1562500000000000278, 0.000000000000000000 ) ) ;
#37 =( LENGTH_UNIT ( ) NAMED_UNIT ( * ) SI_UNIT ( $, .METRE. ) );
#38 = PLANE ( 'NONE',  #161 ) ;
#39 = ORIENTED_EDGE ( 'NONE', *, *, #64, .F. ) ;
#40 = ORIENTED_EDGE ( 'NONE', *, *, #26, .T. ) ;
#41 = PRESENTATION_STYLE_ASSIGNMENT (( #101 ) ) ;
#42 = AXIS2_PLACEMENT_3D ( 'NONE', #185, #162, #223 ) ;
#43 = ORIENTED_EDGE ( 'NONE', *, *, #89, .T. ) ;
#44 = CYLINDRICAL_SURFACE ( 'NONE', #207, 0.1562500000000000000 ) ;
#45 = ORIENTED_EDGE ( 'NONE', *, *, #133, .T. ) ;
#46 = CARTESIAN_POINT ( 'NONE',  ( 0.000000000000000000, 0.000000000000000000, 0.000000000000000000 ) ) ;
#47 = FILL_AREA_STYLE_COLOUR ( '', #21 ) ;
#48 = DIRECTION ( 'NONE',  ( -0.000000000000000000, -1.000000000000000000, -0.000000000000000000 ) ) ;
#49 = AXIS2_PLACEMENT_3D ( 'NONE', #200, #322, #172 ) ;
#50 =( LENGTH_UNIT ( ) NAMED_UNIT ( * ) SI_UNIT ( $, .METRE. ) );
#51 = AXIS2_PLACEMENT_3D ( 'NONE', #211, #24, #308 ) ;
#52 = DIMENSIONAL_EXPONENTS ( 1.000000000000000000, 0.000000000000000000, 0.000000000000000000, 0.000000000000000000, 0.000000000000000000, 0.000000000000000000, 0.000000000000000000 ) ;
#53 = CARTESIAN_POINT ( 'NONE',  ( -1.913510623667739463E-17, 0.1562500000000000000, 0.000000000000000000 ) ) ;
#54 = FACE_OUTER_BOUND ( 'NONE', #202, .T. ) ;
#55 = DIRECTION ( 'NONE',  ( 0.000000000000000000, 0.000000000000000000, -1.000000000000000000 ) ) ;
#56 = CIRCLE ( 'NONE', #371, 0.1562499999999996392 ) ;
#57 = DIRECTION ( 'NONE',  ( -1.224617468841839956E-16, 1.000000000000000000, -0.000000000000000000 ) ) ;
#58 = EDGE_CURVE ( 'NONE', #263, #235, #69, .T. ) ;
#59 = AXIS2_PLACEMENT_3D ( 'NONE', #302, #363, #275 ) ;
#60 = EDGE_CURVE ( 'NONE', #68, #263, #10, .T. ) ;
#61 = FACE_OUTER_BOUND ( 'NONE', #271, .T. ) ;
#62 = VECTOR ( 'NONE', #192, 39.37007874015748143 ) ;
#63 =( CONVERSION_BASED_UNIT ( 'INCH', #354 ) LENGTH_UNIT ( ) NAMED_UNIT ( #23 ) );
#64 = EDGE_CURVE ( 'NONE', #355, #235, #189, .T. ) ;
#65 = ORIENTED_EDGE ( 'NONE', *, *, #201, .T. ) ;
#66 = ORIENTED_EDGE ( 'NONE', *, *, #246, .T. ) ;
#67 =( CONVERSION_BASED_UNIT ( 'INCH', #270 ) LENGTH_UNIT ( ) NAMED_UNIT ( #78 ) );
#68 = VERTEX_POINT ( 'NONE', #216 ) ;
#69 = CIRCLE ( 'NONE', #266, 0.1562500000000000000 ) ;
#70 = ADVANCED_FACE ( 'NONE', ( #170 ), #30, .F. ) ;
#71 = DIRECTION ( 'NONE',  ( -1.000000000000000000, 0.000000000000000000, 0.000000000000000000 ) ) ;
#72 = UNCERTAINTY_MEASURE_WITH_UNIT (LENGTH_MEASURE( 1.000000000000000082E-05 ), #22, 'distance_accuracy_value', 'NONE');
#73 = DIRECTION ( 'NONE',  ( -1.000000000000000000, 0.000000000000000000, 0.000000000000000000 ) ) ;
#74 = PRESENTATION_STYLE_ASSIGNMENT (( #245 ) ) ;
#75 = DIRECTION ( 'NONE',  ( 0.000000000000000000, 0.000000000000000000, 1.000000000000000000 ) ) ;
#76 = PRODUCT_CONTEXT ( 'NONE', #259, 'mechanical' ) ;
#77 = CARTESIAN_POINT ( 'NONE',  ( 0.000000000000000000, 0.1562500000000000278, -0.1562500000000000000 ) ) ;
#78 = DIMENSIONAL_EXPONENTS ( 1.000000000000000000, 0.000000000000000000, 0.000000000000000000, 0.000000000000000000, 0.000000000000000000, 0.000000000000000000, 0.000000000000000000 ) ;
#79 = STYLED_ITEM ( 'NONE', ( #74 ), #214 ) ;
#80 = APPLICATION_CONTEXT ( 'automotive_design' ) ;
#81 = FILL_AREA_STYLE_COLOUR ( '', #248 ) ;
#82 =( CONVERSION_BASED_UNIT ( 'INCH', #365 ) LENGTH_UNIT ( ) NAMED_UNIT ( #312 ) );
#83 = ADVANCED_FACE ( 'NONE', ( #141 ), #140, .T. ) ;
#84 = DIRECTION ( 'NONE',  ( -1.224617468841839956E-16, 1.000000000000000000, -0.000000000000000000 ) ) ;
#85 = PRODUCT ( '81462', '81462', '', ( #76 ) ) ;
#86 = UNCERTAINTY_MEASURE_WITH_UNIT (LENGTH_MEASURE( 1.000000000000000082E-05 ), #67, 'distance_accuracy_value', 'NONE');
#87 = FILL_AREA_STYLE_COLOUR ( '', #218 ) ;
#88 = SURFACE_SIDE_STYLE ('',( #318 ) ) ;
#89 = EDGE_CURVE ( 'NONE', #146, #127, #169, .T. ) ;
#90 = SURFACE_STYLE_USAGE ( .BOTH. , #373 ) ;
#91 = CIRCLE ( 'NONE', #132, 0.1562499999999996392 ) ;
#92 = CARTESIAN_POINT ( 'NONE',  ( 1.224646799147353700E-16, 2.000000000000000000, 0.000000000000000000 ) ) ;
#93 = EDGE_CURVE ( 'NONE', #220, #146, #56, .T. ) ;
#94 = ORIENTED_EDGE ( 'NONE', *, *, #358, .F. ) ;
#95 =( LENGTH_UNIT ( ) NAMED_UNIT ( * ) SI_UNIT ( $, .METRE. ) );
#96 = FILL_AREA_STYLE_COLOUR ( '', #31 ) ;
#97 = EDGE_LOOP ( 'NONE', ( #130, #239, #230, #94, #39 ) ) ;
#98 =( CONVERSION_BASED_UNIT ( 'INCH', #269 ) LENGTH_UNIT ( ) NAMED_UNIT ( #52 ) );
#99 = CYLINDRICAL_SURFACE ( 'NONE', #356, 0.1562500000000000000 ) ;
#100 = UNCERTAINTY_MEASURE_WITH_UNIT (LENGTH_MEASURE( 1.000000000000000082E-05 ), #98, 'distance_accuracy_value', 'NONE');
#101 = SURFACE_STYLE_USAGE ( .BOTH. , #153 ) ;
#102 =( LENGTH_UNIT ( ) NAMED_UNIT ( * ) SI_UNIT ( $, .METRE. ) );
#103 = AXIS2_PLACEMENT_3D ( 'NONE', #307, #163, #138 ) ;
#104 = STYLED_ITEM ( 'NONE', ( #41 ), #329 ) ;
#105 = ORIENTED_EDGE ( 'NONE', *, *, #226, .T. ) ;
#106 = DIRECTION ( 'NONE',  ( 1.000000000000000000, 1.224617468841839956E-16, 0.000000000000000000 ) ) ;
#107 = DIMENSIONAL_EXPONENTS ( 1.000000000000000000, 0.000000000000000000, 0.000000000000000000, 0.000000000000000000, 0.000000000000000000, 0.000000000000000000, 0.000000000000000000 ) ;
#108 = MECHANICAL_DESIGN_GEOMETRIC_PRESENTATION_REPRESENTATION (  '', ( #104 ), #113 ) ;
#109 = DIRECTION ( 'NONE',  ( 1.000000000000000000, 0.000000000000000000, 0.000000000000000000 ) ) ;
#110 = CARTESIAN_POINT ( 'NONE',  ( -1.913510623667739463E-17, 0.1562500000000000000, 0.000000000000000000 ) ) ;
#111 = DIRECTION ( 'NONE',  ( -1.000000000000000000, 0.000000000000000000, 0.000000000000000000 ) ) ;
#112 = PRESENTATION_LAYER_ASSIGNMENT (  '', '', ( #276 ) ) ;
#113 =( GEOMETRIC_REPRESENTATION_CONTEXT ( 3 ) GLOBAL_UNCERTAINTY_ASSIGNED_CONTEXT ( ( #100 ) ) GLOBAL_UNIT_ASSIGNED_CONTEXT ( ( #98, #149, #240 ) ) REPRESENTATION_CONTEXT ( 'NONE', 'WORKASPACE' ) );
#114 = DIRECTION ( 'NONE',  ( -1.224617468841839956E-16, 1.000000000000000000, -0.000000000000000000 ) ) ;
#115 = DIRECTION ( 'NONE',  ( 0.000000000000000000, -0.000000000000000000, 1.000000000000000000 ) ) ;
#116 = CARTESIAN_POINT ( 'NONE',  ( -0.1562499999999995837, 2.000000000000000000, 0.000000000000000000 ) ) ;
#117 = CYLINDRICAL_SURFACE ( 'NONE', #120, 0.1562499999999997224 ) ;
#118 = CIRCLE ( 'NONE', #330, 0.1562499999999999722 ) ;
#119 = PRESENTATION_LAYER_ASSIGNMENT (  '', '', ( #342 ) ) ;
#120 = AXIS2_PLACEMENT_3D ( 'NONE', #156, #337, #71 ) ;
#121 = FILL_AREA_STYLE_COLOUR ( '', #299 ) ;
#122 = PRESENTATION_STYLE_ASSIGNMENT (( #291 ) ) ;
#123 =( NAMED_UNIT ( * ) PLANE_ANGLE_UNIT ( ) SI_UNIT ( $, .RADIAN. ) );
#124 = SURFACE_STYLE_FILL_AREA ( #16 ) ;
#125 = AXIS2_PLACEMENT_3D ( 'NONE', #210, #335, #184 ) ;
#126 = SURFACE_SIDE_STYLE ('',( #360 ) ) ;
#127 = VERTEX_POINT ( 'NONE', #195 ) ;
#128 = FILL_AREA_STYLE ('',( #121 ) ) ;
#129 = ORIENTED_EDGE ( 'NONE', *, *, #358, .T. ) ;
#130 = ORIENTED_EDGE ( 'NONE', *, *, #18, .T. ) ;
#131 =( CONVERSION_BASED_UNIT ( 'INCH', #333 ) LENGTH_UNIT ( ) NAMED_UNIT ( #166 ) );
#132 = AXIS2_PLACEMENT_3D ( 'NONE', #334, #25, #73 ) ;
#133 = EDGE_CURVE ( 'NONE', #220, #359, #33, .T. ) ;
#134 = DIRECTION ( 'NONE',  ( 0.000000000000000000, 0.000000000000000000, -1.000000000000000000 ) ) ;
#135 = CARTESIAN_POINT ( 'NONE',  ( 0.000000000000000000, 0.1562500000000000278, 0.000000000000000000 ) ) ;
#136 = MECHANICAL_DESIGN_GEOMETRIC_PRESENTATION_REPRESENTATION (  '', ( #305 ), #212 ) ;
#137 = MECHANICAL_DESIGN_GEOMETRIC_PRESENTATION_REPRESENTATION (  '', ( #188 ), #213 ) ;
#138 = DIRECTION ( 'NONE',  ( -1.000000000000000000, 0.000000000000000000, 0.000000000000000000 ) ) ;
#139 = DIRECTION ( 'NONE',  ( -1.224617468841839956E-16, 1.000000000000000000, -0.000000000000000000 ) ) ;
#140 = CYLINDRICAL_SURFACE ( 'NONE', #332, 0.1562499999999997224 ) ;
#141 = FACE_OUTER_BOUND ( 'NONE', #295, .T. ) ;
#142 = CARTESIAN_POINT ( 'NONE',  ( 0.1562499999999999445, 0.4374999999999998890, 1.913510623667736382E-17 ) ) ;
#143 = UNCERTAINTY_MEASURE_WITH_UNIT (LENGTH_MEASURE( 1.000000000000000082E-05 ), #63, 'distance_accuracy_value', 'NONE');
#144 = COLOUR_RGB ( '',1.000000000000000000, 0.000000000000000000, 0.000000000000000000 ) ;
#145 =( CONVERSION_BASED_UNIT ( 'INCH', #1 ) LENGTH_UNIT ( ) NAMED_UNIT ( #187 ) );
#146 = VERTEX_POINT ( 'NONE', #142 ) ;
#147 = SURFACE_SIDE_STYLE ('',( #352 ) ) ;
#148 = VERTEX_POINT ( 'NONE', #316 ) ;
#149 =( NAMED_UNIT ( * ) PLANE_ANGLE_UNIT ( ) SI_UNIT ( $, .RADIAN. ) );
#150 = CLOSED_SHELL ( 'NONE', ( #5, #214, #278, #196, #190 ) ) ;
#151 = CARTESIAN_POINT ( 'NONE',  ( -0.1562499999999993339, 0.4374999999999998890, 0.000000000000000000 ) ) ;
#152 = ORIENTED_EDGE ( 'NONE', *, *, #60, .T. ) ;
#153 = SURFACE_SIDE_STYLE ('',( #124 ) ) ;
#154 = SURFACE_SIDE_STYLE ('',( #364 ) ) ;
#155 = ORIENTED_EDGE ( 'NONE', *, *, #93, .F. ) ;
#156 = CARTESIAN_POINT ( 'NONE',  ( 1.224646799147353700E-16, 2.000000000000000000, 0.000000000000000000 ) ) ;
#157 = DIRECTION ( 'NONE',  ( -0.000000000000000000, -1.000000000000000000, -0.000000000000000000 ) ) ;
#158 = EDGE_CURVE ( 'NONE', #359, #127, #228, .T. ) ;
#159 =( NAMED_UNIT ( * ) SI_UNIT ( $, .STERADIAN. ) SOLID_ANGLE_UNIT ( ) );
#160 = VECTOR ( 'NONE', #2, 39.37007874015748143 ) ;
#161 = AXIS2_PLACEMENT_3D ( 'NONE', #231, #34, #115 ) ;
#162 = DIRECTION ( 'NONE',  ( -0.000000000000000000, -1.000000000000000000, -0.000000000000000000 ) ) ;
#163 = DIRECTION ( 'NONE',  ( 0.000000000000000000, 0.000000000000000000, -1.000000000000000000 ) ) ;
#164 = DIRECTION ( 'NONE',  ( -0.000000000000000000, -1.000000000000000000, -0.000000000000000000 ) ) ;
#165 = SPHERICAL_SURFACE ( 'NONE', #297, 0.1562500000000000000 ) ;
#166 = DIMENSIONAL_EXPONENTS ( 1.000000000000000000, 0.000000000000000000, 0.000000000000000000, 0.000000000000000000, 0.000000000000000000, 0.000000000000000000, 0.000000000000000000 ) ;
#167 = AXIS2_PLACEMENT_3D ( 'NONE', #28, #139, #280 ) ;
#168 = FILL_AREA_STYLE ('',( #81 ) ) ;
#169 = LINE ( 'NONE', #283, #174 ) ;
#170 = FACE_OUTER_BOUND ( 'NONE', #284, .T. ) ;
#171 = CIRCLE ( 'NONE', #103, 0.1562500000000000000 ) ;
#172 = DIRECTION ( 'NONE',  ( 1.000000000000000000, 0.000000000000000000, 0.000000000000000000 ) ) ;
#173 = ORIENTED_EDGE ( 'NONE', *, *, #133, .F. ) ;
#174 = VECTOR ( 'NONE', #114, 39.37007874015748143 ) ;
#175 = SURFACE_STYLE_USAGE ( .BOTH. , #88 ) ;
#176 = FILL_AREA_STYLE_COLOUR ( '', #254 ) ;
#177 = VERTEX_POINT ( 'NONE', #258 ) ;
#178 =( NAMED_UNIT ( * ) PLANE_ANGLE_UNIT ( ) SI_UNIT ( $, .RADIAN. ) );
#179 = VERTEX_POINT ( 'NONE', #36 ) ;
#180 = AXIS2_PLACEMENT_3D ( 'NONE', #341, #251, #106 ) ;
#181 = DIRECTION ( 'NONE',  ( -0.000000000000000000, -1.000000000000000000, -0.000000000000000000 ) ) ;
#182 = ORIENTED_EDGE ( 'NONE', *, *, #158, .F. ) ;
#183 = CARTESIAN_POINT ( 'NONE',  ( -0.1562499999999996947, 2.000000000000000000, 0.000000000000000000 ) ) ;
#184 = DIRECTION ( 'NONE',  ( 0.000000000000000000, 0.000000000000000000, -1.000000000000000000 ) ) ;
#185 = CARTESIAN_POINT ( 'NONE',  ( 0.000000000000000000, 0.1562500000000000278, 0.000000000000000000 ) ) ;
#186 = AXIS2_PLACEMENT_3D ( 'NONE', #277, #48, #242 ) ;
#187 = DIMENSIONAL_EXPONENTS ( 1.000000000000000000, 0.000000000000000000, 0.000000000000000000, 0.000000000000000000, 0.000000000000000000, 0.000000000000000000, 0.000000000000000000 ) ;
#188 = STYLED_ITEM ( 'NONE', ( #122 ), #194 ) ;
#189 = LINE ( 'NONE', #372, #160 ) ;
#190 = ADVANCED_FACE ( 'NONE', ( #370 ), #35, .T. ) ;
#191 = FILL_AREA_STYLE ('',( #87 ) ) ;
#192 = DIRECTION ( 'NONE',  ( -1.224617468841839956E-16, 1.000000000000000000, -0.000000000000000000 ) ) ;
#193 = AXIS2_PLACEMENT_3D ( 'NONE', #110, #197, #262 ) ;
#194 = MANIFOLD_SOLID_BREP ( 'Revolve - Tool Body (Straight Shanked)', #274 ) ;
#195 = CARTESIAN_POINT ( 'NONE',  ( 0.1562499999999999722, 2.000000000000000000, 1.913510623667736382E-17 ) ) ;
#196 = ADVANCED_FACE ( 'NONE', ( #300 ), #99, .T. ) ;
#197 = DIRECTION ( 'NONE',  ( 1.224646799147353207E-16, -0.000000000000000000, 1.000000000000000000 ) ) ;
#198 = FILL_AREA_STYLE ('',( #7 ) ) ;
#199 = VECTOR ( 'NONE', #319, 39.37007874015748143 ) ;
#200 = CARTESIAN_POINT ( 'NONE',  ( -1.913510623667739463E-17, 0.1562500000000000000, 0.000000000000000000 ) ) ;
#201 = EDGE_CURVE ( 'NONE', #179, #68, #315, .T. ) ;
#202 = EDGE_LOOP ( 'NONE', ( #331, #40 ) ) ;
#203 =( LENGTH_UNIT ( ) NAMED_UNIT ( * ) SI_UNIT ( $, .METRE. ) );
#204 = FILL_AREA_STYLE ('',( #96 ) ) ;
#205 = ORIENTED_EDGE ( 'NONE', *, *, #58, .F. ) ;
#206 = PRESENTATION_STYLE_ASSIGNMENT (( #267 ) ) ;
#207 = AXIS2_PLACEMENT_3D ( 'NONE', #46, #157, #134 ) ;
#208 = EDGE_LOOP ( 'NONE', ( #13, #241 ) ) ;
#209 = CARTESIAN_POINT ( 'NONE',  ( 0.000000000000000000, 0.4374999999999998890, -0.1562499999999999722 ) ) ;
#210 = CARTESIAN_POINT ( 'NONE',  ( 0.000000000000000000, 0.4374999999999998890, 0.000000000000000000 ) ) ;
#211 = CARTESIAN_POINT ( 'NONE',  ( 0.000000000000000000, 0.000000000000000000, 0.000000000000000000 ) ) ;
#212 =( GEOMETRIC_REPRESENTATION_CONTEXT ( 3 ) GLOBAL_UNCERTAINTY_ASSIGNED_CONTEXT ( ( #256 ) ) GLOBAL_UNIT_ASSIGNED_CONTEXT ( ( #82, #20, #366 ) ) REPRESENTATION_CONTEXT ( 'NONE', 'WORKASPACE' ) );
#213 =( GEOMETRIC_REPRESENTATION_CONTEXT ( 3 ) GLOBAL_UNCERTAINTY_ASSIGNED_CONTEXT ( ( #143 ) ) GLOBAL_UNIT_ASSIGNED_CONTEXT ( ( #63, #222, #225 ) ) REPRESENTATION_CONTEXT ( 'NONE', 'WORKASPACE' ) );
#214 = ADVANCED_FACE ( 'NONE', ( #272 ), #44, .T. ) ;
#215 = PLANE ( 'NONE',  #180 ) ;
#216 = CARTESIAN_POINT ( 'NONE',  ( 1.913510623667739463E-17, 0.1562500000000000278, 0.1562500000000000000 ) ) ;
#217 = APPLICATION_PROTOCOL_DEFINITION ( 'draft international standard', 'automotive_design', 1998, #80 ) ;
#218 = COLOUR_RGB ( '',1.000000000000000000, 0.000000000000000000, 0.000000000000000000 ) ;
#219 = CARTESIAN_POINT ( 'NONE',  ( 3.138111594212728585E-16, 0.4374999999999998890, 0.000000000000000000 ) ) ;
#220 = VERTEX_POINT ( 'NONE', #151 ) ;
#221 = LINE ( 'NONE', #353, #199 ) ;
#222 =( NAMED_UNIT ( * ) PLANE_ANGLE_UNIT ( ) SI_UNIT ( $, .RADIAN. ) );
#223 = DIRECTION ( 'NONE',  ( 0.000000000000000000, 0.000000000000000000, -1.000000000000000000 ) ) ;
#224 = UNCERTAINTY_MEASURE_WITH_UNIT (LENGTH_MEASURE( 1.000000000000000082E-05 ), #131, 'distance_accuracy_value', 'NONE');
#225 =( NAMED_UNIT ( * ) SI_UNIT ( $, .STERADIAN. ) SOLID_ANGLE_UNIT ( ) );
#226 = EDGE_CURVE ( 'NONE', #148, #355, #367, .T. ) ;
#227 = PRESENTATION_STYLE_ASSIGNMENT (( #90 ) ) ;
#228 = CIRCLE ( 'NONE', #320, 0.1562499999999998335 ) ;
#229 = FILL_AREA_STYLE ('',( #176 ) ) ;
#230 = ORIENTED_EDGE ( 'NONE', *, *, #201, .F. ) ;
#231 = CARTESIAN_POINT ( 'NONE',  ( 0.000000000000000000, 0.4374999999999998890, 0.000000000000000000 ) ) ;
#232 =( NAMED_UNIT ( * ) SI_UNIT ( $, .STERADIAN. ) SOLID_ANGLE_UNIT ( ) );
#233 = ORIENTED_EDGE ( 'NONE', *, *, #60, .F. ) ;
#234 = FACE_OUTER_BOUND ( 'NONE', #296, .T. ) ;
#235 = VERTEX_POINT ( 'NONE', #77 ) ;
#236 = MECHANICAL_DESIGN_GEOMETRIC_PRESENTATION_REPRESENTATION (  '', ( #79 ), #285 ) ;
#237 = MECHANICAL_DESIGN_GEOMETRIC_PRESENTATION_REPRESENTATION (  '', ( #349 ), #261 ) ;
#238 =( NAMED_UNIT ( * ) PLANE_ANGLE_UNIT ( ) SI_UNIT ( $, .RADIAN. ) );
#239 = ORIENTED_EDGE ( 'NONE', *, *, #288, .T. ) ;
#240 =( NAMED_UNIT ( * ) SI_UNIT ( $, .STERADIAN. ) SOLID_ANGLE_UNIT ( ) );
#241 = ORIENTED_EDGE ( 'NONE', *, *, #226, .F. ) ;
#242 = DIRECTION ( 'NONE',  ( 0.000000000000000000, 0.000000000000000000, -1.000000000000000000 ) ) ;
#243 =( CONVERSION_BASED_UNIT ( 'INCH', #351 ) LENGTH_UNIT ( ) NAMED_UNIT ( #343 ) );
#244 =( NAMED_UNIT ( * ) SI_UNIT ( $, .STERADIAN. ) SOLID_ANGLE_UNIT ( ) );
#245 = SURFACE_STYLE_USAGE ( .BOTH. , #154 ) ;
#246 = EDGE_CURVE ( 'NONE', #179, #177, #171, .T. ) ;
#247 = DIRECTION ( 'NONE',  ( 0.000000000000000000, 0.000000000000000000, -1.000000000000000000 ) ) ;
#248 = COLOUR_RGB ( '',1.000000000000000000, 0.000000000000000000, 0.000000000000000000 ) ;
#249 = CIRCLE ( 'NONE', #193, 0.1562500000000000000 ) ;
#250 = SURFACE_STYLE_FILL_AREA ( #168 ) ;
#251 = DIRECTION ( 'NONE',  ( 1.224617468841839956E-16, -1.000000000000000000, 0.000000000000000000 ) ) ;
#252 = EDGE_CURVE ( 'NONE', #263, #177, #249, .T. ) ;
#253 = DIRECTION ( 'NONE',  ( -1.000000000000000000, 0.000000000000000000, 0.000000000000000000 ) ) ;
#254 = COLOUR_RGB ( '',0.7921568627450980005, 0.8196078431372548767, 0.9333333333333333481 ) ;
#255 = PRODUCT_DEFINITION_FORMATION_WITH_SPECIFIED_SOURCE ( 'ANY', '', #85, .NOT_KNOWN. ) ;
#256 = UNCERTAINTY_MEASURE_WITH_UNIT (LENGTH_MEASURE( 1.000000000000000082E-05 ), #82, 'distance_accuracy_value', 'NONE');
#257 =( LENGTH_UNIT ( ) NAMED_UNIT ( * ) SI_UNIT ( $, .METRE. ) );
#258 = CARTESIAN_POINT ( 'NONE',  ( -9.567553118338697316E-18, 0.000000000000000000, 0.000000000000000000 ) ) ;
#259 = APPLICATION_CONTEXT ( 'automotive_design' ) ;
#260 = PRESENTATION_LAYER_ASSIGNMENT (  '', '', ( #188 ) ) ;
#261 =( GEOMETRIC_REPRESENTATION_CONTEXT ( 3 ) GLOBAL_UNCERTAINTY_ASSIGNED_CONTEXT ( ( #326 ) ) GLOBAL_UNIT_ASSIGNED_CONTEXT ( ( #145, #123, #294 ) ) REPRESENTATION_CONTEXT ( 'NONE', 'WORKASPACE' ) );
#262 = DIRECTION ( 'NONE',  ( 1.000000000000000000, 0.000000000000000000, -1.224646799147353207E-16 ) ) ;
#263 = VERTEX_POINT ( 'NONE', #290 ) ;
#264 = PRODUCT_DEFINITION_SHAPE ( 'NONE', 'NONE',  #325 ) ;
#265 = ORIENTED_EDGE ( 'NONE', *, *, #252, .T. ) ;
#266 = AXIS2_PLACEMENT_3D ( 'NONE', #135, #304, #247 ) ;
#267 = SURFACE_STYLE_USAGE ( .BOTH. , #126 ) ;
#268 = ORIENTED_EDGE ( 'NONE', *, *, #252, .F. ) ;
#269 = LENGTH_MEASURE_WITH_UNIT ( LENGTH_MEASURE( 0.02539999999999999897 ), #203 );
#270 = LENGTH_MEASURE_WITH_UNIT ( LENGTH_MEASURE( 0.02539999999999999897 ), #324 );
#271 = EDGE_LOOP ( 'NONE', ( #152, #265, #362, #65 ) ) ;
#272 = FACE_OUTER_BOUND ( 'NONE', #97, .T. ) ;
#273 = PRESENTATION_STYLE_ASSIGNMENT (( #338 ) ) ;
#274 = CLOSED_SHELL ( 'NONE', ( #83, #70, #309, #9 ) ) ;
#275 = DIRECTION ( 'NONE',  ( 0.000000000000000000, 0.000000000000000000, -1.000000000000000000 ) ) ;
#276 = STYLED_ITEM ( 'NONE', ( #227 ), #190 ) ;
#277 = CARTESIAN_POINT ( 'NONE',  ( 0.000000000000000000, 0.1562500000000000278, 0.000000000000000000 ) ) ;
#278 = ADVANCED_FACE ( 'NONE', ( #346 ), #38, .T. ) ;
#279 = DIRECTION ( 'NONE',  ( 0.000000000000000000, 0.000000000000000000, -1.000000000000000000 ) ) ;
#280 = DIRECTION ( 'NONE',  ( -1.000000000000000000, 0.000000000000000000, 0.000000000000000000 ) ) ;
#281 = APPLICATION_PROTOCOL_DEFINITION ( 'draft international standard', 'automotive_design', 1998, #259 ) ;
#282 = MECHANICAL_DESIGN_GEOMETRIC_PRESENTATION_REPRESENTATION (  '', ( #276 ), #340 ) ;
#283 = CARTESIAN_POINT ( 'NONE',  ( 0.1562499999999998612, 2.000000000000000000, 1.913510623667736074E-17 ) ) ;
#284 = EDGE_LOOP ( 'NONE', ( #155, #323 ) ) ;
#285 =( GEOMETRIC_REPRESENTATION_CONTEXT ( 3 ) GLOBAL_UNCERTAINTY_ASSIGNED_CONTEXT ( ( #86 ) ) GLOBAL_UNIT_ASSIGNED_CONTEXT ( ( #67, #14, #17 ) ) REPRESENTATION_CONTEXT ( 'NONE', 'WORKASPACE' ) );
#286 = CIRCLE ( 'NONE', #59, 0.1562500000000000000 ) ;
#287 = CARTESIAN_POINT ( 'NONE',  ( 3.138111594212728585E-16, 0.4374999999999998890, 0.000000000000000000 ) ) ;
#288 = EDGE_CURVE ( 'NONE', #148, #68, #221, .T. ) ;
#289 = ORIENTED_EDGE ( 'NONE', *, *, #93, .T. ) ;
#290 = CARTESIAN_POINT ( 'NONE',  ( -0.1562500000000000000, 0.1562500000000000278, 1.913510623667738847E-17 ) ) ;
#291 = SURFACE_STYLE_USAGE ( .BOTH. , #147 ) ;
#292 = DIRECTION ( 'NONE',  ( -1.000000000000000000, 0.000000000000000000, 0.000000000000000000 ) ) ;
#293 = EDGE_LOOP ( 'NONE', ( #268, #11, #129, #66 ) ) ;
#294 =( NAMED_UNIT ( * ) SI_UNIT ( $, .STERADIAN. ) SOLID_ANGLE_UNIT ( ) );
#295 = EDGE_LOOP ( 'NONE', ( #289, #43, #182, #173 ) ) ;
#296 = EDGE_LOOP ( 'NONE', ( #298, #357, #45, #15 ) ) ;
#297 = AXIS2_PLACEMENT_3D ( 'NONE', #53, #75, #109 ) ;
#298 = ORIENTED_EDGE ( 'NONE', *, *, #89, .F. ) ;
#299 = COLOUR_RGB ( '',1.000000000000000000, 0.000000000000000000, 0.000000000000000000 ) ;
#300 = FACE_OUTER_BOUND ( 'NONE', #8, .T. ) ;
#301 = ORIENTED_EDGE ( 'NONE', *, *, #288, .F. ) ;
#302 = CARTESIAN_POINT ( 'NONE',  ( 0.000000000000000000, 0.1562500000000000278, 0.000000000000000000 ) ) ;
#303 = LENGTH_MEASURE_WITH_UNIT ( LENGTH_MEASURE( 0.02539999999999999897 ), #95 );
#304 = DIRECTION ( 'NONE',  ( -0.000000000000000000, -1.000000000000000000, -0.000000000000000000 ) ) ;
#305 = STYLED_ITEM ( 'NONE', ( #273 ), #5 ) ;
#306 =( GEOMETRIC_REPRESENTATION_CONTEXT ( 3 ) GLOBAL_UNCERTAINTY_ASSIGNED_CONTEXT ( ( #224 ) ) GLOBAL_UNIT_ASSIGNED_CONTEXT ( ( #131, #238, #159 ) ) REPRESENTATION_CONTEXT ( 'NONE', 'WORKASPACE' ) );
#307 = CARTESIAN_POINT ( 'NONE',  ( -1.913510623667739463E-17, 0.1562500000000000000, 0.000000000000000000 ) ) ;
#308 = DIRECTION ( 'NONE',  ( 1.000000000000000000, 0.000000000000000000, 0.000000000000000000 ) ) ;
#309 = ADVANCED_FACE ( 'NONE', ( #234 ), #117, .T. ) ;
#310 = PRESENTATION_LAYER_ASSIGNMENT (  '', '', ( #79 ) ) ;
#311 = DIRECTION ( 'NONE',  ( -1.000000000000000000, -1.224617468841839956E-16, 0.000000000000000000 ) ) ;
#312 = DIMENSIONAL_EXPONENTS ( 1.000000000000000000, 0.000000000000000000, 0.000000000000000000, 0.000000000000000000, 0.000000000000000000, 0.000000000000000000, 0.000000000000000000 ) ;
#313 = SHAPE_DEFINITION_REPRESENTATION ( #264, #344 ) ;
#314 =( NAMED_UNIT ( * ) PLANE_ANGLE_UNIT ( ) SI_UNIT ( $, .RADIAN. ) );
#315 = CIRCLE ( 'NONE', #186, 0.1562500000000000000 ) ;
#316 = CARTESIAN_POINT ( 'NONE',  ( 1.913510623667738847E-17, 0.4374999999999998890, 0.1562499999999999722 ) ) ;
#317 = SURFACE_STYLE_FILL_AREA ( #191 ) ;
#318 = SURFACE_STYLE_FILL_AREA ( #198 ) ;
#319 = DIRECTION ( 'NONE',  ( -0.000000000000000000, -1.000000000000000000, -0.000000000000000000 ) ) ;
#320 = AXIS2_PLACEMENT_3D ( 'NONE', #92, #84, #292 ) ;
#321 =( GEOMETRIC_REPRESENTATION_CONTEXT ( 3 ) GLOBAL_UNCERTAINTY_ASSIGNED_CONTEXT ( ( #72 ) ) GLOBAL_UNIT_ASSIGNED_CONTEXT ( ( #22, #178, #244 ) ) REPRESENTATION_CONTEXT ( 'NONE', 'WORKASPACE' ) );
#322 = DIRECTION ( 'NONE',  ( 0.000000000000000000, 0.000000000000000000, 1.000000000000000000 ) ) ;
#323 = ORIENTED_EDGE ( 'NONE', *, *, #29, .F. ) ;
#324 =( LENGTH_UNIT ( ) NAMED_UNIT ( * ) SI_UNIT ( $, .METRE. ) );
#325 = PRODUCT_DEFINITION ( 'UNKNOWN', '', #255, #12 ) ;
#326 = UNCERTAINTY_MEASURE_WITH_UNIT (LENGTH_MEASURE( 1.000000000000000082E-05 ), #145, 'distance_accuracy_value', 'NONE');
#327 = ORIENTED_EDGE ( 'NONE', *, *, #64, .T. ) ;
#328 = CARTESIAN_POINT ( 'NONE',  ( 0.000000000000000000, 0.000000000000000000, 0.000000000000000000 ) ) ;
#329 = MANIFOLD_SOLID_BREP ( 'Revolve - Cutting Edge', #150 ) ;
#330 = AXIS2_PLACEMENT_3D ( 'NONE', #336, #164, #55 ) ;
#331 = ORIENTED_EDGE ( 'NONE', *, *, #158, .T. ) ;
#332 = AXIS2_PLACEMENT_3D ( 'NONE', #347, #57, #111 ) ;
#333 = LENGTH_MEASURE_WITH_UNIT ( LENGTH_MEASURE( 0.02539999999999999897 ), #102 );
#334 = CARTESIAN_POINT ( 'NONE',  ( 3.138111594212728585E-16, 0.4374999999999998890, 0.000000000000000000 ) ) ;
#335 = DIRECTION ( 'NONE',  ( -0.000000000000000000, -1.000000000000000000, -0.000000000000000000 ) ) ;
#336 = CARTESIAN_POINT ( 'NONE',  ( 0.000000000000000000, 0.4374999999999998890, 0.000000000000000000 ) ) ;
#337 = DIRECTION ( 'NONE',  ( -1.224617468841839956E-16, 1.000000000000000000, -0.000000000000000000 ) ) ;
#338 = SURFACE_STYLE_USAGE ( .BOTH. , #369 ) ;
#339 = PRESENTATION_LAYER_ASSIGNMENT (  '', '', ( #305 ) ) ;
#340 =( GEOMETRIC_REPRESENTATION_CONTEXT ( 3 ) GLOBAL_UNCERTAINTY_ASSIGNED_CONTEXT ( ( #32 ) ) GLOBAL_UNIT_ASSIGNED_CONTEXT ( ( #243, #314, #232 ) ) REPRESENTATION_CONTEXT ( 'NONE', 'WORKASPACE' ) );
#341 = CARTESIAN_POINT ( 'NONE',  ( 0.1562499999999999722, 2.000000000000000000, 0.000000000000000000 ) ) ;
#342 = STYLED_ITEM ( 'NONE', ( #206 ), #196 ) ;
#343 = DIMENSIONAL_EXPONENTS ( 1.000000000000000000, 0.000000000000000000, 0.000000000000000000, 0.000000000000000000, 0.000000000000000000, 0.000000000000000000, 0.000000000000000000 ) ;
#344 = ADVANCED_BREP_SHAPE_REPRESENTATION ( '81462', ( #329, #194, #51 ), #321 ) ;
#345 = DIRECTION ( 'NONE',  ( -1.224617468841839956E-16, 1.000000000000000000, -0.000000000000000000 ) ) ;
#346 = FACE_OUTER_BOUND ( 'NONE', #208, .T. ) ;
#347 = CARTESIAN_POINT ( 'NONE',  ( 1.224646799147353700E-16, 2.000000000000000000, 0.000000000000000000 ) ) ;
#348 = PRESENTATION_STYLE_ASSIGNMENT (( #175 ) ) ;
#349 = STYLED_ITEM ( 'NONE', ( #348 ), #278 ) ;
#350 = PRESENTATION_LAYER_ASSIGNMENT (  '', '', ( #104 ) ) ;
#351 = LENGTH_MEASURE_WITH_UNIT ( LENGTH_MEASURE( 0.02539999999999999897 ), #257 );
#352 = SURFACE_STYLE_FILL_AREA ( #229 ) ;
#353 = CARTESIAN_POINT ( 'NONE',  ( 1.913510623667739463E-17, 0.000000000000000000, 0.1562500000000000000 ) ) ;
#354 = LENGTH_MEASURE_WITH_UNIT ( LENGTH_MEASURE( 0.02539999999999999897 ), #4 );
#355 = VERTEX_POINT ( 'NONE', #209 ) ;
#356 = AXIS2_PLACEMENT_3D ( 'NONE', #328, #181, #279 ) ;
#357 = ORIENTED_EDGE ( 'NONE', *, *, #29, .T. ) ;
#358 = EDGE_CURVE ( 'NONE', #235, #179, #286, .T. ) ;
#359 = VERTEX_POINT ( 'NONE', #183 ) ;
#360 = SURFACE_STYLE_FILL_AREA ( #128 ) ;
#361 = AXIS2_PLACEMENT_3D ( 'NONE', #219, #6, #311 ) ;
#362 = ORIENTED_EDGE ( 'NONE', *, *, #246, .F. ) ;
#363 = DIRECTION ( 'NONE',  ( -0.000000000000000000, -1.000000000000000000, -0.000000000000000000 ) ) ;
#364 = SURFACE_STYLE_FILL_AREA ( #204 ) ;
#365 = LENGTH_MEASURE_WITH_UNIT ( LENGTH_MEASURE( 0.02539999999999999897 ), #50 );
#366 =( NAMED_UNIT ( * ) SI_UNIT ( $, .STERADIAN. ) SOLID_ANGLE_UNIT ( ) );
#367 = CIRCLE ( 'NONE', #125, 0.1562499999999999722 ) ;
#368 = PRODUCT_RELATED_PRODUCT_CATEGORY ( 'part', '', ( #85 ) ) ;
#369 = SURFACE_SIDE_STYLE ('',( #250 ) ) ;
#370 = FACE_OUTER_BOUND ( 'NONE', #293, .T. ) ;
#371 = AXIS2_PLACEMENT_3D ( 'NONE', #287, #345, #253 ) ;
#372 = CARTESIAN_POINT ( 'NONE',  ( 0.000000000000000000, 0.000000000000000000, -0.1562500000000000000 ) ) ;
#373 = SURFACE_SIDE_STYLE ('',( #317 ) ) ;
ENDSEC;
END-ISO-10303-21;
