ISO-10303-21;
HEADER;
FILE_DESCRIPTION (( 'STEP AP214' ),
    '1' );
FILE_NAME ('03750.STEP',
    '2023-06-22T15:42:23',
    ( '' ),
    ( '' ),
    'SwSTEP 2.0',
    'SolidWorks 2023',
    '' );
FILE_SCHEMA (( 'AUTOMOTIVE_DESIGN' ));
ENDSEC;

DATA;
#1 =( CONVERSION_BASED_UNIT ( 'INCH', #222 ) LENGTH_UNIT ( ) NAMED_UNIT ( #37 ) );
#2 =( GEOMETRIC_REPRESENTATION_CONTEXT ( 3 ) GLOBAL_UNCERTAINTY_ASSIGNED_CONTEXT ( ( #235 ) ) GLOBAL_UNIT_ASSIGNED_CONTEXT ( ( #5, #122, #282 ) ) REPRESENTATION_CONTEXT ( 'NONE', 'WORKASPACE' ) );
#3 = PRESENTATION_STYLE_ASSIGNMENT (( #304 ) ) ;
#4 = ADVANCED_FACE ( 'NONE', ( #172 ), #233, .F. ) ;
#5 =( CONVERSION_BASED_UNIT ( 'INCH', #22 ) LENGTH_UNIT ( ) NAMED_UNIT ( #81 ) );
#6 = FILL_AREA_STYLE_COLOUR ( '', #228 ) ;
#7 = FILL_AREA_STYLE_COLOUR ( '', #100 ) ;
#8 = DIRECTION ( 'NONE',  ( -1.000000000000000000, 0.000000000000000000, 0.000000000000000000 ) ) ;
#9 = CIRCLE ( 'NONE', #106, 0.5000000000000000000 ) ;
#10 = APPLICATION_PROTOCOL_DEFINITION ( 'draft international standard', 'automotive_design', 1998, #47 ) ;
#11 = AXIS2_PLACEMENT_3D ( 'NONE', #298, #70, #275 ) ;
#12 = CARTESIAN_POINT ( 'NONE',  ( 0.000000000000000000, 0.000000000000000000, -0.5000000000000000000 ) ) ;
#13 = EDGE_CURVE ( 'NONE', #193, #162, #9, .T. ) ;
#14 = LENGTH_MEASURE_WITH_UNIT ( LENGTH_MEASURE( 0.02539999999999999897 ), #113 );
#15 = SURFACE_STYLE_USAGE ( .BOTH. , #88 ) ;
#16 = SURFACE_STYLE_USAGE ( .BOTH. , #46 ) ;
#17 = PRODUCT_RELATED_PRODUCT_CATEGORY ( 'part', '', ( #35 ) ) ;
#18 =( CONVERSION_BASED_UNIT ( 'INCH', #185 ) LENGTH_UNIT ( ) NAMED_UNIT ( #55 ) );
#19 = EDGE_LOOP ( 'NONE', ( #305, #218, #187, #194 ) ) ;
#20 = COLOUR_RGB ( '',1.000000000000000000, 0.000000000000000000, 0.000000000000000000 ) ;
#21 = DIRECTION ( 'NONE',  ( 6.123233995736768501E-17, 1.000000000000000000, -0.000000000000000000 ) ) ;
#22 = LENGTH_MEASURE_WITH_UNIT ( LENGTH_MEASURE( 0.02539999999999999897 ), #258 );
#23 = ORIENTED_EDGE ( 'NONE', *, *, #112, .T. ) ;
#24 = CIRCLE ( 'NONE', #204, 0.5000000000000000000 ) ;
#25 = CIRCLE ( 'NONE', #205, 0.4999999999999997780 ) ;
#26 = FACE_OUTER_BOUND ( 'NONE', #283, .T. ) ;
#27 = ORIENTED_EDGE ( 'NONE', *, *, #170, .T. ) ;
#28 = CYLINDRICAL_SURFACE ( 'NONE', #136, 0.4999999999999998335 ) ;
#29 = DIRECTION ( 'NONE',  ( 0.000000000000000000, 0.000000000000000000, -1.000000000000000000 ) ) ;
#30 = FILL_AREA_STYLE_COLOUR ( '', #20 ) ;
#31 = ADVANCED_FACE ( 'NONE', ( #276 ), #97, .T. ) ;
#32 = FACE_OUTER_BOUND ( 'NONE', #120, .T. ) ;
#33 =( GEOMETRIC_REPRESENTATION_CONTEXT ( 3 ) GLOBAL_UNCERTAINTY_ASSIGNED_CONTEXT ( ( #188 ) ) GLOBAL_UNIT_ASSIGNED_CONTEXT ( ( #111, #178, #268 ) ) REPRESENTATION_CONTEXT ( 'NONE', 'WORKASPACE' ) );
#34 = SURFACE_SIDE_STYLE ('',( #287 ) ) ;
#35 = PRODUCT ( '03750', '03750', '', ( #156 ) ) ;
#36 = DIRECTION ( 'NONE',  ( -0.000000000000000000, -1.000000000000000000, -0.000000000000000000 ) ) ;
#37 = DIMENSIONAL_EXPONENTS ( 1.000000000000000000, 0.000000000000000000, 0.000000000000000000, 0.000000000000000000, 0.000000000000000000, 0.000000000000000000, 0.000000000000000000 ) ;
#38 = DIRECTION ( 'NONE',  ( -0.000000000000000000, -1.000000000000000000, -0.000000000000000000 ) ) ;
#39 = DIRECTION ( 'NONE',  ( 6.123233995736768501E-17, 1.000000000000000000, -0.000000000000000000 ) ) ;
#40 = DIRECTION ( 'NONE',  ( -0.000000000000000000, -1.000000000000000000, -0.000000000000000000 ) ) ;
#41 =( CONVERSION_BASED_UNIT ( 'INCH', #14 ) LENGTH_UNIT ( ) NAMED_UNIT ( #135 ) );
#42 = PRESENTATION_LAYER_ASSIGNMENT (  '', '', ( #227 ) ) ;
#43 = CIRCLE ( 'NONE', #200, 0.5000000000000000000 ) ;
#44 = PLANE ( 'NONE',  #303 ) ;
#45 = CARTESIAN_POINT ( 'NONE',  ( -0.5000000000000000000, 2.000000000000000000, 0.000000000000000000 ) ) ;
#46 = SURFACE_SIDE_STYLE ('',( #202 ) ) ;
#47 = APPLICATION_CONTEXT ( 'automotive_design' ) ;
#48 =( GEOMETRIC_REPRESENTATION_CONTEXT ( 3 ) GLOBAL_UNCERTAINTY_ASSIGNED_CONTEXT ( ( #165 ) ) GLOBAL_UNIT_ASSIGNED_CONTEXT ( ( #41, #89, #206 ) ) REPRESENTATION_CONTEXT ( 'NONE', 'WORKASPACE' ) );
#49 = VERTEX_POINT ( 'NONE', #192 ) ;
#50 = COLOUR_RGB ( '',0.7921568627450980005, 0.8196078431372548767, 0.9333333333333333481 ) ;
#51 = EDGE_LOOP ( 'NONE', ( #216, #212 ) ) ;
#52 = PRODUCT_DEFINITION_FORMATION_WITH_SPECIFIED_SOURCE ( 'ANY', '', #35, .NOT_KNOWN. ) ;
#53 = PLANE ( 'NONE',  #60 ) ;
#54 = ORIENTED_EDGE ( 'NONE', *, *, #262, .T. ) ;
#55 = DIMENSIONAL_EXPONENTS ( 1.000000000000000000, 0.000000000000000000, 0.000000000000000000, 0.000000000000000000, 0.000000000000000000, 0.000000000000000000, 0.000000000000000000 ) ;
#56 =( NAMED_UNIT ( * ) PLANE_ANGLE_UNIT ( ) SI_UNIT ( $, .RADIAN. ) );
#57 = SURFACE_STYLE_FILL_AREA ( #140 ) ;
#58 = DIRECTION ( 'NONE',  ( 6.123233995736768501E-17, 1.000000000000000000, -0.000000000000000000 ) ) ;
#59 = AXIS2_PLACEMENT_3D ( 'NONE', #289, #266, #29 ) ;
#60 = AXIS2_PLACEMENT_3D ( 'NONE', #217, #168, #103 ) ;
#61 = PRESENTATION_STYLE_ASSIGNMENT (( #155 ) ) ;
#62 = CARTESIAN_POINT ( 'NONE',  ( 6.123233995736766036E-17, 0.000000000000000000, 0.5000000000000000000 ) ) ;
#63 = CARTESIAN_POINT ( 'NONE',  ( 0.000000000000000000, 0.000000000000000000, -0.5000000000000000000 ) ) ;
#64 = DIRECTION ( 'NONE',  ( -1.000000000000000000, 0.000000000000000000, 0.000000000000000000 ) ) ;
#65 = LINE ( 'NONE', #63, #267 ) ;
#66 = EDGE_CURVE ( 'NONE', #49, #236, #24, .T. ) ;
#67 = CARTESIAN_POINT ( 'NONE',  ( 6.123233995736766036E-17, 0.000000000000000000, 0.5000000000000000000 ) ) ;
#68 = DIRECTION ( 'NONE',  ( -1.000000000000000000, 0.000000000000000000, 0.000000000000000000 ) ) ;
#69 = COLOUR_RGB ( '',1.000000000000000000, 0.000000000000000000, 0.000000000000000000 ) ;
#70 = DIRECTION ( 'NONE',  ( -0.000000000000000000, -1.000000000000000000, -0.000000000000000000 ) ) ;
#71 = EDGE_CURVE ( 'NONE', #72, #302, #198, .T. ) ;
#72 = VERTEX_POINT ( 'NONE', #196 ) ;
#73 = PRODUCT_DEFINITION_CONTEXT ( 'detailed design', #47, 'design' ) ;
#74 = ORIENTED_EDGE ( 'NONE', *, *, #170, .F. ) ;
#75 = MECHANICAL_DESIGN_GEOMETRIC_PRESENTATION_REPRESENTATION (  '', ( #177 ), #117 ) ;
#76 = CARTESIAN_POINT ( 'NONE',  ( 0.000000000000000000, 0.000000000000000000, 0.000000000000000000 ) ) ;
#77 = ORIENTED_EDGE ( 'NONE', *, *, #118, .F. ) ;
#78 = DIRECTION ( 'NONE',  ( 0.000000000000000000, -1.000000000000000000, -0.000000000000000000 ) ) ;
#79 = UNCERTAINTY_MEASURE_WITH_UNIT (LENGTH_MEASURE( 1.000000000000000082E-05 ), #1, 'distance_accuracy_value', 'NONE');
#80 = AXIS2_PLACEMENT_3D ( 'NONE', #254, #257, #277 ) ;
#81 = DIMENSIONAL_EXPONENTS ( 1.000000000000000000, 0.000000000000000000, 0.000000000000000000, 0.000000000000000000, 0.000000000000000000, 0.000000000000000000, 0.000000000000000000 ) ;
#82 = DIRECTION ( 'NONE',  ( 6.123233995736768501E-17, 1.000000000000000000, -0.000000000000000000 ) ) ;
#83 = SURFACE_SIDE_STYLE ('',( #197 ) ) ;
#84 = PRESENTATION_LAYER_ASSIGNMENT (  '', '', ( #125 ) ) ;
#85 =( LENGTH_UNIT ( ) NAMED_UNIT ( * ) SI_UNIT ( $, .METRE. ) );
#86 =( LENGTH_UNIT ( ) NAMED_UNIT ( * ) SI_UNIT ( $, .METRE. ) );
#87 = MANIFOLD_SOLID_BREP ( 'Revolve - Tool Body (Straight Shanked)', #213 ) ;
#88 = SURFACE_SIDE_STYLE ('',( #94 ) ) ;
#89 =( NAMED_UNIT ( * ) PLANE_ANGLE_UNIT ( ) SI_UNIT ( $, .RADIAN. ) );
#90 = STYLED_ITEM ( 'NONE', ( #199 ), #87 ) ;
#91 = EDGE_CURVE ( 'NONE', #49, #302, #128, .T. ) ;
#92 = CIRCLE ( 'NONE', #253, 0.5000000000000000000 ) ;
#93 = FACE_OUTER_BOUND ( 'NONE', #51, .T. ) ;
#94 = SURFACE_STYLE_FILL_AREA ( #201 ) ;
#95 = EDGE_CURVE ( 'NONE', #162, #193, #186, .T. ) ;
#96 = ORIENTED_EDGE ( 'NONE', *, *, #66, .F. ) ;
#97 = CYLINDRICAL_SURFACE ( 'NONE', #80, 0.4999999999999998335 ) ;
#98 = ADVANCED_FACE ( 'NONE', ( #32 ), #131, .T. ) ;
#99 = DIRECTION ( 'NONE',  ( 0.000000000000000000, 0.000000000000000000, -1.000000000000000000 ) ) ;
#100 = COLOUR_RGB ( '',1.000000000000000000, 0.000000000000000000, 0.000000000000000000 ) ;
#101 = VECTOR ( 'NONE', #82, 39.37007874015748143 ) ;
#102 = ORIENTED_EDGE ( 'NONE', *, *, #130, .F. ) ;
#103 = DIRECTION ( 'NONE',  ( 0.000000000000000000, -0.000000000000000000, 1.000000000000000000 ) ) ;
#104 = ORIENTED_EDGE ( 'NONE', *, *, #95, .F. ) ;
#105 = FILL_AREA_STYLE_COLOUR ( '', #69 ) ;
#106 = AXIS2_PLACEMENT_3D ( 'NONE', #76, #169, #99 ) ;
#107 =( NAMED_UNIT ( * ) SI_UNIT ( $, .STERADIAN. ) SOLID_ANGLE_UNIT ( ) );
#108 = LENGTH_MEASURE_WITH_UNIT ( LENGTH_MEASURE( 0.02539999999999999897 ), #244 );
#109 = FILL_AREA_STYLE_COLOUR ( '', #115 ) ;
#110 = DIMENSIONAL_EXPONENTS ( 1.000000000000000000, 0.000000000000000000, 0.000000000000000000, 0.000000000000000000, 0.000000000000000000, 0.000000000000000000, 0.000000000000000000 ) ;
#111 =( CONVERSION_BASED_UNIT ( 'INCH', #179 ) LENGTH_UNIT ( ) NAMED_UNIT ( #220 ) );
#112 = EDGE_CURVE ( 'NONE', #123, #162, #226, .T. ) ;
#113 =( LENGTH_UNIT ( ) NAMED_UNIT ( * ) SI_UNIT ( $, .METRE. ) );
#114 = DIRECTION ( 'NONE',  ( -6.123233995736768501E-17, -1.000000000000000000, 0.000000000000000000 ) ) ;
#115 = COLOUR_RGB ( '',0.7921568627450980005, 0.8196078431372548767, 0.9333333333333333481 ) ;
#116 = APPLICATION_CONTEXT ( 'automotive_design' ) ;
#117 =( GEOMETRIC_REPRESENTATION_CONTEXT ( 3 ) GLOBAL_UNCERTAINTY_ASSIGNED_CONTEXT ( ( #307 ) ) GLOBAL_UNIT_ASSIGNED_CONTEXT ( ( #18, #184, #272 ) ) REPRESENTATION_CONTEXT ( 'NONE', 'WORKASPACE' ) );
#118 = EDGE_CURVE ( 'NONE', #302, #72, #25, .T. ) ;
#119 = ORIENTED_EDGE ( 'NONE', *, *, #221, .F. ) ;
#120 = EDGE_LOOP ( 'NONE', ( #239, #27, #211, #104 ) ) ;
#121 = EDGE_LOOP ( 'NONE', ( #127, #23, #237, #119 ) ) ;
#122 =( NAMED_UNIT ( * ) PLANE_ANGLE_UNIT ( ) SI_UNIT ( $, .RADIAN. ) );
#123 = VERTEX_POINT ( 'NONE', #141 ) ;
#124 = CLOSED_SHELL ( 'NONE', ( #234, #271, #98, #290 ) ) ;
#125 = STYLED_ITEM ( 'NONE', ( #171 ), #271 ) ;
#126 = CARTESIAN_POINT ( 'NONE',  ( 0.000000000000000000, 0.000000000000000000, 0.000000000000000000 ) ) ;
#127 = ORIENTED_EDGE ( 'NONE', *, *, #130, .T. ) ;
#128 = LINE ( 'NONE', #148, #145 ) ;
#129 = DIRECTION ( 'NONE',  ( -1.000000000000000000, 0.000000000000000000, 0.000000000000000000 ) ) ;
#130 = EDGE_CURVE ( 'NONE', #259, #123, #43, .T. ) ;
#131 = CYLINDRICAL_SURFACE ( 'NONE', #286, 0.5000000000000000000 ) ;
#132 = FILL_AREA_STYLE ('',( #30 ) ) ;
#133 = AXIS2_PLACEMENT_3D ( 'NONE', #219, #284, #147 ) ;
#134 = PRESENTATION_LAYER_ASSIGNMENT (  '', '', ( #90 ) ) ;
#135 = DIMENSIONAL_EXPONENTS ( 1.000000000000000000, 0.000000000000000000, 0.000000000000000000, 0.000000000000000000, 0.000000000000000000, 0.000000000000000000, 0.000000000000000000 ) ;
#136 = AXIS2_PLACEMENT_3D ( 'NONE', #309, #39, #8 ) ;
#137 = CARTESIAN_POINT ( 'NONE',  ( -0.4999999999999996669, 5.000000000000000000, 0.000000000000000000 ) ) ;
#138 = DIRECTION ( 'NONE',  ( 0.000000000000000000, 0.000000000000000000, -1.000000000000000000 ) ) ;
#139 = DIMENSIONAL_EXPONENTS ( 1.000000000000000000, 0.000000000000000000, 0.000000000000000000, 0.000000000000000000, 0.000000000000000000, 0.000000000000000000, 0.000000000000000000 ) ;
#140 = FILL_AREA_STYLE ('',( #109 ) ) ;
#141 = CARTESIAN_POINT ( 'NONE',  ( 6.123233995736766036E-17, 2.000000000000000000, 0.5000000000000000000 ) ) ;
#142 = AXIS2_PLACEMENT_3D ( 'NONE', #223, #58, #129 ) ;
#143 = PRESENTATION_LAYER_ASSIGNMENT (  '', '', ( #177 ) ) ;
#144 = ORIENTED_EDGE ( 'NONE', *, *, #66, .T. ) ;
#145 = VECTOR ( 'NONE', #288, 39.37007874015748143 ) ;
#146 = DIRECTION ( 'NONE',  ( 0.000000000000000000, 0.000000000000000000, -1.000000000000000000 ) ) ;
#147 = DIRECTION ( 'NONE',  ( -1.000000000000000000, 0.000000000000000000, 0.000000000000000000 ) ) ;
#148 = CARTESIAN_POINT ( 'NONE',  ( 0.5000000000000001110, 5.000000000000000000, 6.123233995736764803E-17 ) ) ;
#149 = SURFACE_STYLE_USAGE ( .BOTH. , #83 ) ;
#150 =( LENGTH_UNIT ( ) NAMED_UNIT ( * ) SI_UNIT ( $, .METRE. ) );
#151 = FILL_AREA_STYLE ('',( #105 ) ) ;
#152 = MECHANICAL_DESIGN_GEOMETRIC_PRESENTATION_REPRESENTATION (  '', ( #224 ), #48 ) ;
#153 = SURFACE_SIDE_STYLE ('',( #57 ) ) ;
#154 =( CONVERSION_BASED_UNIT ( 'INCH', #246 ) LENGTH_UNIT ( ) NAMED_UNIT ( #139 ) );
#155 = SURFACE_STYLE_USAGE ( .BOTH. , #292 ) ;
#156 = PRODUCT_CONTEXT ( 'NONE', #116, 'mechanical' ) ;
#157 = AXIS2_PLACEMENT_3D ( 'NONE', #126, #78, #146 ) ;
#158 = CARTESIAN_POINT ( 'NONE',  ( 0.000000000000000000, 2.000000000000000000, 0.000000000000000000 ) ) ;
#159 = SHAPE_DEFINITION_REPRESENTATION ( #231, #261 ) ;
#160 = FILL_AREA_STYLE ('',( #229 ) ) ;
#161 = PRESENTATION_LAYER_ASSIGNMENT (  '', '', ( #291 ) ) ;
#162 = VERTEX_POINT ( 'NONE', #67 ) ;
#163 = AXIS2_PLACEMENT_3D ( 'NONE', #249, #294, #183 ) ;
#164 = ORIENTED_EDGE ( 'NONE', *, *, #95, .T. ) ;
#165 = UNCERTAINTY_MEASURE_WITH_UNIT (LENGTH_MEASURE( 1.000000000000000082E-05 ), #41, 'distance_accuracy_value', 'NONE');
#166 = PRESENTATION_STYLE_ASSIGNMENT (( #15 ) ) ;
#167 = CARTESIAN_POINT ( 'NONE',  ( -3.032960542342103792E-32, 2.000000000000000000, 0.000000000000000000 ) ) ;
#168 = DIRECTION ( 'NONE',  ( 0.000000000000000000, 1.000000000000000000, 0.000000000000000000 ) ) ;
#169 = DIRECTION ( 'NONE',  ( -0.000000000000000000, -1.000000000000000000, -0.000000000000000000 ) ) ;
#170 = EDGE_CURVE ( 'NONE', #123, #259, #92, .T. ) ;
#171 = PRESENTATION_STYLE_ASSIGNMENT (( #149 ) ) ;
#172 = FACE_OUTER_BOUND ( 'NONE', #240, .T. ) ;
#173 = SURFACE_STYLE_USAGE ( .BOTH. , #153 ) ;
#174 = FILL_AREA_STYLE ('',( #7 ) ) ;
#175 =( CONVERSION_BASED_UNIT ( 'INCH', #108 ) LENGTH_UNIT ( ) NAMED_UNIT ( #110 ) );
#176 = CARTESIAN_POINT ( 'NONE',  ( 0.000000000000000000, 0.000000000000000000, 0.000000000000000000 ) ) ;
#177 = STYLED_ITEM ( 'NONE', ( #166 ), #234 ) ;
#178 =( NAMED_UNIT ( * ) PLANE_ANGLE_UNIT ( ) SI_UNIT ( $, .RADIAN. ) );
#179 = LENGTH_MEASURE_WITH_UNIT ( LENGTH_MEASURE( 0.02539999999999999897 ), #86 );
#180 = DIRECTION ( 'NONE',  ( 6.123233995736768501E-17, 1.000000000000000000, -0.000000000000000000 ) ) ;
#181 = ADVANCED_FACE ( 'NONE', ( #93 ), #44, .F. ) ;
#182 = DIRECTION ( 'NONE',  ( -0.000000000000000000, -1.000000000000000000, -0.000000000000000000 ) ) ;
#183 = DIRECTION ( 'NONE',  ( 1.000000000000000000, 0.000000000000000000, 0.000000000000000000 ) ) ;
#184 =( NAMED_UNIT ( * ) PLANE_ANGLE_UNIT ( ) SI_UNIT ( $, .RADIAN. ) );
#185 = LENGTH_MEASURE_WITH_UNIT ( LENGTH_MEASURE( 0.02539999999999999897 ), #280 );
#186 = CIRCLE ( 'NONE', #59, 0.5000000000000000000 ) ;
#187 = ORIENTED_EDGE ( 'NONE', *, *, #71, .F. ) ;
#188 = UNCERTAINTY_MEASURE_WITH_UNIT (LENGTH_MEASURE( 1.000000000000000082E-05 ), #111, 'distance_accuracy_value', 'NONE');
#189 = EDGE_LOOP ( 'NONE', ( #306, #144, #54, #77 ) ) ;
#190 = MANIFOLD_SOLID_BREP ( 'Revolve - Cutting Edge', #124 ) ;
#191 =( GEOMETRIC_REPRESENTATION_CONTEXT ( 3 ) GLOBAL_UNCERTAINTY_ASSIGNED_CONTEXT ( ( #241 ) ) GLOBAL_UNIT_ASSIGNED_CONTEXT ( ( #154, #260, #107 ) ) REPRESENTATION_CONTEXT ( 'NONE', 'WORKASPACE' ) );
#192 = CARTESIAN_POINT ( 'NONE',  ( 0.5000000000000001110, 2.000000000000000000, 6.123233995736766036E-17 ) ) ;
#193 = VERTEX_POINT ( 'NONE', #12 ) ;
#194 = ORIENTED_EDGE ( 'NONE', *, *, #262, .F. ) ;
#195 = UNCERTAINTY_MEASURE_WITH_UNIT (LENGTH_MEASURE( 1.000000000000000082E-05 ), #175, 'distance_accuracy_value', 'NONE');
#196 = CARTESIAN_POINT ( 'NONE',  ( -0.4999999999999996114, 5.000000000000000000, 0.000000000000000000 ) ) ;
#197 = SURFACE_STYLE_FILL_AREA ( #151 ) ;
#198 = CIRCLE ( 'NONE', #133, 0.4999999999999997780 ) ;
#199 = PRESENTATION_STYLE_ASSIGNMENT (( #173 ) ) ;
#200 = AXIS2_PLACEMENT_3D ( 'NONE', #158, #182, #248 ) ;
#201 = FILL_AREA_STYLE ('',( #6 ) ) ;
#202 = SURFACE_STYLE_FILL_AREA ( #160 ) ;
#203 = DIRECTION ( 'NONE',  ( 1.000000000000000000, -6.123233995736768501E-17, 0.000000000000000000 ) ) ;
#204 = AXIS2_PLACEMENT_3D ( 'NONE', #167, #180, #68 ) ;
#205 = AXIS2_PLACEMENT_3D ( 'NONE', #308, #293, #64 ) ;
#206 =( NAMED_UNIT ( * ) SI_UNIT ( $, .STERADIAN. ) SOLID_ANGLE_UNIT ( ) );
#207 = APPLICATION_PROTOCOL_DEFINITION ( 'draft international standard', 'automotive_design', 1998, #116 ) ;
#208 = MECHANICAL_DESIGN_GEOMETRIC_PRESENTATION_REPRESENTATION (  '', ( #227 ), #279 ) ;
#209 = EDGE_LOOP ( 'NONE', ( #102, #74 ) ) ;
#210 = PRODUCT_DEFINITION ( 'UNKNOWN', '', #52, #73 ) ;
#211 = ORIENTED_EDGE ( 'NONE', *, *, #221, .T. ) ;
#212 = ORIENTED_EDGE ( 'NONE', *, *, #118, .T. ) ;
#213 = CLOSED_SHELL ( 'NONE', ( #297, #4, #31, #181 ) ) ;
#214 = MECHANICAL_DESIGN_GEOMETRIC_PRESENTATION_REPRESENTATION (  '', ( #125 ), #255 ) ;
#215 =( NAMED_UNIT ( * ) SI_UNIT ( $, .STERADIAN. ) SOLID_ANGLE_UNIT ( ) );
#216 = ORIENTED_EDGE ( 'NONE', *, *, #71, .T. ) ;
#217 = CARTESIAN_POINT ( 'NONE',  ( 0.000000000000000000, 2.000000000000000000, 0.000000000000000000 ) ) ;
#218 = ORIENTED_EDGE ( 'NONE', *, *, #91, .T. ) ;
#219 = CARTESIAN_POINT ( 'NONE',  ( 1.836970198721030427E-16, 5.000000000000000000, 0.000000000000000000 ) ) ;
#220 = DIMENSIONAL_EXPONENTS ( 1.000000000000000000, 0.000000000000000000, 0.000000000000000000, 0.000000000000000000, 0.000000000000000000, 0.000000000000000000, 0.000000000000000000 ) ;
#221 = EDGE_CURVE ( 'NONE', #259, #193, #65, .T. ) ;
#222 = LENGTH_MEASURE_WITH_UNIT ( LENGTH_MEASURE( 0.02539999999999999897 ), #150 );
#223 = CARTESIAN_POINT ( 'NONE',  ( -3.032960542342103792E-32, 2.000000000000000000, 0.000000000000000000 ) ) ;
#224 = STYLED_ITEM ( 'NONE', ( #296 ), #190 ) ;
#225 = FACE_OUTER_BOUND ( 'NONE', #121, .T. ) ;
#226 = LINE ( 'NONE', #62, #299 ) ;
#227 = STYLED_ITEM ( 'NONE', ( #61 ), #98 ) ;
#228 = COLOUR_RGB ( '',1.000000000000000000, 0.000000000000000000, 0.000000000000000000 ) ;
#229 = FILL_AREA_STYLE_COLOUR ( '', #50 ) ;
#230 = CARTESIAN_POINT ( 'NONE',  ( 0.000000000000000000, 2.000000000000000000, -0.5000000000000000000 ) ) ;
#231 = PRODUCT_DEFINITION_SHAPE ( 'NONE', 'NONE',  #210 ) ;
#232 = CIRCLE ( 'NONE', #142, 0.5000000000000000000 ) ;
#233 = PLANE ( 'NONE',  #252 ) ;
#234 = ADVANCED_FACE ( 'NONE', ( #225 ), #265, .T. ) ;
#235 = UNCERTAINTY_MEASURE_WITH_UNIT (LENGTH_MEASURE( 1.000000000000000082E-05 ), #5, 'distance_accuracy_value', 'NONE');
#236 = VERTEX_POINT ( 'NONE', #45 ) ;
#237 = ORIENTED_EDGE ( 'NONE', *, *, #13, .F. ) ;
#238 = PLANE ( 'NONE',  #157 ) ;
#239 = ORIENTED_EDGE ( 'NONE', *, *, #112, .F. ) ;
#240 = EDGE_LOOP ( 'NONE', ( #256, #96 ) ) ;
#241 = UNCERTAINTY_MEASURE_WITH_UNIT (LENGTH_MEASURE( 1.000000000000000082E-05 ), #154, 'distance_accuracy_value', 'NONE');
#242 = FACE_OUTER_BOUND ( 'NONE', #19, .T. ) ;
#243 = LINE ( 'NONE', #137, #101 ) ;
#244 =( LENGTH_UNIT ( ) NAMED_UNIT ( * ) SI_UNIT ( $, .METRE. ) );
#245 = PRESENTATION_LAYER_ASSIGNMENT (  '', '', ( #224 ) ) ;
#246 = LENGTH_MEASURE_WITH_UNIT ( LENGTH_MEASURE( 0.02539999999999999897 ), #85 );
#247 = SURFACE_STYLE_FILL_AREA ( #174 ) ;
#248 = DIRECTION ( 'NONE',  ( 0.000000000000000000, 0.000000000000000000, -1.000000000000000000 ) ) ;
#249 = CARTESIAN_POINT ( 'NONE',  ( 0.000000000000000000, 0.000000000000000000, 0.000000000000000000 ) ) ;
#250 = DIRECTION ( 'NONE',  ( 0.000000000000000000, 0.000000000000000000, -1.000000000000000000 ) ) ;
#251 = CARTESIAN_POINT ( 'NONE',  ( 0.5000000000000001110, 5.000000000000000000, 6.123233995736766036E-17 ) ) ;
#252 = AXIS2_PLACEMENT_3D ( 'NONE', #300, #21, #301 ) ;
#253 = AXIS2_PLACEMENT_3D ( 'NONE', #274, #270, #250 ) ;
#254 = CARTESIAN_POINT ( 'NONE',  ( 1.836970198721030427E-16, 5.000000000000000000, 0.000000000000000000 ) ) ;
#255 =( GEOMETRIC_REPRESENTATION_CONTEXT ( 3 ) GLOBAL_UNCERTAINTY_ASSIGNED_CONTEXT ( ( #195 ) ) GLOBAL_UNIT_ASSIGNED_CONTEXT ( ( #175, #56, #215 ) ) REPRESENTATION_CONTEXT ( 'NONE', 'WORKASPACE' ) );
#256 = ORIENTED_EDGE ( 'NONE', *, *, #285, .F. ) ;
#257 = DIRECTION ( 'NONE',  ( 6.123233995736768501E-17, 1.000000000000000000, -0.000000000000000000 ) ) ;
#258 =( LENGTH_UNIT ( ) NAMED_UNIT ( * ) SI_UNIT ( $, .METRE. ) );
#259 = VERTEX_POINT ( 'NONE', #230 ) ;
#260 =( NAMED_UNIT ( * ) PLANE_ANGLE_UNIT ( ) SI_UNIT ( $, .RADIAN. ) );
#261 = ADVANCED_BREP_SHAPE_REPRESENTATION ( '03750', ( #190, #87, #163 ), #33 ) ;
#262 = EDGE_CURVE ( 'NONE', #236, #72, #243, .T. ) ;
#263 = FACE_OUTER_BOUND ( 'NONE', #209, .T. ) ;
#264 =( NAMED_UNIT ( * ) PLANE_ANGLE_UNIT ( ) SI_UNIT ( $, .RADIAN. ) );
#265 = CYLINDRICAL_SURFACE ( 'NONE', #11, 0.5000000000000000000 ) ;
#266 = DIRECTION ( 'NONE',  ( -0.000000000000000000, -1.000000000000000000, -0.000000000000000000 ) ) ;
#267 = VECTOR ( 'NONE', #36, 39.37007874015748143 ) ;
#268 =( NAMED_UNIT ( * ) SI_UNIT ( $, .STERADIAN. ) SOLID_ANGLE_UNIT ( ) );
#269 =( NAMED_UNIT ( * ) SI_UNIT ( $, .STERADIAN. ) SOLID_ANGLE_UNIT ( ) );
#270 = DIRECTION ( 'NONE',  ( -0.000000000000000000, -1.000000000000000000, -0.000000000000000000 ) ) ;
#271 = ADVANCED_FACE ( 'NONE', ( #263 ), #53, .T. ) ;
#272 =( NAMED_UNIT ( * ) SI_UNIT ( $, .STERADIAN. ) SOLID_ANGLE_UNIT ( ) );
#273 = CARTESIAN_POINT ( 'NONE',  ( 0.5000000000000000000, 5.000000000000000000, 0.000000000000000000 ) ) ;
#274 = CARTESIAN_POINT ( 'NONE',  ( 0.000000000000000000, 2.000000000000000000, 0.000000000000000000 ) ) ;
#275 = DIRECTION ( 'NONE',  ( 0.000000000000000000, 0.000000000000000000, -1.000000000000000000 ) ) ;
#276 = FACE_OUTER_BOUND ( 'NONE', #189, .T. ) ;
#277 = DIRECTION ( 'NONE',  ( -1.000000000000000000, 0.000000000000000000, 0.000000000000000000 ) ) ;
#278 = MECHANICAL_DESIGN_GEOMETRIC_PRESENTATION_REPRESENTATION (  '', ( #90 ), #191 ) ;
#279 =( GEOMETRIC_REPRESENTATION_CONTEXT ( 3 ) GLOBAL_UNCERTAINTY_ASSIGNED_CONTEXT ( ( #79 ) ) GLOBAL_UNIT_ASSIGNED_CONTEXT ( ( #1, #264, #269 ) ) REPRESENTATION_CONTEXT ( 'NONE', 'WORKASPACE' ) );
#280 =( LENGTH_UNIT ( ) NAMED_UNIT ( * ) SI_UNIT ( $, .METRE. ) );
#281 = ORIENTED_EDGE ( 'NONE', *, *, #13, .T. ) ;
#282 =( NAMED_UNIT ( * ) SI_UNIT ( $, .STERADIAN. ) SOLID_ANGLE_UNIT ( ) );
#283 = EDGE_LOOP ( 'NONE', ( #281, #164 ) ) ;
#284 = DIRECTION ( 'NONE',  ( 6.123233995736768501E-17, 1.000000000000000000, -0.000000000000000000 ) ) ;
#285 = EDGE_CURVE ( 'NONE', #236, #49, #232, .T. ) ;
#286 = AXIS2_PLACEMENT_3D ( 'NONE', #176, #38, #138 ) ;
#287 = SURFACE_STYLE_FILL_AREA ( #132 ) ;
#288 = DIRECTION ( 'NONE',  ( 6.123233995736768501E-17, 1.000000000000000000, -0.000000000000000000 ) ) ;
#289 = CARTESIAN_POINT ( 'NONE',  ( 0.000000000000000000, 0.000000000000000000, 0.000000000000000000 ) ) ;
#290 = ADVANCED_FACE ( 'NONE', ( #26 ), #238, .T. ) ;
#291 = STYLED_ITEM ( 'NONE', ( #3 ), #290 ) ;
#292 = SURFACE_SIDE_STYLE ('',( #247 ) ) ;
#293 = DIRECTION ( 'NONE',  ( 6.123233995736768501E-17, 1.000000000000000000, -0.000000000000000000 ) ) ;
#294 = DIRECTION ( 'NONE',  ( 0.000000000000000000, 0.000000000000000000, 1.000000000000000000 ) ) ;
#295 = MECHANICAL_DESIGN_GEOMETRIC_PRESENTATION_REPRESENTATION (  '', ( #291 ), #2 ) ;
#296 = PRESENTATION_STYLE_ASSIGNMENT (( #16 ) ) ;
#297 = ADVANCED_FACE ( 'NONE', ( #242 ), #28, .T. ) ;
#298 = CARTESIAN_POINT ( 'NONE',  ( 0.000000000000000000, 0.000000000000000000, 0.000000000000000000 ) ) ;
#299 = VECTOR ( 'NONE', #40, 39.37007874015748143 ) ;
#300 = CARTESIAN_POINT ( 'NONE',  ( 9.373498641636616891E-34, 2.000000000000000000, 0.000000000000000000 ) ) ;
#301 = DIRECTION ( 'NONE',  ( -1.000000000000000000, 6.123233995736768501E-17, 0.000000000000000000 ) ) ;
#302 = VERTEX_POINT ( 'NONE', #251 ) ;
#303 = AXIS2_PLACEMENT_3D ( 'NONE', #273, #114, #203 ) ;
#304 = SURFACE_STYLE_USAGE ( .BOTH. , #34 ) ;
#305 = ORIENTED_EDGE ( 'NONE', *, *, #285, .T. ) ;
#306 = ORIENTED_EDGE ( 'NONE', *, *, #91, .F. ) ;
#307 = UNCERTAINTY_MEASURE_WITH_UNIT (LENGTH_MEASURE( 1.000000000000000082E-05 ), #18, 'distance_accuracy_value', 'NONE');
#308 = CARTESIAN_POINT ( 'NONE',  ( 1.836970198721030427E-16, 5.000000000000000000, 0.000000000000000000 ) ) ;
#309 = CARTESIAN_POINT ( 'NONE',  ( 1.836970198721030427E-16, 5.000000000000000000, 0.000000000000000000 ) ) ;
ENDSEC;
END-ISO-10303-21;
