ISO-10303-21;
HEADER;
FILE_DESCRIPTION (( 'STEP AP214' ),
    '1' );
FILE_NAME ('59498.STEP',
    '2023-07-24T15:07:58',
    ( '' ),
    ( '' ),
    'SwSTEP 2.0',
    'SolidWorks 2023',
    '' );
FILE_SCHEMA (( 'AUTOMOTIVE_DESIGN' ));
ENDSEC;

DATA;
#1 = EDGE_LOOP ( 'NONE', ( #255, #57 ) ) ;
#2 = AXIS2_PLACEMENT_3D ( 'NONE', #74, #191, #110 ) ;
#3 = CIRCLE ( 'NONE', #287, 5.000000000000000000 ) ;
#4 =( GEOMETRIC_REPRESENTATION_CONTEXT ( 3 ) GLOBAL_UNCERTAINTY_ASSIGNED_CONTEXT ( ( #241 ) ) GLOBAL_UNIT_ASSIGNED_CONTEXT ( ( #364, #87, #9 ) ) REPRESENTATION_CONTEXT ( 'NONE', 'WORKASPACE' ) );
#5 = PRODUCT_DEFINITION_FORMATION_WITH_SPECIFIED_SOURCE ( 'ANY', '', #103, .NOT_KNOWN. ) ;
#6 = COLOUR_RGB ( '',1.000000000000000000, 0.000000000000000000, 0.000000000000000000 ) ;
#7 = ORIENTED_EDGE ( 'NONE', *, *, #108, .T. ) ;
#8 = FILL_AREA_STYLE ('',( #257 ) ) ;
#9 =( NAMED_UNIT ( * ) SI_UNIT ( $, .STERADIAN. ) SOLID_ANGLE_UNIT ( ) );
#10 = VECTOR ( 'NONE', #280, 1000.000000000000000 ) ;
#11 = EDGE_LOOP ( 'NONE', ( #157, #28, #283, #27 ) ) ;
#12 =( GEOMETRIC_REPRESENTATION_CONTEXT ( 3 ) GLOBAL_UNCERTAINTY_ASSIGNED_CONTEXT ( ( #290 ) ) GLOBAL_UNIT_ASSIGNED_CONTEXT ( ( #64, #94, #242 ) ) REPRESENTATION_CONTEXT ( 'NONE', 'WORKASPACE' ) );
#13 = DIRECTION ( 'NONE',  ( 0.000000000000000000, 0.000000000000000000, -1.000000000000000000 ) ) ;
#14 = FILL_AREA_STYLE ('',( #180 ) ) ;
#15 = FACE_OUTER_BOUND ( 'NONE', #262, .T. ) ;
#16 = ADVANCED_FACE ( 'NONE', ( #44 ), #161, .T. ) ;
#17 = SURFACE_STYLE_USAGE ( .BOTH. , #153 ) ;
#18 = CIRCLE ( 'NONE', #237, 5.000000000000000888 ) ;
#19 = CARTESIAN_POINT ( 'NONE',  ( 0.000000000000000000, 0.000000000000000000, -5.000000000000000888 ) ) ;
#20 = FACE_OUTER_BOUND ( 'NONE', #1, .T. ) ;
#21 = DIRECTION ( 'NONE',  ( 0.000000000000000000, 0.000000000000000000, -1.000000000000000000 ) ) ;
#22 = PRESENTATION_LAYER_ASSIGNMENT (  '', '', ( #120 ) ) ;
#23 = VERTEX_POINT ( 'NONE', #150 ) ;
#24 =( NAMED_UNIT ( * ) SI_UNIT ( $, .STERADIAN. ) SOLID_ANGLE_UNIT ( ) );
#25 = PRESENTATION_LAYER_ASSIGNMENT (  '', '', ( #152 ) ) ;
#26 = EDGE_CURVE ( 'NONE', #80, #70, #266, .T. ) ;
#27 = ORIENTED_EDGE ( 'NONE', *, *, #102, .F. ) ;
#28 = ORIENTED_EDGE ( 'NONE', *, *, #55, .T. ) ;
#29 = ORIENTED_EDGE ( 'NONE', *, *, #71, .F. ) ;
#30 = AXIS2_PLACEMENT_3D ( 'NONE', #175, #214, #263 ) ;
#31 = TOROIDAL_SURFACE ( 'NONE', #107, 4.000000000000000000, 1.000000000000000444 ) ;
#32 = MECHANICAL_DESIGN_GEOMETRIC_PRESENTATION_REPRESENTATION (  '', ( #264 ), #78 ) ;
#33 = DIRECTION ( 'NONE',  ( -0.000000000000000000, -1.000000000000000000, -0.000000000000000000 ) ) ;
#34 = SURFACE_SIDE_STYLE ('',( #354 ) ) ;
#35 = DIRECTION ( 'NONE',  ( -1.000000000000000000, 0.000000000000000000, 0.000000000000000000 ) ) ;
#36 = CARTESIAN_POINT ( 'NONE',  ( 0.000000000000000000, 25.00000000000000000, 0.000000000000000000 ) ) ;
#37 = PRESENTATION_STYLE_ASSIGNMENT (( #201 ) ) ;
#38 = EDGE_CURVE ( 'NONE', #347, #80, #319, .T. ) ;
#39 = SURFACE_STYLE_FILL_AREA ( #40 ) ;
#40 = FILL_AREA_STYLE ('',( #69 ) ) ;
#41 =( LENGTH_UNIT ( ) NAMED_UNIT ( * ) SI_UNIT ( .MILLI., .METRE. ) );
#42 = DIRECTION ( 'NONE',  ( -1.000000000000000000, 0.000000000000000000, 0.000000000000000000 ) ) ;
#43 = CARTESIAN_POINT ( 'NONE',  ( 0.000000000000000000, 25.00000000000000000, 0.000000000000000000 ) ) ;
#44 = FACE_OUTER_BOUND ( 'NONE', #170, .T. ) ;
#45 = AXIS2_PLACEMENT_3D ( 'NONE', #301, #267, #13 ) ;
#46 = CARTESIAN_POINT ( 'NONE',  ( 6.123233995736766282E-16, 25.00000000000000000, 5.000000000000000000 ) ) ;
#47 = PRESENTATION_STYLE_ASSIGNMENT (( #179 ) ) ;
#48 = SURFACE_STYLE_USAGE ( .BOTH. , #247 ) ;
#49 = ORIENTED_EDGE ( 'NONE', *, *, #202, .F. ) ;
#50 = AXIS2_PLACEMENT_3D ( 'NONE', #147, #200, #239 ) ;
#51 =( NAMED_UNIT ( * ) PLANE_ANGLE_UNIT ( ) SI_UNIT ( $, .RADIAN. ) );
#52 =( GEOMETRIC_REPRESENTATION_CONTEXT ( 3 ) GLOBAL_UNCERTAINTY_ASSIGNED_CONTEXT ( ( #97 ) ) GLOBAL_UNIT_ASSIGNED_CONTEXT ( ( #41, #334, #273 ) ) REPRESENTATION_CONTEXT ( 'NONE', 'WORKASPACE' ) );
#53 = CARTESIAN_POINT ( 'NONE',  ( 1.214306433183764966E-14, 25.00000000000000000, 0.000000000000000000 ) ) ;
#54 = EDGE_LOOP ( 'NONE', ( #7, #199 ) ) ;
#55 = EDGE_CURVE ( 'NONE', #197, #23, #331, .T. ) ;
#56 = ORIENTED_EDGE ( 'NONE', *, *, #285, .T. ) ;
#57 = ORIENTED_EDGE ( 'NONE', *, *, #85, .F. ) ;
#58 = DIRECTION ( 'NONE',  ( -0.000000000000000000, -1.000000000000000000, -0.000000000000000000 ) ) ;
#59 = DIRECTION ( 'NONE',  ( 1.000000000000000000, 0.000000000000000000, -1.224646799147353207E-16 ) ) ;
#60 = PRESENTATION_STYLE_ASSIGNMENT (( #271 ) ) ;
#61 = ADVANCED_FACE ( 'NONE', ( #269 ), #209, .T. ) ;
#62 = AXIS2_PLACEMENT_3D ( 'NONE', #90, #98, #356 ) ;
#63 =( NAMED_UNIT ( * ) PLANE_ANGLE_UNIT ( ) SI_UNIT ( $, .RADIAN. ) );
#64 =( LENGTH_UNIT ( ) NAMED_UNIT ( * ) SI_UNIT ( .MILLI., .METRE. ) );
#65 = DIRECTION ( 'NONE',  ( -1.203966067220177465E-16, 1.000000000000000000, -0.000000000000000000 ) ) ;
#66 = SURFACE_STYLE_FILL_AREA ( #330 ) ;
#67 = CARTESIAN_POINT ( 'NONE',  ( 0.000000000000000000, 1.000000000000000000, -5.000000000000000888 ) ) ;
#68 = DIRECTION ( 'NONE',  ( 0.000000000000000000, -0.000000000000000000, 1.000000000000000000 ) ) ;
#69 = FILL_AREA_STYLE_COLOUR ( '', #358 ) ;
#70 = VERTEX_POINT ( 'NONE', #353 ) ;
#71 = EDGE_CURVE ( 'NONE', #197, #83, #343, .T. ) ;
#72 = CARTESIAN_POINT ( 'NONE',  ( -4.999999999999976019, 25.00000000000000000, 0.000000000000000000 ) ) ;
#73 = SURFACE_SIDE_STYLE ('',( #104 ) ) ;
#74 = CARTESIAN_POINT ( 'NONE',  ( 5.000000000000000000, 75.00000000000000000, 0.000000000000000000 ) ) ;
#75 = ORIENTED_EDGE ( 'NONE', *, *, #102, .T. ) ;
#76 = MECHANICAL_DESIGN_GEOMETRIC_PRESENTATION_REPRESENTATION (  '', ( #321 ), #192 ) ;
#77 = EDGE_LOOP ( 'NONE', ( #119, #342 ) ) ;
#78 =( GEOMETRIC_REPRESENTATION_CONTEXT ( 3 ) GLOBAL_UNCERTAINTY_ASSIGNED_CONTEXT ( ( #270 ) ) GLOBAL_UNIT_ASSIGNED_CONTEXT ( ( #292, #320, #124 ) ) REPRESENTATION_CONTEXT ( 'NONE', 'WORKASPACE' ) );
#79 = EDGE_LOOP ( 'NONE', ( #235, #144, #311, #29 ) ) ;
#80 = VERTEX_POINT ( 'NONE', #184 ) ;
#81 = SHAPE_DEFINITION_REPRESENTATION ( #216, #174 ) ;
#82 = DIRECTION ( 'NONE',  ( -1.000000000000000000, 0.000000000000000000, 0.000000000000000000 ) ) ;
#83 = VERTEX_POINT ( 'NONE', #67 ) ;
#84 = SURFACE_STYLE_FILL_AREA ( #8 ) ;
#85 = EDGE_CURVE ( 'NONE', #198, #249, #3, .T. ) ;
#86 = CARTESIAN_POINT ( 'NONE',  ( 0.000000000000000000, 1.000000000000000000, 0.000000000000000000 ) ) ;
#87 =( NAMED_UNIT ( * ) PLANE_ANGLE_UNIT ( ) SI_UNIT ( $, .RADIAN. ) );
#88 = VECTOR ( 'NONE', #363, 1000.000000000000000 ) ;
#89 = CIRCLE ( 'NONE', #203, 1.000000000000000444 ) ;
#90 = CARTESIAN_POINT ( 'NONE',  ( 6.123233995736762930E-15, 75.00000000000000000, 0.000000000000000000 ) ) ;
#91 = COLOUR_RGB ( '',0.7921568627450980005, 0.8196078431372548767, 0.9333333333333333481 ) ;
#92 = CARTESIAN_POINT ( 'NONE',  ( 0.000000000000000000, 1.000000000000000000, 0.000000000000000000 ) ) ;
#93 = DIRECTION ( 'NONE',  ( 0.000000000000000000, 0.000000000000000000, -1.000000000000000000 ) ) ;
#94 =( NAMED_UNIT ( * ) PLANE_ANGLE_UNIT ( ) SI_UNIT ( $, .RADIAN. ) );
#95 = PLANE ( 'NONE',  #345 ) ;
#96 = DIRECTION ( 'NONE',  ( 0.000000000000000000, 0.000000000000000000, -1.000000000000000000 ) ) ;
#97 = UNCERTAINTY_MEASURE_WITH_UNIT (LENGTH_MEASURE( 1.000000000000000082E-05 ), #41, 'distance_accuracy_value', 'NONE');
#98 = DIRECTION ( 'NONE',  ( -1.203966067220177465E-16, 1.000000000000000000, -0.000000000000000000 ) ) ;
#99 = DIRECTION ( 'NONE',  ( 0.000000000000000000, 0.000000000000000000, 1.000000000000000000 ) ) ;
#100 = DIRECTION ( 'NONE',  ( -0.000000000000000000, -1.000000000000000000, -0.000000000000000000 ) ) ;
#101 = DIRECTION ( 'NONE',  ( 0.000000000000000000, 1.000000000000000000, 0.000000000000000000 ) ) ;
#102 = EDGE_CURVE ( 'NONE', #83, #286, #89, .T. ) ;
#103 = PRODUCT ( '59498', '59498', '', ( #346 ) ) ;
#104 = SURFACE_STYLE_FILL_AREA ( #369 ) ;
#105 = LINE ( 'NONE', #19, #10 ) ;
#106 = PLANE ( 'NONE',  #328 ) ;
#107 = AXIS2_PLACEMENT_3D ( 'NONE', #362, #143, #268 ) ;
#108 = EDGE_CURVE ( 'NONE', #286, #23, #132, .T. ) ;
#109 =( GEOMETRIC_REPRESENTATION_CONTEXT ( 3 ) GLOBAL_UNCERTAINTY_ASSIGNED_CONTEXT ( ( #297 ) ) GLOBAL_UNIT_ASSIGNED_CONTEXT ( ( #220, #302, #278 ) ) REPRESENTATION_CONTEXT ( 'NONE', 'WORKASPACE' ) );
#110 = DIRECTION ( 'NONE',  ( 1.000000000000000000, 1.203966067220177465E-16, 0.000000000000000000 ) ) ;
#111 = ORIENTED_EDGE ( 'NONE', *, *, #142, .T. ) ;
#112 = ORIENTED_EDGE ( 'NONE', *, *, #142, .F. ) ;
#113 = PRESENTATION_LAYER_ASSIGNMENT (  '', '', ( #141 ) ) ;
#114 = APPLICATION_PROTOCOL_DEFINITION ( 'draft international standard', 'automotive_design', 1998, #309 ) ;
#115 = PRODUCT_DEFINITION ( 'UNKNOWN', '', #5, #178 ) ;
#116 = PRESENTATION_LAYER_ASSIGNMENT (  '', '', ( #222 ) ) ;
#117 = AXIS2_PLACEMENT_3D ( 'NONE', #127, #176, #146 ) ;
#118 = ORIENTED_EDGE ( 'NONE', *, *, #359, .F. ) ;
#119 = ORIENTED_EDGE ( 'NONE', *, *, #26, .T. ) ;
#120 = STYLED_ITEM ( 'NONE', ( #225 ), #228 ) ;
#121 = FILL_AREA_STYLE ('',( #296 ) ) ;
#122 = CARTESIAN_POINT ( 'NONE',  ( 0.000000000000000000, 1.000000000000000000, 0.000000000000000000 ) ) ;
#123 =( GEOMETRIC_REPRESENTATION_CONTEXT ( 3 ) GLOBAL_UNCERTAINTY_ASSIGNED_CONTEXT ( ( #204 ) ) GLOBAL_UNIT_ASSIGNED_CONTEXT ( ( #148, #367, #246 ) ) REPRESENTATION_CONTEXT ( 'NONE', 'WORKASPACE' ) );
#124 =( NAMED_UNIT ( * ) SI_UNIT ( $, .STERADIAN. ) SOLID_ANGLE_UNIT ( ) );
#125 = CARTESIAN_POINT ( 'NONE',  ( 6.123233995736762930E-15, 75.00000000000000000, 0.000000000000000000 ) ) ;
#126 = SURFACE_STYLE_USAGE ( .BOTH. , #298 ) ;
#127 = CARTESIAN_POINT ( 'NONE',  ( 0.000000000000000000, 0.000000000000000000, 0.000000000000000000 ) ) ;
#128 = PRESENTATION_STYLE_ASSIGNMENT (( #17 ) ) ;
#129 = UNCERTAINTY_MEASURE_WITH_UNIT (LENGTH_MEASURE( 1.000000000000000082E-05 ), #136, 'distance_accuracy_value', 'NONE');
#130 = FACE_OUTER_BOUND ( 'NONE', #54, .T. ) ;
#131 = EDGE_CURVE ( 'NONE', #70, #80, #168, .T. ) ;
#132 = CIRCLE ( 'NONE', #45, 4.000000000000000000 ) ;
#133 =( LENGTH_UNIT ( ) NAMED_UNIT ( * ) SI_UNIT ( .MILLI., .METRE. ) );
#134 = CIRCLE ( 'NONE', #344, 5.000000000000000000 ) ;
#135 = DIRECTION ( 'NONE',  ( -1.203966067220177465E-16, 1.000000000000000000, 0.000000000000000000 ) ) ;
#136 =( LENGTH_UNIT ( ) NAMED_UNIT ( * ) SI_UNIT ( .MILLI., .METRE. ) );
#137 = CIRCLE ( 'NONE', #195, 4.999999999999987566 ) ;
#138 = ORIENTED_EDGE ( 'NONE', *, *, #131, .F. ) ;
#139 = ADVANCED_FACE ( 'NONE', ( #326 ), #160, .T. ) ;
#140 = CLOSED_SHELL ( 'NONE', ( #155, #336, #16, #349 ) ) ;
#141 = STYLED_ITEM ( 'NONE', ( #217 ), #187 ) ;
#142 = EDGE_CURVE ( 'NONE', #226, #70, #211, .T. ) ;
#143 = DIRECTION ( 'NONE',  ( -0.000000000000000000, -1.000000000000000000, -0.000000000000000000 ) ) ;
#144 = ORIENTED_EDGE ( 'NONE', *, *, #85, .T. ) ;
#145 = ORIENTED_EDGE ( 'NONE', *, *, #55, .F. ) ;
#146 = DIRECTION ( 'NONE',  ( 0.000000000000000000, 0.000000000000000000, -1.000000000000000000 ) ) ;
#147 = CARTESIAN_POINT ( 'NONE',  ( 6.123233995736762930E-15, 75.00000000000000000, 0.000000000000000000 ) ) ;
#148 =( LENGTH_UNIT ( ) NAMED_UNIT ( * ) SI_UNIT ( .MILLI., .METRE. ) );
#149 = CARTESIAN_POINT ( 'NONE',  ( 6.123233995736766282E-16, 1.000000000000000000, 5.000000000000000888 ) ) ;
#150 = CARTESIAN_POINT ( 'NONE',  ( 5.510910596163089556E-16, 0.000000000000000000, 4.000000000000000000 ) ) ;
#151 = CARTESIAN_POINT ( 'NONE',  ( 0.000000000000000000, 25.00000000000000000, -5.000000000000000000 ) ) ;
#152 = STYLED_ITEM ( 'NONE', ( #47 ), #316 ) ;
#153 = SURFACE_SIDE_STYLE ('',( #186 ) ) ;
#154 = DIRECTION ( 'NONE',  ( 0.000000000000000000, -1.000000000000000000, -0.000000000000000000 ) ) ;
#155 = ADVANCED_FACE ( 'NONE', ( #272 ), #243, .T. ) ;
#156 = FILL_AREA_STYLE_COLOUR ( '', #6 ) ;
#157 = ORIENTED_EDGE ( 'NONE', *, *, #261, .T. ) ;
#158 = SURFACE_SIDE_STYLE ('',( #39 ) ) ;
#159 = CARTESIAN_POINT ( 'NONE',  ( 5.000000000000000888, 25.00000000000000000, 6.123233995736757408E-16 ) ) ;
#160 = TOROIDAL_SURFACE ( 'NONE', #275, 4.000000000000000000, 1.000000000000000444 ) ;
#161 = CYLINDRICAL_SURFACE ( 'NONE', #62, 4.999999999999990230 ) ;
#162 = VECTOR ( 'NONE', #212, 1000.000000000000000 ) ;
#163 = AXIS2_PLACEMENT_3D ( 'NONE', #315, #234, #348 ) ;
#164 = COLOUR_RGB ( '',1.000000000000000000, 0.000000000000000000, 0.000000000000000000 ) ;
#165 = FACE_OUTER_BOUND ( 'NONE', #77, .T. ) ;
#166 = COLOUR_RGB ( '',1.000000000000000000, 0.000000000000000000, 0.000000000000000000 ) ;
#167 = PRODUCT_RELATED_PRODUCT_CATEGORY ( 'part', '', ( #103 ) ) ;
#168 = CIRCLE ( 'NONE', #230, 4.999999999999993783 ) ;
#169 = DIRECTION ( 'NONE',  ( -1.000000000000000000, 0.000000000000000000, 0.000000000000000000 ) ) ;
#170 = EDGE_LOOP ( 'NONE', ( #112, #312, #252, #138 ) ) ;
#171 = DIRECTION ( 'NONE',  ( -1.203966067220177465E-16, 1.000000000000000000, -0.000000000000000000 ) ) ;
#172 = COLOUR_RGB ( '',1.000000000000000000, 0.000000000000000000, 0.000000000000000000 ) ;
#173 = SURFACE_STYLE_USAGE ( .BOTH. , #158 ) ;
#174 = ADVANCED_BREP_SHAPE_REPRESENTATION ( '59498', ( #316, #187, #163 ), #238 ) ;
#175 = CARTESIAN_POINT ( 'NONE',  ( 0.000000000000000000, 0.000000000000000000, 0.000000000000000000 ) ) ;
#176 = DIRECTION ( 'NONE',  ( -0.000000000000000000, -1.000000000000000000, -0.000000000000000000 ) ) ;
#177 = LINE ( 'NONE', #352, #162 ) ;
#178 = PRODUCT_DEFINITION_CONTEXT ( 'detailed design', #318, 'design' ) ;
#179 = SURFACE_STYLE_USAGE ( .BOTH. , #305 ) ;
#180 = FILL_AREA_STYLE_COLOUR ( '', #357 ) ;
#181 = SURFACE_SIDE_STYLE ('',( #66 ) ) ;
#182 = CIRCLE ( 'NONE', #224, 4.000000000000000000 ) ;
#183 = AXIS2_PLACEMENT_3D ( 'NONE', #43, #101, #68 ) ;
#184 = CARTESIAN_POINT ( 'NONE',  ( -4.999999999999987566, 75.00000000000000000, 0.000000000000000000 ) ) ;
#185 = FACE_OUTER_BOUND ( 'NONE', #79, .T. ) ;
#186 = SURFACE_STYLE_FILL_AREA ( #121 ) ;
#187 = MANIFOLD_SOLID_BREP ( 'Revolve - Tool Body (Straight Shanked)', #140 ) ;
#188 = MECHANICAL_DESIGN_GEOMETRIC_PRESENTATION_REPRESENTATION (  '', ( #308 ), #12 ) ;
#189 = MECHANICAL_DESIGN_GEOMETRIC_PRESENTATION_REPRESENTATION (  '', ( #141 ), #123 ) ;
#190 = PLANE ( 'NONE',  #2 ) ;
#191 = DIRECTION ( 'NONE',  ( 1.203966067220177465E-16, -1.000000000000000000, 0.000000000000000000 ) ) ;
#192 =( GEOMETRIC_REPRESENTATION_CONTEXT ( 3 ) GLOBAL_UNCERTAINTY_ASSIGNED_CONTEXT ( ( #355 ) ) GLOBAL_UNIT_ASSIGNED_CONTEXT ( ( #133, #63, #240 ) ) REPRESENTATION_CONTEXT ( 'NONE', 'WORKASPACE' ) );
#193 = ORIENTED_EDGE ( 'NONE', *, *, #71, .T. ) ;
#194 = ORIENTED_EDGE ( 'NONE', *, *, #38, .F. ) ;
#195 = AXIS2_PLACEMENT_3D ( 'NONE', #53, #256, #82 ) ;
#196 = EDGE_CURVE ( 'NONE', #249, #198, #134, .T. ) ;
#197 = VERTEX_POINT ( 'NONE', #149 ) ;
#198 = VERTEX_POINT ( 'NONE', #46 ) ;
#199 = ORIENTED_EDGE ( 'NONE', *, *, #317, .T. ) ;
#200 = DIRECTION ( 'NONE',  ( -1.203966067220177465E-16, 1.000000000000000000, -0.000000000000000000 ) ) ;
#201 = SURFACE_STYLE_USAGE ( .BOTH. , #34 ) ;
#202 = EDGE_CURVE ( 'NONE', #249, #83, #105, .T. ) ;
#203 = AXIS2_PLACEMENT_3D ( 'NONE', #289, #42, #99 ) ;
#204 = UNCERTAINTY_MEASURE_WITH_UNIT (LENGTH_MEASURE( 1.000000000000000082E-05 ), #148, 'distance_accuracy_value', 'NONE');
#205 = CIRCLE ( 'NONE', #254, 4.999999999999987566 ) ;
#206 = CARTESIAN_POINT ( 'NONE',  ( 4.898587196589412829E-16, 1.000000000000000000, 4.000000000000000000 ) ) ;
#207 = FILL_AREA_STYLE ('',( #210 ) ) ;
#208 = PRESENTATION_LAYER_ASSIGNMENT (  '', '', ( #231 ) ) ;
#209 = CYLINDRICAL_SURFACE ( 'NONE', #30, 5.000000000000000888 ) ;
#210 = FILL_AREA_STYLE_COLOUR ( '', #223 ) ;
#211 = LINE ( 'NONE', #244, #253 ) ;
#212 = DIRECTION ( 'NONE',  ( -0.000000000000000000, -1.000000000000000000, -0.000000000000000000 ) ) ;
#213 = ADVANCED_FACE ( 'NONE', ( #20 ), #304, .T. ) ;
#214 = DIRECTION ( 'NONE',  ( -0.000000000000000000, -1.000000000000000000, -0.000000000000000000 ) ) ;
#215 = FILL_AREA_STYLE_COLOUR ( '', #164 ) ;
#216 = PRODUCT_DEFINITION_SHAPE ( 'NONE', 'NONE',  #115 ) ;
#217 = PRESENTATION_STYLE_ASSIGNMENT (( #173 ) ) ;
#218 = CLOSED_SHELL ( 'NONE', ( #61, #139, #232, #250, #228, #213 ) ) ;
#219 = DIRECTION ( 'NONE',  ( 0.000000000000000000, 0.000000000000000000, -1.000000000000000000 ) ) ;
#220 =( LENGTH_UNIT ( ) NAMED_UNIT ( * ) SI_UNIT ( .MILLI., .METRE. ) );
#221 = DIRECTION ( 'NONE',  ( -1.203966067220177465E-16, 1.000000000000000000, -0.000000000000000000 ) ) ;
#222 = STYLED_ITEM ( 'NONE', ( #370 ), #213 ) ;
#223 = COLOUR_RGB ( '',1.000000000000000000, 0.000000000000000000, 0.000000000000000000 ) ;
#224 = AXIS2_PLACEMENT_3D ( 'NONE', #284, #277, #21 ) ;
#225 = PRESENTATION_STYLE_ASSIGNMENT (( #248 ) ) ;
#226 = VERTEX_POINT ( 'NONE', #159 ) ;
#227 = FACE_OUTER_BOUND ( 'NONE', #233, .T. ) ;
#228 = ADVANCED_FACE ( 'NONE', ( #185 ), #340, .T. ) ;
#229 = ORIENTED_EDGE ( 'NONE', *, *, #196, .T. ) ;
#230 = AXIS2_PLACEMENT_3D ( 'NONE', #125, #65, #322 ) ;
#231 = STYLED_ITEM ( 'NONE', ( #60 ), #250 ) ;
#232 = ADVANCED_FACE ( 'NONE', ( #130 ), #95, .T. ) ;
#233 = EDGE_LOOP ( 'NONE', ( #118, #236 ) ) ;
#234 = DIRECTION ( 'NONE',  ( 0.000000000000000000, 0.000000000000000000, 1.000000000000000000 ) ) ;
#235 = ORIENTED_EDGE ( 'NONE', *, *, #285, .F. ) ;
#236 = ORIENTED_EDGE ( 'NONE', *, *, #306, .F. ) ;
#237 = AXIS2_PLACEMENT_3D ( 'NONE', #122, #58, #93 ) ;
#238 =( GEOMETRIC_REPRESENTATION_CONTEXT ( 3 ) GLOBAL_UNCERTAINTY_ASSIGNED_CONTEXT ( ( #366 ) ) GLOBAL_UNIT_ASSIGNED_CONTEXT ( ( #279, #338, #24 ) ) REPRESENTATION_CONTEXT ( 'NONE', 'WORKASPACE' ) );
#239 = DIRECTION ( 'NONE',  ( -1.000000000000000000, 0.000000000000000000, 0.000000000000000000 ) ) ;
#240 =( NAMED_UNIT ( * ) SI_UNIT ( $, .STERADIAN. ) SOLID_ANGLE_UNIT ( ) );
#241 = UNCERTAINTY_MEASURE_WITH_UNIT (LENGTH_MEASURE( 1.000000000000000082E-05 ), #364, 'distance_accuracy_value', 'NONE');
#242 =( NAMED_UNIT ( * ) SI_UNIT ( $, .STERADIAN. ) SOLID_ANGLE_UNIT ( ) );
#243 = CYLINDRICAL_SURFACE ( 'NONE', #303, 4.999999999999990230 ) ;
#244 = CARTESIAN_POINT ( 'NONE',  ( 4.999999999999996447, 75.00000000000000000, 6.123233995736754449E-16 ) ) ;
#245 = SURFACE_STYLE_FILL_AREA ( #307 ) ;
#246 =( NAMED_UNIT ( * ) SI_UNIT ( $, .STERADIAN. ) SOLID_ANGLE_UNIT ( ) );
#247 = SURFACE_SIDE_STYLE ('',( #245 ) ) ;
#248 = SURFACE_STYLE_USAGE ( .BOTH. , #73 ) ;
#249 = VERTEX_POINT ( 'NONE', #151 ) ;
#250 = ADVANCED_FACE ( 'NONE', ( #15 ), #31, .T. ) ;
#251 = EDGE_LOOP ( 'NONE', ( #229, #56, #310, #49 ) ) ;
#252 = ORIENTED_EDGE ( 'NONE', *, *, #38, .T. ) ;
#253 = VECTOR ( 'NONE', #293, 1000.000000000000000 ) ;
#254 = AXIS2_PLACEMENT_3D ( 'NONE', #329, #171, #169 ) ;
#255 = ORIENTED_EDGE ( 'NONE', *, *, #196, .F. ) ;
#256 = DIRECTION ( 'NONE',  ( -1.203966067220177465E-16, 1.000000000000000000, -0.000000000000000000 ) ) ;
#257 = FILL_AREA_STYLE_COLOUR ( '', #91 ) ;
#258 = ORIENTED_EDGE ( 'NONE', *, *, #359, .T. ) ;
#259 = AXIS2_PLACEMENT_3D ( 'NONE', #206, #59, #288 ) ;
#260 = AXIS2_PLACEMENT_3D ( 'NONE', #86, #33, #333 ) ;
#261 = EDGE_CURVE ( 'NONE', #83, #197, #18, .T. ) ;
#262 = EDGE_LOOP ( 'NONE', ( #145, #193, #75, #350 ) ) ;
#263 = DIRECTION ( 'NONE',  ( 0.000000000000000000, 0.000000000000000000, -1.000000000000000000 ) ) ;
#264 = STYLED_ITEM ( 'NONE', ( #37 ), #232 ) ;
#265 = CARTESIAN_POINT ( 'NONE',  ( -4.999999999999984901, 75.00000000000000000, 0.000000000000000000 ) ) ;
#266 = CIRCLE ( 'NONE', #50, 4.999999999999993783 ) ;
#267 = DIRECTION ( 'NONE',  ( -0.000000000000000000, -1.000000000000000000, -0.000000000000000000 ) ) ;
#268 = DIRECTION ( 'NONE',  ( 0.000000000000000000, 0.000000000000000000, -1.000000000000000000 ) ) ;
#269 = FACE_OUTER_BOUND ( 'NONE', #251, .T. ) ;
#270 = UNCERTAINTY_MEASURE_WITH_UNIT (LENGTH_MEASURE( 1.000000000000000082E-05 ), #292, 'distance_accuracy_value', 'NONE');
#271 = SURFACE_STYLE_USAGE ( .BOTH. , #181 ) ;
#272 = FACE_OUTER_BOUND ( 'NONE', #281, .T. ) ;
#273 =( NAMED_UNIT ( * ) SI_UNIT ( $, .STERADIAN. ) SOLID_ANGLE_UNIT ( ) );
#274 = PRESENTATION_LAYER_ASSIGNMENT (  '', '', ( #308 ) ) ;
#275 = AXIS2_PLACEMENT_3D ( 'NONE', #92, #332, #96 ) ;
#276 = FILL_AREA_STYLE_COLOUR ( '', #166 ) ;
#277 = DIRECTION ( 'NONE',  ( -0.000000000000000000, -1.000000000000000000, -0.000000000000000000 ) ) ;
#278 =( NAMED_UNIT ( * ) SI_UNIT ( $, .STERADIAN. ) SOLID_ANGLE_UNIT ( ) );
#279 =( LENGTH_UNIT ( ) NAMED_UNIT ( * ) SI_UNIT ( .MILLI., .METRE. ) );
#280 = DIRECTION ( 'NONE',  ( -0.000000000000000000, -1.000000000000000000, -0.000000000000000000 ) ) ;
#281 = EDGE_LOOP ( 'NONE', ( #258, #111, #314, #194 ) ) ;
#282 =( NAMED_UNIT ( * ) SI_UNIT ( $, .STERADIAN. ) SOLID_ANGLE_UNIT ( ) );
#283 = ORIENTED_EDGE ( 'NONE', *, *, #108, .F. ) ;
#284 = CARTESIAN_POINT ( 'NONE',  ( 0.000000000000000000, 0.000000000000000000, 0.000000000000000000 ) ) ;
#285 = EDGE_CURVE ( 'NONE', #198, #197, #177, .T. ) ;
#286 = VERTEX_POINT ( 'NONE', #294 ) ;
#287 = AXIS2_PLACEMENT_3D ( 'NONE', #300, #100, #219 ) ;
#288 = DIRECTION ( 'NONE',  ( -1.224646799147353454E-16, 0.000000000000000000, -1.000000000000000000 ) ) ;
#289 = CARTESIAN_POINT ( 'NONE',  ( 0.000000000000000000, 1.000000000000000000, -4.000000000000000000 ) ) ;
#290 = UNCERTAINTY_MEASURE_WITH_UNIT (LENGTH_MEASURE( 1.000000000000000082E-05 ), #64, 'distance_accuracy_value', 'NONE');
#291 = PRESENTATION_STYLE_ASSIGNMENT (( #126 ) ) ;
#292 =( LENGTH_UNIT ( ) NAMED_UNIT ( * ) SI_UNIT ( .MILLI., .METRE. ) );
#293 = DIRECTION ( 'NONE',  ( -1.203966067220177465E-16, 1.000000000000000000, -0.000000000000000000 ) ) ;
#294 = CARTESIAN_POINT ( 'NONE',  ( 0.000000000000000000, 0.000000000000000000, -4.000000000000000000 ) ) ;
#295 = DIRECTION ( 'NONE',  ( 0.000000000000000000, 0.000000000000000000, -1.000000000000000000 ) ) ;
#296 = FILL_AREA_STYLE_COLOUR ( '', #172 ) ;
#297 = UNCERTAINTY_MEASURE_WITH_UNIT (LENGTH_MEASURE( 1.000000000000000082E-05 ), #220, 'distance_accuracy_value', 'NONE');
#298 = SURFACE_SIDE_STYLE ('',( #323 ) ) ;
#299 = CARTESIAN_POINT ( 'NONE',  ( 6.123233995736762930E-15, 75.00000000000000000, 0.000000000000000000 ) ) ;
#300 = CARTESIAN_POINT ( 'NONE',  ( 0.000000000000000000, 25.00000000000000000, 0.000000000000000000 ) ) ;
#301 = CARTESIAN_POINT ( 'NONE',  ( 0.000000000000000000, 0.000000000000000000, 0.000000000000000000 ) ) ;
#302 =( NAMED_UNIT ( * ) PLANE_ANGLE_UNIT ( ) SI_UNIT ( $, .RADIAN. ) );
#303 = AXIS2_PLACEMENT_3D ( 'NONE', #299, #221, #35 ) ;
#304 = PLANE ( 'NONE',  #183 ) ;
#305 = SURFACE_SIDE_STYLE ('',( #84 ) ) ;
#306 = EDGE_CURVE ( 'NONE', #226, #347, #205, .T. ) ;
#307 = FILL_AREA_STYLE ('',( #156 ) ) ;
#308 = STYLED_ITEM ( 'NONE', ( #291 ), #61 ) ;
#309 = APPLICATION_CONTEXT ( 'automotive_design' ) ;
#310 = ORIENTED_EDGE ( 'NONE', *, *, #261, .F. ) ;
#311 = ORIENTED_EDGE ( 'NONE', *, *, #202, .T. ) ;
#312 = ORIENTED_EDGE ( 'NONE', *, *, #306, .T. ) ;
#313 = APPLICATION_PROTOCOL_DEFINITION ( 'draft international standard', 'automotive_design', 1998, #318 ) ;
#314 = ORIENTED_EDGE ( 'NONE', *, *, #26, .F. ) ;
#315 = CARTESIAN_POINT ( 'NONE',  ( 0.000000000000000000, 0.000000000000000000, 0.000000000000000000 ) ) ;
#316 = MANIFOLD_SOLID_BREP ( 'Revolve - Cutting Edge', #218 ) ;
#317 = EDGE_CURVE ( 'NONE', #23, #286, #182, .T. ) ;
#318 = APPLICATION_CONTEXT ( 'automotive_design' ) ;
#319 = LINE ( 'NONE', #265, #88 ) ;
#320 =( NAMED_UNIT ( * ) PLANE_ANGLE_UNIT ( ) SI_UNIT ( $, .RADIAN. ) );
#321 = STYLED_ITEM ( 'NONE', ( #128 ), #139 ) ;
#322 = DIRECTION ( 'NONE',  ( -1.000000000000000000, 0.000000000000000000, 0.000000000000000000 ) ) ;
#323 = SURFACE_STYLE_FILL_AREA ( #14 ) ;
#324 = MECHANICAL_DESIGN_GEOMETRIC_PRESENTATION_REPRESENTATION (  '', ( #222 ), #109 ) ;
#325 = MECHANICAL_DESIGN_GEOMETRIC_PRESENTATION_REPRESENTATION (  '', ( #120 ), #52 ) ;
#326 = FACE_OUTER_BOUND ( 'NONE', #11, .T. ) ;
#327 = CARTESIAN_POINT ( 'NONE',  ( 0.000000000000000000, 0.000000000000000000, 0.000000000000000000 ) ) ;
#328 = AXIS2_PLACEMENT_3D ( 'NONE', #335, #135, #341 ) ;
#329 = CARTESIAN_POINT ( 'NONE',  ( 1.214306433183764966E-14, 25.00000000000000000, 0.000000000000000000 ) ) ;
#330 = FILL_AREA_STYLE ('',( #215 ) ) ;
#331 = CIRCLE ( 'NONE', #259, 1.000000000000000444 ) ;
#332 = DIRECTION ( 'NONE',  ( -0.000000000000000000, -1.000000000000000000, -0.000000000000000000 ) ) ;
#333 = DIRECTION ( 'NONE',  ( 0.000000000000000000, 0.000000000000000000, -1.000000000000000000 ) ) ;
#334 =( NAMED_UNIT ( * ) PLANE_ANGLE_UNIT ( ) SI_UNIT ( $, .RADIAN. ) );
#335 = CARTESIAN_POINT ( 'NONE',  ( 1.214306433183764966E-14, 25.00000000000000000, 0.000000000000000000 ) ) ;
#336 = ADVANCED_FACE ( 'NONE', ( #227 ), #106, .F. ) ;
#337 = PRESENTATION_LAYER_ASSIGNMENT (  '', '', ( #321 ) ) ;
#338 =( NAMED_UNIT ( * ) PLANE_ANGLE_UNIT ( ) SI_UNIT ( $, .RADIAN. ) );
#339 = MECHANICAL_DESIGN_GEOMETRIC_PRESENTATION_REPRESENTATION (  '', ( #152 ), #351 ) ;
#340 = CYLINDRICAL_SURFACE ( 'NONE', #117, 5.000000000000000888 ) ;
#341 = DIRECTION ( 'NONE',  ( -1.000000000000000000, -1.203966067220177465E-16, 0.000000000000000000 ) ) ;
#342 = ORIENTED_EDGE ( 'NONE', *, *, #131, .T. ) ;
#343 = CIRCLE ( 'NONE', #260, 5.000000000000000888 ) ;
#344 = AXIS2_PLACEMENT_3D ( 'NONE', #36, #365, #361 ) ;
#345 = AXIS2_PLACEMENT_3D ( 'NONE', #327, #154, #295 ) ;
#346 = PRODUCT_CONTEXT ( 'NONE', #309, 'mechanical' ) ;
#347 = VERTEX_POINT ( 'NONE', #72 ) ;
#348 = DIRECTION ( 'NONE',  ( 1.000000000000000000, 0.000000000000000000, 0.000000000000000000 ) ) ;
#349 = ADVANCED_FACE ( 'NONE', ( #165 ), #190, .F. ) ;
#350 = ORIENTED_EDGE ( 'NONE', *, *, #317, .F. ) ;
#351 =( GEOMETRIC_REPRESENTATION_CONTEXT ( 3 ) GLOBAL_UNCERTAINTY_ASSIGNED_CONTEXT ( ( #129 ) ) GLOBAL_UNIT_ASSIGNED_CONTEXT ( ( #136, #51, #282 ) ) REPRESENTATION_CONTEXT ( 'NONE', 'WORKASPACE' ) );
#352 = CARTESIAN_POINT ( 'NONE',  ( 6.123233995736767268E-16, 0.000000000000000000, 5.000000000000000888 ) ) ;
#353 = CARTESIAN_POINT ( 'NONE',  ( 5.000000000000000888, 75.00000000000000000, 6.123233995736757408E-16 ) ) ;
#354 = SURFACE_STYLE_FILL_AREA ( #207 ) ;
#355 = UNCERTAINTY_MEASURE_WITH_UNIT (LENGTH_MEASURE( 1.000000000000000082E-05 ), #133, 'distance_accuracy_value', 'NONE');
#356 = DIRECTION ( 'NONE',  ( -1.000000000000000000, 0.000000000000000000, 0.000000000000000000 ) ) ;
#357 = COLOUR_RGB ( '',1.000000000000000000, 0.000000000000000000, 0.000000000000000000 ) ;
#358 = COLOUR_RGB ( '',0.7921568627450980005, 0.8196078431372548767, 0.9333333333333333481 ) ;
#359 = EDGE_CURVE ( 'NONE', #347, #226, #137, .T. ) ;
#360 = MECHANICAL_DESIGN_GEOMETRIC_PRESENTATION_REPRESENTATION (  '', ( #231 ), #4 ) ;
#361 = DIRECTION ( 'NONE',  ( 0.000000000000000000, 0.000000000000000000, -1.000000000000000000 ) ) ;
#362 = CARTESIAN_POINT ( 'NONE',  ( 0.000000000000000000, 1.000000000000000000, 0.000000000000000000 ) ) ;
#363 = DIRECTION ( 'NONE',  ( -1.203966067220177465E-16, 1.000000000000000000, -0.000000000000000000 ) ) ;
#364 =( LENGTH_UNIT ( ) NAMED_UNIT ( * ) SI_UNIT ( .MILLI., .METRE. ) );
#365 = DIRECTION ( 'NONE',  ( -0.000000000000000000, -1.000000000000000000, -0.000000000000000000 ) ) ;
#366 = UNCERTAINTY_MEASURE_WITH_UNIT (LENGTH_MEASURE( 1.000000000000000082E-05 ), #279, 'distance_accuracy_value', 'NONE');
#367 =( NAMED_UNIT ( * ) PLANE_ANGLE_UNIT ( ) SI_UNIT ( $, .RADIAN. ) );
#368 = PRESENTATION_LAYER_ASSIGNMENT (  '', '', ( #264 ) ) ;
#369 = FILL_AREA_STYLE ('',( #276 ) ) ;
#370 = PRESENTATION_STYLE_ASSIGNMENT (( #48 ) ) ;
ENDSEC;
END-ISO-10303-21;
