ISO-10303-21;
HEADER;
FILE_DESCRIPTION (( 'STEP AP214' ),
    '1' );
FILE_NAME ('Micro_BMRM-006-2X.STEP',
    '2021-09-03T14:16:41',
    ( '' ),
    ( '' ),
    'SwSTEP 2.0',
    'SolidWorks 2020',
    '' );
FILE_SCHEMA (( 'AUTOMOTIVE_DESIGN' ));
ENDSEC;

DATA;
#1 = ORIENTED_EDGE ( 'NONE', *, *, #264, .F. ) ;
#2 = CARTESIAN_POINT ( 'NONE',  ( 0.07874000000000000443, 9.642868896486258509E-18, 1.968503999999999809 ) ) ;
#3 = STYLED_ITEM ( 'NONE', ( #287 ), #159 ) ;
#4 = EDGE_CURVE ( 'NONE', #51, #21, #319, .T. ) ;
#5 = DIRECTION ( 'NONE',  ( 1.000000000000000000, 0.0000000000000000000, 0.0000000000000000000 ) ) ;
#6 = CARTESIAN_POINT ( 'NONE',  ( 0.07874000000000004607, 9.642868896486264672E-18, 0.4505062044147631894 ) ) ;
#7 = CIRCLE ( 'NONE', #187, 0.01179918899999999986 ) ;
#8 = CARTESIAN_POINT ( 'NONE',  ( 0.06374000000000018540, 8.724383797125754882E-18, 1.968503999999999809 ) ) ;
#9 =( NAMED_UNIT ( * ) PLANE_ANGLE_UNIT ( ) SI_UNIT ( $, .RADIAN. ) );
#10 = FACE_OUTER_BOUND ( 'NONE', #272, .T. ) ;
#11 = DIRECTION ( 'NONE',  ( 0.7071067811865502373, 8.659560562354966138E-17, -0.7071067811865446862 ) ) ;
#12 = SPHERICAL_SURFACE ( 'NONE', #273, 0.01179918899999999986 ) ;
#13 = CARTESIAN_POINT ( 'NONE',  ( -0.07874000000000000443, 0.0000000000000000000, 1.953504000000000129 ) ) ;
#14 = AXIS2_PLACEMENT_3D ( 'NONE', #102, #78, #5 ) ;
#15 = DIRECTION ( 'NONE',  ( 0.0000000000000000000, 1.000000000000000000, 0.0000000000000000000 ) ) ;
#16 = AXIS2_PLACEMENT_3D ( 'NONE', #183, #263, #238 ) ;
#17 = PRODUCT ( 'Micro_BMRM-006-2X', 'Micro_BMRM-006-2X', '', ( #193 ) ) ;
#18 = EDGE_LOOP ( 'NONE', ( #75, #299, #25 ) ) ;
#19 = EDGE_CURVE ( 'NONE', #105, #73, #232, .T. ) ;
#20 =( NAMED_UNIT ( * ) PLANE_ANGLE_UNIT ( ) SI_UNIT ( $, .RADIAN. ) );
#21 = VERTEX_POINT ( 'NONE', #77 ) ;
#22 = ORIENTED_EDGE ( 'NONE', *, *, #241, .T. ) ;
#23 = MECHANICAL_DESIGN_GEOMETRIC_PRESENTATION_REPRESENTATION (  '', ( #3 ), #164 ) ;
#24 = ORIENTED_EDGE ( 'NONE', *, *, #19, .T. ) ;
#25 = ORIENTED_EDGE ( 'NONE', *, *, #202, .F. ) ;
#26 = UNCERTAINTY_MEASURE_WITH_UNIT (LENGTH_MEASURE( 1.000000000000000082E-05 ), #145, 'distance_accuracy_value', 'NONE');
#27 = DIRECTION ( 'NONE',  ( 1.224646799147353207E-16, 0.0000000000000000000, 1.000000000000000000 ) ) ;
#28 = APPLICATION_CONTEXT ( 'automotive_design' ) ;
#29 = ADVANCED_FACE ( 'NONE', ( #178 ), #248, .T. ) ;
#30 = CARTESIAN_POINT ( 'NONE',  ( 0.01179918900000001200, 0.0000000000000000000, 0.07086599999999999844 ) ) ;
#31 = CARTESIAN_POINT ( 'NONE',  ( -0.01179918899999999986, 0.0000000000000000000, 0.01179918900000000333 ) ) ;
#32 = AXIS2_PLACEMENT_3D ( 'NONE', #114, #71, #222 ) ;
#33 = DIRECTION ( 'NONE',  ( -0.0000000000000000000, -0.0000000000000000000, -1.000000000000000000 ) ) ;
#34 = CARTESIAN_POINT ( 'NONE',  ( -0.01179918899999999465, 5.543926400312361915E-18, 0.07086599999999999844 ) ) ;
#35 = EDGE_CURVE ( 'NONE', #173, #117, #297, .T. ) ;
#36 = LINE ( 'NONE', #186, #305 ) ;
#37 = ORIENTED_EDGE ( 'NONE', *, *, #264, .T. ) ;
#38 = ADVANCED_FACE ( 'NONE', ( #79 ), #130, .T. ) ;
#39 = CIRCLE ( 'NONE', #199, 0.01179918900000000333 ) ;
#40 = CARTESIAN_POINT ( 'NONE',  ( -0.01179918899999999465, 1.444983904138466284E-18, 0.07086599999999999844 ) ) ;
#41 = CARTESIAN_POINT ( 'NONE',  ( 1.444983904138466092E-18, 0.0000000000000000000, 0.01179918899999999986 ) ) ;
#42 = SPHERICAL_SURFACE ( 'NONE', #258, 0.01179918899999999986 ) ;
#43 = APPLICATION_CONTEXT ( 'automotive_design' ) ;
#44 = DIRECTION ( 'NONE',  ( 1.000000000000000000, 0.0000000000000000000, 0.0000000000000000000 ) ) ;
#45 = EDGE_LOOP ( 'NONE', ( #281, #93, #95, #67 ) ) ;
#46 = ORIENTED_EDGE ( 'NONE', *, *, #143, .F. ) ;
#47 = ORIENTED_EDGE ( 'NONE', *, *, #152, .T. ) ;
#48 = CIRCLE ( 'NONE', #237, 0.07874000000000000443 ) ;
#49 = CONICAL_SURFACE ( 'NONE', #226, 0.01179918900000000333, 0.1745329251994338637 ) ;
#50 = APPLICATION_PROTOCOL_DEFINITION ( 'draft international standard', 'automotive_design', 1998, #28 ) ;
#51 = VERTEX_POINT ( 'NONE', #103 ) ;
#52 = DIRECTION ( 'NONE',  ( 0.0000000000000000000, 0.0000000000000000000, -1.000000000000000000 ) ) ;
#53 = CYLINDRICAL_SURFACE ( 'NONE', #140, 0.07874000000000000443 ) ;
#54 = CIRCLE ( 'NONE', #323, 0.07874000000000000443 ) ;
#55 = DIRECTION ( 'NONE',  ( 1.000000000000000000, 0.0000000000000000000, 0.0000000000000000000 ) ) ;
#56 = LENGTH_MEASURE_WITH_UNIT ( LENGTH_MEASURE( 0.02539999999999999897 ), #239 );
#57 = EDGE_CURVE ( 'NONE', #105, #227, #160, .T. ) ;
#58 = AXIS2_PLACEMENT_3D ( 'NONE', #307, #33, #303 ) ;
#59 = CARTESIAN_POINT ( 'NONE',  ( 0.01179918900000001200, 0.0000000000000000000, 0.07086599999999999844 ) ) ;
#60 = CARTESIAN_POINT ( 'NONE',  ( 0.0000000000000000000, 0.0000000000000000000, 1.968503999999999809 ) ) ;
#61 = VERTEX_POINT ( 'NONE', #8 ) ;
#62 = DIRECTION ( 'NONE',  ( -1.224646799147353207E-16, -0.0000000000000000000, -1.000000000000000000 ) ) ;
#63 = PRESENTATION_LAYER_ASSIGNMENT (  '', '', ( #3 ) ) ;
#64 = DIRECTION ( 'NONE',  ( -1.000000000000000000, 1.224646799147353454E-16, 0.0000000000000000000 ) ) ;
#65 = CARTESIAN_POINT ( 'NONE',  ( 8.678582006837632658E-18, 0.0000000000000000000, 0.07086599999999999844 ) ) ;
#66 = CARTESIAN_POINT ( 'NONE',  ( 0.0000000000000000000, 0.0000000000000000000, 0.0000000000000000000 ) ) ;
#67 = ORIENTED_EDGE ( 'NONE', *, *, #57, .F. ) ;
#68 = DIMENSIONAL_EXPONENTS ( 1.000000000000000000, 0.0000000000000000000, 0.0000000000000000000, 0.0000000000000000000, 0.0000000000000000000, 0.0000000000000000000, 0.0000000000000000000 ) ;
#69 = VECTOR ( 'NONE', #306, 39.37007874015748143 ) ;
#70 = FILL_AREA_STYLE_COLOUR ( '', #110 ) ;
#71 = DIRECTION ( 'NONE',  ( -1.224646799147353207E-16, -0.0000000000000000000, -1.000000000000000000 ) ) ;
#72 =( LENGTH_UNIT ( ) NAMED_UNIT ( * ) SI_UNIT ( $, .METRE. ) );
#73 = VERTEX_POINT ( 'NONE', #6 ) ;
#74 = EDGE_CURVE ( 'NONE', #197, #61, #101, .T. ) ;
#75 = ORIENTED_EDGE ( 'NONE', *, *, #261, .F. ) ;
#76 = ORIENTED_EDGE ( 'NONE', *, *, #35, .F. ) ;
#77 = CARTESIAN_POINT ( 'NONE',  ( 0.01179918900000000506, 1.444983904138466284E-18, 0.01179918899999999812 ) ) ;
#78 = DIRECTION ( 'NONE',  ( 0.0000000000000000000, 0.0000000000000000000, 1.000000000000000000 ) ) ;
#79 = FACE_OUTER_BOUND ( 'NONE', #255, .T. ) ;
#80 = VECTOR ( 'NONE', #295, 39.37007874015748854 ) ;
#81 = FACE_OUTER_BOUND ( 'NONE', #325, .T. ) ;
#82 = CARTESIAN_POINT ( 'NONE',  ( 8.678582006837632658E-18, 0.0000000000000000000, 0.07086599999999999844 ) ) ;
#83 = SURFACE_STYLE_FILL_AREA ( #157 ) ;
#84 = ADVANCED_FACE ( 'NONE', ( #308 ), #100, .T. ) ;
#85 = CARTESIAN_POINT ( 'NONE',  ( -0.06374000000000018540, 0.0000000000000000000, 1.968503999999999809 ) ) ;
#86 = LINE ( 'NONE', #40, #124 ) ;
#87 = DIRECTION ( 'NONE',  ( 1.000000000000000000, 0.0000000000000000000, 0.0000000000000000000 ) ) ;
#88 = CARTESIAN_POINT ( 'NONE',  ( 0.06374000000000018540, 7.805898697765251255E-18, 1.968503999999999809 ) ) ;
#89 = CARTESIAN_POINT ( 'NONE',  ( 1.444983904138466092E-18, 0.0000000000000000000, 0.01179918899999999986 ) ) ;
#90 = DIRECTION ( 'NONE',  ( 1.000000000000000000, 0.0000000000000000000, 0.0000000000000000000 ) ) ;
#91 = ORIENTED_EDGE ( 'NONE', *, *, #261, .T. ) ;
#92 = AXIS2_PLACEMENT_3D ( 'NONE', #82, #131, #182 ) ;
#93 = ORIENTED_EDGE ( 'NONE', *, *, #74, .F. ) ;
#94 = ORIENTED_EDGE ( 'NONE', *, *, #4, .F. ) ;
#95 = ORIENTED_EDGE ( 'NONE', *, *, #221, .T. ) ;
#96 = AXIS2_PLACEMENT_3D ( 'NONE', #206, #99, #180 ) ;
#97 = DIRECTION ( 'NONE',  ( -0.0000000000000000000, -0.0000000000000000000, -1.000000000000000000 ) ) ;
#98 = ADVANCED_FACE ( 'NONE', ( #158 ), #134, .T. ) ;
#99 = DIRECTION ( 'NONE',  ( 0.0000000000000000000, 0.0000000000000000000, -1.000000000000000000 ) ) ;
#100 = CYLINDRICAL_SURFACE ( 'NONE', #58, 0.07874000000000000443 ) ;
#101 = CIRCLE ( 'NONE', #14, 0.06374000000000018540 ) ;
#102 = CARTESIAN_POINT ( 'NONE',  ( 0.0000000000000000000, 0.0000000000000000000, 1.968503999999999809 ) ) ;
#103 = CARTESIAN_POINT ( 'NONE',  ( 2.167475856207699523E-18, 0.0000000000000000000, 0.0000000000000000000 ) ) ;
#104 = DIRECTION ( 'NONE',  ( 1.224646799147353207E-16, 1.000000000000000000, -0.0000000000000000000 ) ) ;
#105 = VERTEX_POINT ( 'NONE', #179 ) ;
#106 = AXIS2_PLACEMENT_3D ( 'NONE', #132, #290, #240 ) ;
#107 = CARTESIAN_POINT ( 'NONE',  ( 0.0000000000000000000, 0.0000000000000000000, 0.0000000000000000000 ) ) ;
#108 = LINE ( 'NONE', #314, #80 ) ;
#109 = DIRECTION ( 'NONE',  ( 1.000000000000000000, 0.0000000000000000000, 0.0000000000000000000 ) ) ;
#110 = COLOUR_RGB ( '',0.7921568627450980005, 0.8196078431372548767, 0.9333333333333333481 ) ;
#111 = LINE ( 'NONE', #88, #205 ) ;
#112 = ORIENTED_EDGE ( 'NONE', *, *, #271, .T. ) ;
#113 = DIRECTION ( 'NONE',  ( 0.0000000000000000000, 0.0000000000000000000, 1.000000000000000000 ) ) ;
#114 = CARTESIAN_POINT ( 'NONE',  ( 0.0000000000000000000, 0.0000000000000000000, 0.0000000000000000000 ) ) ;
#115 = EDGE_CURVE ( 'NONE', #224, #73, #262, .T. ) ;
#116 = FILL_AREA_STYLE ('',( #70 ) ) ;
#117 = VERTEX_POINT ( 'NONE', #31 ) ;
#118 = PRODUCT_DEFINITION_FORMATION_WITH_SPECIFIED_SOURCE ( 'ANY', '', #17, .NOT_KNOWN. ) ;
#119 = EDGE_LOOP ( 'NONE', ( #121, #191, #150, #219 ) ) ;
#120 = SURFACE_SIDE_STYLE ('',( #142 ) ) ;
#121 = ORIENTED_EDGE ( 'NONE', *, *, #19, .F. ) ;
#122 = ORIENTED_EDGE ( 'NONE', *, *, #213, .T. ) ;
#123 = ADVANCED_FACE ( 'NONE', ( #125 ), #53, .T. ) ;
#124 = VECTOR ( 'NONE', #265, 39.37007874015747433 ) ;
#125 = FACE_OUTER_BOUND ( 'NONE', #311, .T. ) ;
#126 = AXIS2_PLACEMENT_3D ( 'NONE', #66, #113, #251 ) ;
#127 = DIRECTION ( 'NONE',  ( 0.0000000000000000000, 0.0000000000000000000, 1.000000000000000000 ) ) ;
#128 = CARTESIAN_POINT ( 'NONE',  ( 0.01179918900000000333, 1.444983904138466284E-18, -1.444983904138466284E-18 ) ) ;
#129 = CARTESIAN_POINT ( 'NONE',  ( 8.678582006837632658E-18, 0.0000000000000000000, 0.07086599999999999844 ) ) ;
#130 = CONICAL_SURFACE ( 'NONE', #247, 0.01179918900000000333, 0.1745329251994338637 ) ;
#131 = DIRECTION ( 'NONE',  ( -1.224646799147353207E-16, -0.0000000000000000000, -1.000000000000000000 ) ) ;
#132 = CARTESIAN_POINT ( 'NONE',  ( 1.444983904138466092E-18, 0.0000000000000000000, 0.01179918899999999986 ) ) ;
#133 = DIRECTION ( 'NONE',  ( 0.0000000000000000000, 0.0000000000000000000, -1.000000000000000000 ) ) ;
#134 = CONICAL_SURFACE ( 'NONE', #96, 0.06374000000000018540, 0.7853981633974522758 ) ;
#135 = CARTESIAN_POINT ( 'NONE',  ( 0.0000000000000000000, 0.0000000000000000000, 1.953504000000000129 ) ) ;
#136 = PRODUCT_RELATED_PRODUCT_CATEGORY ( 'part', '', ( #17 ) ) ;
#137 = CARTESIAN_POINT ( 'NONE',  ( 1.444983904138466092E-18, 0.0000000000000000000, 0.01179918899999999986 ) ) ;
#138 = PRODUCT_DEFINITION_CONTEXT ( 'detailed design', #43, 'design' ) ;
#139 = DIRECTION ( 'NONE',  ( -1.000000000000000000, 0.0000000000000000000, 1.224646799147353207E-16 ) ) ;
#140 = AXIS2_PLACEMENT_3D ( 'NONE', #208, #203, #204 ) ;
#141 = MECHANICAL_DESIGN_GEOMETRIC_PRESENTATION_REPRESENTATION (  '', ( #181 ), #267 ) ;
#142 = SURFACE_STYLE_FILL_AREA ( #116 ) ;
#143 = EDGE_CURVE ( 'NONE', #224, #21, #207, .T. ) ;
#144 = DIMENSIONAL_EXPONENTS ( 1.000000000000000000, 0.0000000000000000000, 0.0000000000000000000, 0.0000000000000000000, 0.0000000000000000000, 0.0000000000000000000, 0.0000000000000000000 ) ;
#145 =( CONVERSION_BASED_UNIT ( 'INCH', #147 ) LENGTH_UNIT ( ) NAMED_UNIT ( #175 ) );
#146 = CARTESIAN_POINT ( 'NONE',  ( 1.444983904138466092E-18, 0.0000000000000000000, 0.01179918899999999986 ) ) ;
#147 = LENGTH_MEASURE_WITH_UNIT ( LENGTH_MEASURE( 0.02539999999999999897 ), #324 );
#148 = ORIENTED_EDGE ( 'NONE', *, *, #143, .T. ) ;
#149 = AXIS2_PLACEMENT_3D ( 'NONE', #167, #209, #292 ) ;
#150 = ORIENTED_EDGE ( 'NONE', *, *, #223, .T. ) ;
#151 = SHAPE_DEFINITION_REPRESENTATION ( #231, #313 ) ;
#152 = EDGE_CURVE ( 'NONE', #173, #224, #233, .T. ) ;
#153 = ORIENTED_EDGE ( 'NONE', *, *, #214, .T. ) ;
#154 = CIRCLE ( 'NONE', #106, 0.01179918900000000333 ) ;
#155 = DIRECTION ( 'NONE',  ( 0.1736481776669313581, 0.0000000000000000000, 0.9848077530122077983 ) ) ;
#156 = EDGE_CURVE ( 'NONE', #61, #197, #284, .T. ) ;
#157 = FILL_AREA_STYLE ('',( #236 ) ) ;
#158 = FACE_OUTER_BOUND ( 'NONE', #45, .T. ) ;
#159 = MANIFOLD_SOLID_BREP ( 'Fillet1', #166 ) ;
#160 = CIRCLE ( 'NONE', #16, 0.07874000000000000443 ) ;
#161 = FACE_OUTER_BOUND ( 'NONE', #195, .T. ) ;
#162 = DIRECTION ( 'NONE',  ( 0.0000000000000000000, 0.0000000000000000000, -1.000000000000000000 ) ) ;
#163 = FACE_OUTER_BOUND ( 'NONE', #322, .T. ) ;
#164 =( GEOMETRIC_REPRESENTATION_CONTEXT ( 3 ) GLOBAL_UNCERTAINTY_ASSIGNED_CONTEXT ( ( #256 ) ) GLOBAL_UNIT_ASSIGNED_CONTEXT ( ( #260, #9, #234 ) ) REPRESENTATION_CONTEXT ( 'NONE', 'WORKASPACE' ) );
#165 = DIRECTION ( 'NONE',  ( -1.000000000000000000, 0.0000000000000000000, 0.0000000000000000000 ) ) ;
#166 = CLOSED_SHELL ( 'NONE', ( #185, #269, #38, #246, #123, #84, #250, #98, #286, #29, #220 ) ) ;
#167 = CARTESIAN_POINT ( 'NONE',  ( 0.0000000000000000000, 0.0000000000000000000, 1.968503999999999809 ) ) ;
#168 =( NAMED_UNIT ( * ) PLANE_ANGLE_UNIT ( ) SI_UNIT ( $, .RADIAN. ) );
#169 = ORIENTED_EDGE ( 'NONE', *, *, #288, .F. ) ;
#170 = DIRECTION ( 'NONE',  ( -1.224646799147353207E-16, -0.0000000000000000000, -1.000000000000000000 ) ) ;
#171 = ORIENTED_EDGE ( 'NONE', *, *, #115, .T. ) ;
#172 =( CONVERSION_BASED_UNIT ( 'INCH', #278 ) LENGTH_UNIT ( ) NAMED_UNIT ( #144 ) );
#173 = VERTEX_POINT ( 'NONE', #34 ) ;
#174 = VERTEX_POINT ( 'NONE', #317 ) ;
#175 = DIMENSIONAL_EXPONENTS ( 1.000000000000000000, 0.0000000000000000000, 0.0000000000000000000, 0.0000000000000000000, 0.0000000000000000000, 0.0000000000000000000, 0.0000000000000000000 ) ;
#176 = AXIS2_PLACEMENT_3D ( 'NONE', #315, #188, #212 ) ;
#177 = ORIENTED_EDGE ( 'NONE', *, *, #115, .F. ) ;
#178 = FACE_OUTER_BOUND ( 'NONE', #252, .T. ) ;
#179 = CARTESIAN_POINT ( 'NONE',  ( 0.07874000000000000443, 9.642868896486258509E-18, 1.953504000000000129 ) ) ;
#180 = DIRECTION ( 'NONE',  ( -1.000000000000000000, 0.0000000000000000000, 0.0000000000000000000 ) ) ;
#181 = STYLED_ITEM ( 'NONE', ( #228 ), #313 ) ;
#182 = DIRECTION ( 'NONE',  ( -1.000000000000000000, 0.0000000000000000000, 0.0000000000000000000 ) ) ;
#183 = CARTESIAN_POINT ( 'NONE',  ( 0.0000000000000000000, 0.0000000000000000000, 1.953504000000000129 ) ) ;
#184 = FACE_OUTER_BOUND ( 'NONE', #18, .T. ) ;
#185 = ADVANCED_FACE ( 'NONE', ( #81 ), #12, .T. ) ;
#186 = CARTESIAN_POINT ( 'NONE',  ( -0.07874000000000000443, 0.0000000000000000000, 1.968503999999999809 ) ) ;
#187 = AXIS2_PLACEMENT_3D ( 'NONE', #41, #104, #64 ) ;
#188 = DIRECTION ( 'NONE',  ( -1.224646799147353207E-16, -0.0000000000000000000, -1.000000000000000000 ) ) ;
#189 = DIRECTION ( 'NONE',  ( 1.224646799147353207E-16, 0.0000000000000000000, 1.000000000000000000 ) ) ;
#190 = EDGE_CURVE ( 'NONE', #61, #105, #111, .T. ) ;
#191 = ORIENTED_EDGE ( 'NONE', *, *, #57, .T. ) ;
#192 = CONICAL_SURFACE ( 'NONE', #294, 0.06374000000000018540, 0.7853981633974522758 ) ;
#193 = PRODUCT_CONTEXT ( 'NONE', #28, 'mechanical' ) ;
#194 = ORIENTED_EDGE ( 'NONE', *, *, #156, .T. ) ;
#195 = EDGE_LOOP ( 'NONE', ( #291, #194 ) ) ;
#196 = PRODUCT_DEFINITION ( 'UNKNOWN', '', #118, #138 ) ;
#197 = VERTEX_POINT ( 'NONE', #85 ) ;
#198 = UNCERTAINTY_MEASURE_WITH_UNIT (LENGTH_MEASURE( 1.000000000000000082E-05 ), #172, 'distance_accuracy_value', 'NONE');
#199 = AXIS2_PLACEMENT_3D ( 'NONE', #89, #189, #215 ) ;
#200 = AXIS2_PLACEMENT_3D ( 'NONE', #107, #62, #139 ) ;
#201 = ORIENTED_EDGE ( 'NONE', *, *, #241, .F. ) ;
#202 = EDGE_CURVE ( 'NONE', #117, #21, #39, .T. ) ;
#203 = DIRECTION ( 'NONE',  ( -0.0000000000000000000, -0.0000000000000000000, -1.000000000000000000 ) ) ;
#204 = DIRECTION ( 'NONE',  ( -1.000000000000000000, 0.0000000000000000000, 0.0000000000000000000 ) ) ;
#205 = VECTOR ( 'NONE', #11, 39.37007874015748854 ) ;
#206 = CARTESIAN_POINT ( 'NONE',  ( 0.0000000000000000000, 0.0000000000000000000, 1.968503999999999809 ) ) ;
#207 = LINE ( 'NONE', #128, #69 ) ;
#208 = CARTESIAN_POINT ( 'NONE',  ( 0.0000000000000000000, 0.0000000000000000000, 1.968503999999999809 ) ) ;
#209 = DIRECTION ( 'NONE',  ( 0.0000000000000000000, 0.0000000000000000000, 1.000000000000000000 ) ) ;
#210 = COLOUR_RGB ( '',0.7921568627450980005, 0.8196078431372548767, 0.9333333333333333481 ) ;
#211 = ORIENTED_EDGE ( 'NONE', *, *, #35, .T. ) ;
#212 = DIRECTION ( 'NONE',  ( -1.000000000000000000, 0.0000000000000000000, 0.0000000000000000000 ) ) ;
#213 = EDGE_CURVE ( 'NONE', #73, #174, #253, .T. ) ;
#214 = EDGE_CURVE ( 'NONE', #173, #174, #86, .T. ) ;
#215 = DIRECTION ( 'NONE',  ( -1.000000000000000000, 0.0000000000000000000, 1.808816050874517884E-16 ) ) ;
#216 = PLANE ( 'NONE',  #149 ) ;
#217 = VECTOR ( 'NONE', #259, 39.37007874015748143 ) ;
#218 = CARTESIAN_POINT ( 'NONE',  ( 1.444983904138466092E-18, 0.0000000000000000000, 0.01179918899999999986 ) ) ;
#219 = ORIENTED_EDGE ( 'NONE', *, *, #213, .F. ) ;
#220 = ADVANCED_FACE ( 'NONE', ( #184 ), #42, .T. ) ;
#221 = EDGE_CURVE ( 'NONE', #197, #227, #108, .T. ) ;
#222 = DIRECTION ( 'NONE',  ( -1.000000000000000000, 0.0000000000000000000, 1.224646799147353207E-16 ) ) ;
#223 = EDGE_CURVE ( 'NONE', #227, #174, #36, .T. ) ;
#224 = VERTEX_POINT ( 'NONE', #59 ) ;
#225 = AXIS2_PLACEMENT_3D ( 'NONE', #268, #243, #310 ) ;
#226 = AXIS2_PLACEMENT_3D ( 'NONE', #65, #245, #90 ) ;
#227 = VERTEX_POINT ( 'NONE', #13 ) ;
#228 = PRESENTATION_STYLE_ASSIGNMENT (( #276 ) ) ;
#229 = ORIENTED_EDGE ( 'NONE', *, *, #202, .T. ) ;
#230 = APPLICATION_PROTOCOL_DEFINITION ( 'draft international standard', 'automotive_design', 1998, #43 ) ;
#231 = PRODUCT_DEFINITION_SHAPE ( 'NONE', 'NONE',  #196 ) ;
#232 = LINE ( 'NONE', #2, #316 ) ;
#233 = CIRCLE ( 'NONE', #92, 0.01179918900000000333 ) ;
#234 =( NAMED_UNIT ( * ) SI_UNIT ( $, .STERADIAN. ) SOLID_ANGLE_UNIT ( ) );
#235 = SURFACE_SIDE_STYLE ('',( #83 ) ) ;
#236 = FILL_AREA_STYLE_COLOUR ( '', #210 ) ;
#237 = AXIS2_PLACEMENT_3D ( 'NONE', #135, #133, #109 ) ;
#238 = DIRECTION ( 'NONE',  ( 1.000000000000000000, 0.0000000000000000000, 0.0000000000000000000 ) ) ;
#239 =( LENGTH_UNIT ( ) NAMED_UNIT ( * ) SI_UNIT ( $, .METRE. ) );
#240 = DIRECTION ( 'NONE',  ( -1.000000000000000000, 0.0000000000000000000, 1.808816050874517884E-16 ) ) ;
#241 = EDGE_CURVE ( 'NONE', #21, #117, #154, .T. ) ;
#242 = FACE_OUTER_BOUND ( 'NONE', #279, .T. ) ;
#243 = DIRECTION ( 'NONE',  ( -1.224646799147353207E-16, -0.0000000000000000000, -1.000000000000000000 ) ) ;
#244 = CYLINDRICAL_SURFACE ( 'NONE', #200, 0.01179918900000000333 ) ;
#245 = DIRECTION ( 'NONE',  ( 1.224646799147353207E-16, 0.0000000000000000000, 1.000000000000000000 ) ) ;
#246 = ADVANCED_FACE ( 'NONE', ( #10 ), #192, .T. ) ;
#247 = AXIS2_PLACEMENT_3D ( 'NONE', #129, #27, #304 ) ;
#248 = CYLINDRICAL_SURFACE ( 'NONE', #32, 0.01179918900000000333 ) ;
#249 = CARTESIAN_POINT ( 'NONE',  ( -0.01179918900000000333, 0.0000000000000000000, 1.444983904138466284E-18 ) ) ;
#250 = ADVANCED_FACE ( 'NONE', ( #161 ), #216, .T. ) ;
#251 = DIRECTION ( 'NONE',  ( 1.000000000000000000, 0.0000000000000000000, 0.0000000000000000000 ) ) ;
#252 = EDGE_LOOP ( 'NONE', ( #46, #112, #211, #229 ) ) ;
#253 = CIRCLE ( 'NONE', #225, 0.07874000000000000443 ) ;
#254 =( GEOMETRIC_REPRESENTATION_CONTEXT ( 3 ) GLOBAL_UNCERTAINTY_ASSIGNED_CONTEXT ( ( #198 ) ) GLOBAL_UNIT_ASSIGNED_CONTEXT ( ( #172, #168, #296 ) ) REPRESENTATION_CONTEXT ( 'NONE', 'WORKASPACE' ) );
#255 = EDGE_LOOP ( 'NONE', ( #318, #153, #275, #177 ) ) ;
#256 = UNCERTAINTY_MEASURE_WITH_UNIT (LENGTH_MEASURE( 1.000000000000000082E-05 ), #260, 'distance_accuracy_value', 'NONE');
#257 = DIRECTION ( 'NONE',  ( 0.0000000000000000000, -1.000000000000000000, 0.0000000000000000000 ) ) ;
#258 = AXIS2_PLACEMENT_3D ( 'NONE', #137, #293, #87 ) ;
#259 = DIRECTION ( 'NONE',  ( -1.224646799147353207E-16, -0.0000000000000000000, -1.000000000000000000 ) ) ;
#260 =( CONVERSION_BASED_UNIT ( 'INCH', #56 ) LENGTH_UNIT ( ) NAMED_UNIT ( #68 ) );
#261 = EDGE_CURVE ( 'NONE', #51, #117, #7, .T. ) ;
#262 = LINE ( 'NONE', #30, #289 ) ;
#263 = DIRECTION ( 'NONE',  ( 0.0000000000000000000, 0.0000000000000000000, -1.000000000000000000 ) ) ;
#264 = EDGE_CURVE ( 'NONE', #227, #105, #48, .T. ) ;
#265 = DIRECTION ( 'NONE',  ( -0.1736481776669311639, 2.126576849575783008E-17, 0.9848077530122080203 ) ) ;
#266 = AXIS2_PLACEMENT_3D ( 'NONE', #285, #127, #55 ) ;
#267 =( GEOMETRIC_REPRESENTATION_CONTEXT ( 3 ) GLOBAL_UNCERTAINTY_ASSIGNED_CONTEXT ( ( #26 ) ) GLOBAL_UNIT_ASSIGNED_CONTEXT ( ( #145, #20, #320 ) ) REPRESENTATION_CONTEXT ( 'NONE', 'WORKASPACE' ) );
#268 = CARTESIAN_POINT ( 'NONE',  ( 5.517109812325628868E-17, 0.0000000000000000000, 0.4505062044147631894 ) ) ;
#269 = ADVANCED_FACE ( 'NONE', ( #242 ), #244, .T. ) ;
#270 = DIRECTION ( 'NONE',  ( 1.000000000000000000, 0.0000000000000000000, 0.0000000000000000000 ) ) ;
#271 = EDGE_CURVE ( 'NONE', #224, #173, #280, .T. ) ;
#272 = EDGE_LOOP ( 'NONE', ( #282, #300, #1, #277 ) ) ;
#273 = AXIS2_PLACEMENT_3D ( 'NONE', #218, #15, #270 ) ;
#274 = CARTESIAN_POINT ( 'NONE',  ( 5.517109812325628868E-17, 0.0000000000000000000, 0.4505062044147631894 ) ) ;
#275 = ORIENTED_EDGE ( 'NONE', *, *, #288, .T. ) ;
#276 = SURFACE_STYLE_USAGE ( .BOTH. , #120 ) ;
#277 = ORIENTED_EDGE ( 'NONE', *, *, #221, .F. ) ;
#278 = LENGTH_MEASURE_WITH_UNIT ( LENGTH_MEASURE( 0.02539999999999999897 ), #72 );
#279 = EDGE_LOOP ( 'NONE', ( #47, #148, #22, #76 ) ) ;
#280 = CIRCLE ( 'NONE', #176, 0.01179918900000000333 ) ;
#281 = ORIENTED_EDGE ( 'NONE', *, *, #190, .F. ) ;
#282 = ORIENTED_EDGE ( 'NONE', *, *, #156, .F. ) ;
#283 = SURFACE_STYLE_USAGE ( .BOTH. , #235 ) ;
#284 = CIRCLE ( 'NONE', #266, 0.06374000000000018540 ) ;
#285 = CARTESIAN_POINT ( 'NONE',  ( 0.0000000000000000000, 0.0000000000000000000, 1.968503999999999809 ) ) ;
#286 = ADVANCED_FACE ( 'NONE', ( #163 ), #49, .T. ) ;
#287 = PRESENTATION_STYLE_ASSIGNMENT (( #283 ) ) ;
#288 = EDGE_CURVE ( 'NONE', #174, #73, #54, .T. ) ;
#289 = VECTOR ( 'NONE', #155, 39.37007874015748143 ) ;
#290 = DIRECTION ( 'NONE',  ( 1.224646799147353207E-16, 0.0000000000000000000, 1.000000000000000000 ) ) ;
#291 = ORIENTED_EDGE ( 'NONE', *, *, #74, .T. ) ;
#292 = DIRECTION ( 'NONE',  ( 1.000000000000000000, 0.0000000000000000000, -0.0000000000000000000 ) ) ;
#293 = DIRECTION ( 'NONE',  ( 0.0000000000000000000, 1.000000000000000000, 0.0000000000000000000 ) ) ;
#294 = AXIS2_PLACEMENT_3D ( 'NONE', #60, #162, #165 ) ;
#295 = DIRECTION ( 'NONE',  ( -0.7071067811865502373, 0.0000000000000000000, -0.7071067811865446862 ) ) ;
#296 =( NAMED_UNIT ( * ) SI_UNIT ( $, .STERADIAN. ) SOLID_ANGLE_UNIT ( ) );
#297 = LINE ( 'NONE', #249, #217 ) ;
#298 = ORIENTED_EDGE ( 'NONE', *, *, #223, .F. ) ;
#299 = ORIENTED_EDGE ( 'NONE', *, *, #4, .T. ) ;
#300 = ORIENTED_EDGE ( 'NONE', *, *, #190, .T. ) ;
#301 = PRESENTATION_LAYER_ASSIGNMENT (  '', '', ( #181 ) ) ;
#302 = ORIENTED_EDGE ( 'NONE', *, *, #214, .F. ) ;
#303 = DIRECTION ( 'NONE',  ( -1.000000000000000000, 0.0000000000000000000, 0.0000000000000000000 ) ) ;
#304 = DIRECTION ( 'NONE',  ( 1.000000000000000000, 0.0000000000000000000, 0.0000000000000000000 ) ) ;
#305 = VECTOR ( 'NONE', #312, 39.37007874015748143 ) ;
#306 = DIRECTION ( 'NONE',  ( -1.224646799147353207E-16, -0.0000000000000000000, -1.000000000000000000 ) ) ;
#307 = CARTESIAN_POINT ( 'NONE',  ( 0.0000000000000000000, 0.0000000000000000000, 1.968503999999999809 ) ) ;
#308 = FACE_OUTER_BOUND ( 'NONE', #119, .T. ) ;
#309 = AXIS2_PLACEMENT_3D ( 'NONE', #146, #257, #52 ) ;
#310 = DIRECTION ( 'NONE',  ( 1.000000000000000000, 0.0000000000000000000, 0.0000000000000000000 ) ) ;
#311 = EDGE_LOOP ( 'NONE', ( #37, #24, #169, #298 ) ) ;
#312 = DIRECTION ( 'NONE',  ( -0.0000000000000000000, -0.0000000000000000000, -1.000000000000000000 ) ) ;
#313 = ADVANCED_BREP_SHAPE_REPRESENTATION ( 'Micro_BMRM-006-2X', ( #159, #126 ), #254 ) ;
#314 = CARTESIAN_POINT ( 'NONE',  ( -0.06374000000000018540, 0.0000000000000000000, 1.968503999999999809 ) ) ;
#315 = CARTESIAN_POINT ( 'NONE',  ( 8.678582006837632658E-18, 0.0000000000000000000, 0.07086599999999999844 ) ) ;
#316 = VECTOR ( 'NONE', #97, 39.37007874015748143 ) ;
#317 = CARTESIAN_POINT ( 'NONE',  ( -0.07873999999999994892, 0.0000000000000000000, 0.4505062044147631894 ) ) ;
#318 = ORIENTED_EDGE ( 'NONE', *, *, #152, .F. ) ;
#319 = CIRCLE ( 'NONE', #309, 0.01179918899999999986 ) ;
#320 =( NAMED_UNIT ( * ) SI_UNIT ( $, .STERADIAN. ) SOLID_ANGLE_UNIT ( ) );
#321 = ORIENTED_EDGE ( 'NONE', *, *, #271, .F. ) ;
#322 = EDGE_LOOP ( 'NONE', ( #302, #321, #171, #122 ) ) ;
#323 = AXIS2_PLACEMENT_3D ( 'NONE', #274, #170, #44 ) ;
#324 =( LENGTH_UNIT ( ) NAMED_UNIT ( * ) SI_UNIT ( $, .METRE. ) );
#325 = EDGE_LOOP ( 'NONE', ( #94, #91, #201 ) ) ;
ENDSEC;
END-ISO-10303-21;
