ISO-10303-21;
HEADER;
FILE_DESCRIPTION (( 'STEP AP214' ),
    '1' );
FILE_NAME ('59722.STEP',
    '2023-07-24T15:28:49',
    ( '' ),
    ( '' ),
    'SwSTEP 2.0',
    'SolidWorks 2023',
    '' );
FILE_SCHEMA (( 'AUTOMOTIVE_DESIGN' ));
ENDSEC;

DATA;
#1 = AXIS2_PLACEMENT_3D ( 'NONE', #133, #249, #341 ) ;
#2 = CARTESIAN_POINT ( 'NONE',  ( 0.000000000000000000, 0.000000000000000000, 0.000000000000000000 ) ) ;
#3 = EDGE_LOOP ( 'NONE', ( #104, #160, #300, #370 ) ) ;
#4 = SURFACE_STYLE_FILL_AREA ( #345 ) ;
#5 = VERTEX_POINT ( 'NONE', #240 ) ;
#6 = FILL_AREA_STYLE ('',( #111 ) ) ;
#7 = COLOUR_RGB ( '',1.000000000000000000, 0.000000000000000000, 0.000000000000000000 ) ;
#8 = STYLED_ITEM ( 'NONE', ( #321 ), #308 ) ;
#9 = FACE_OUTER_BOUND ( 'NONE', #3, .T. ) ;
#10 = EDGE_CURVE ( 'NONE', #340, #28, #157, .T. ) ;
#11 = DIRECTION ( 'NONE',  ( -0.000000000000000000, -1.000000000000000000, -0.000000000000000000 ) ) ;
#12 = ORIENTED_EDGE ( 'NONE', *, *, #80, .F. ) ;
#13 = CARTESIAN_POINT ( 'NONE',  ( 0.000000000000000000, 0.5000000000000000000, 0.000000000000000000 ) ) ;
#14 = SURFACE_STYLE_FILL_AREA ( #98 ) ;
#15 = AXIS2_PLACEMENT_3D ( 'NONE', #155, #108, #43 ) ;
#16 = PRESENTATION_LAYER_ASSIGNMENT (  '', '', ( #342 ) ) ;
#17 = CARTESIAN_POINT ( 'NONE',  ( 0.000000000000000000, 0.5000000000000000000, 0.000000000000000000 ) ) ;
#18 = FILL_AREA_STYLE_COLOUR ( '', #176 ) ;
#19 = AXIS2_PLACEMENT_3D ( 'NONE', #212, #161, #164 ) ;
#20 = PRODUCT_DEFINITION_SHAPE ( 'NONE', 'NONE',  #246 ) ;
#21 =( LENGTH_UNIT ( ) NAMED_UNIT ( * ) SI_UNIT ( .MILLI., .METRE. ) );
#22 = AXIS2_PLACEMENT_3D ( 'NONE', #280, #138, #191 ) ;
#23 = SURFACE_STYLE_USAGE ( .BOTH. , #194 ) ;
#24 =( NAMED_UNIT ( * ) SI_UNIT ( $, .STERADIAN. ) SOLID_ANGLE_UNIT ( ) );
#25 = DIRECTION ( 'NONE',  ( -1.000000000000000000, 0.000000000000000000, 0.000000000000000000 ) ) ;
#26 = DIRECTION ( 'NONE',  ( -1.576935716305902603E-16, 1.000000000000000000, -0.000000000000000000 ) ) ;
#27 = DIRECTION ( 'NONE',  ( -1.000000000000000000, 0.000000000000000000, 0.000000000000000000 ) ) ;
#28 = VERTEX_POINT ( 'NONE', #355 ) ;
#29 = CARTESIAN_POINT ( 'NONE',  ( -10.00000000000000000, 89.00000000000000000, 0.000000000000000000 ) ) ;
#30 = VERTEX_POINT ( 'NONE', #149 ) ;
#31 = EDGE_LOOP ( 'NONE', ( #127, #283 ) ) ;
#32 = MECHANICAL_DESIGN_GEOMETRIC_PRESENTATION_REPRESENTATION (  '', ( #284 ), #247 ) ;
#33 = AXIS2_PLACEMENT_3D ( 'NONE', #117, #27, #353 ) ;
#34 = ORIENTED_EDGE ( 'NONE', *, *, #263, .T. ) ;
#35 = AXIS2_PLACEMENT_3D ( 'NONE', #119, #238, #265 ) ;
#36 = TOROIDAL_SURFACE ( 'NONE', #1, 9.500000000000000000, 0.5000000000000002220 ) ;
#37 = VERTEX_POINT ( 'NONE', #298 ) ;
#38 = ORIENTED_EDGE ( 'NONE', *, *, #61, .T. ) ;
#39 = STYLED_ITEM ( 'NONE', ( #325 ), #112 ) ;
#40 = ORIENTED_EDGE ( 'NONE', *, *, #49, .F. ) ;
#41 = AXIS2_PLACEMENT_3D ( 'NONE', #17, #45, #134 ) ;
#42 =( NAMED_UNIT ( * ) SI_UNIT ( $, .STERADIAN. ) SOLID_ANGLE_UNIT ( ) );
#43 = DIRECTION ( 'NONE',  ( 0.000000000000000000, 0.000000000000000000, -1.000000000000000000 ) ) ;
#44 = ORIENTED_EDGE ( 'NONE', *, *, #330, .T. ) ;
#45 = DIRECTION ( 'NONE',  ( -0.000000000000000000, -1.000000000000000000, -0.000000000000000000 ) ) ;
#46 =( NAMED_UNIT ( * ) PLANE_ANGLE_UNIT ( ) SI_UNIT ( $, .RADIAN. ) );
#47 = TOROIDAL_SURFACE ( 'NONE', #41, 9.500000000000000000, 0.5000000000000002220 ) ;
#48 = DIRECTION ( 'NONE',  ( -1.000000000000000000, 0.000000000000000000, 0.000000000000000000 ) ) ;
#49 = EDGE_CURVE ( 'NONE', #340, #185, #231, .T. ) ;
#50 = EDGE_LOOP ( 'NONE', ( #113, #148, #34, #123 ) ) ;
#51 = DIRECTION ( 'NONE',  ( -1.000000000000000000, -1.576935716305902603E-16, 0.000000000000000000 ) ) ;
#52 = CARTESIAN_POINT ( 'NONE',  ( 0.000000000000000000, 30.00000000000000000, 0.000000000000000000 ) ) ;
#53 = AXIS2_PLACEMENT_3D ( 'NONE', #346, #179, #206 ) ;
#54 =( GEOMETRIC_REPRESENTATION_CONTEXT ( 3 ) GLOBAL_UNCERTAINTY_ASSIGNED_CONTEXT ( ( #356 ) ) GLOBAL_UNIT_ASSIGNED_CONTEXT ( ( #255, #286, #301 ) ) REPRESENTATION_CONTEXT ( 'NONE', 'WORKASPACE' ) );
#55 = DIRECTION ( 'NONE',  ( -0.000000000000000000, -1.000000000000000000, -0.000000000000000000 ) ) ;
#56 = EDGE_LOOP ( 'NONE', ( #201, #264, #12, #84 ) ) ;
#57 = EDGE_CURVE ( 'NONE', #37, #129, #365, .T. ) ;
#58 = EDGE_LOOP ( 'NONE', ( #248, #66, #182, #109 ) ) ;
#59 = SURFACE_STYLE_USAGE ( .BOTH. , #331 ) ;
#60 = VERTEX_POINT ( 'NONE', #327 ) ;
#61 = EDGE_CURVE ( 'NONE', #129, #60, #202, .T. ) ;
#62 = CIRCLE ( 'NONE', #195, 9.500000000000000000 ) ;
#63 = MECHANICAL_DESIGN_GEOMETRIC_PRESENTATION_REPRESENTATION (  '', ( #342 ), #357 ) ;
#64 = FACE_OUTER_BOUND ( 'NONE', #124, .T. ) ;
#65 = DIRECTION ( 'NONE',  ( 0.000000000000000000, 0.000000000000000000, -1.000000000000000000 ) ) ;
#66 = ORIENTED_EDGE ( 'NONE', *, *, #335, .T. ) ;
#67 = UNCERTAINTY_MEASURE_WITH_UNIT (LENGTH_MEASURE( 1.000000000000000082E-05 ), #205, 'distance_accuracy_value', 'NONE');
#68 = AXIS2_PLACEMENT_3D ( 'NONE', #13, #128, #214 ) ;
#69 = STYLED_ITEM ( 'NONE', ( #279 ), #228 ) ;
#70 = APPLICATION_CONTEXT ( 'automotive_design' ) ;
#71 = VERTEX_POINT ( 'NONE', #208 ) ;
#72 = CARTESIAN_POINT ( 'NONE',  ( -1.714505518806293849E-15, 89.00000000000000000, 0.000000000000000000 ) ) ;
#73 = ORIENTED_EDGE ( 'NONE', *, *, #10, .F. ) ;
#74 = STYLED_ITEM ( 'NONE', ( #87 ), #296 ) ;
#75 =( LENGTH_UNIT ( ) NAMED_UNIT ( * ) SI_UNIT ( .MILLI., .METRE. ) );
#76 = AXIS2_PLACEMENT_3D ( 'NONE', #91, #213, #65 ) ;
#77 = CARTESIAN_POINT ( 'NONE',  ( -1.714505518806293652E-15, 89.00000000000000000, 0.000000000000000000 ) ) ;
#78 = SURFACE_SIDE_STYLE ('',( #4 ) ) ;
#79 = CARTESIAN_POINT ( 'NONE',  ( 1.163414459189985485E-15, 0.5000000000000000000, 9.500000000000000000 ) ) ;
#80 = EDGE_CURVE ( 'NONE', #60, #129, #62, .T. ) ;
#81 = ORIENTED_EDGE ( 'NONE', *, *, #193, .T. ) ;
#82 =( GEOMETRIC_REPRESENTATION_CONTEXT ( 3 ) GLOBAL_UNCERTAINTY_ASSIGNED_CONTEXT ( ( #120 ) ) GLOBAL_UNIT_ASSIGNED_CONTEXT ( ( #86, #121, #241 ) ) REPRESENTATION_CONTEXT ( 'NONE', 'WORKASPACE' ) );
#83 = FILL_AREA_STYLE ('',( #290 ) ) ;
#84 = ORIENTED_EDGE ( 'NONE', *, *, #263, .F. ) ;
#85 = FACE_OUTER_BOUND ( 'NONE', #58, .T. ) ;
#86 =( LENGTH_UNIT ( ) NAMED_UNIT ( * ) SI_UNIT ( .MILLI., .METRE. ) );
#87 = PRESENTATION_STYLE_ASSIGNMENT (( #59 ) ) ;
#88 = SURFACE_SIDE_STYLE ('',( #354 ) ) ;
#89 = COLOUR_RGB ( '',1.000000000000000000, 0.000000000000000000, 0.000000000000000000 ) ;
#90 = STYLED_ITEM ( 'NONE', ( #93 ), #359 ) ;
#91 = CARTESIAN_POINT ( 'NONE',  ( 0.000000000000000000, 0.000000000000000000, 0.000000000000000000 ) ) ;
#92 = SURFACE_SIDE_STYLE ('',( #367 ) ) ;
#93 = PRESENTATION_STYLE_ASSIGNMENT (( #126 ) ) ;
#94 = EDGE_CURVE ( 'NONE', #329, #30, #144, .T. ) ;
#95 = UNCERTAINTY_MEASURE_WITH_UNIT (LENGTH_MEASURE( 1.000000000000000082E-05 ), #21, 'distance_accuracy_value', 'NONE');
#96 = COLOUR_RGB ( '',1.000000000000000000, 0.000000000000000000, 0.000000000000000000 ) ;
#97 =( GEOMETRIC_REPRESENTATION_CONTEXT ( 3 ) GLOBAL_UNCERTAINTY_ASSIGNED_CONTEXT ( ( #166 ) ) GLOBAL_UNIT_ASSIGNED_CONTEXT ( ( #75, #169, #313 ) ) REPRESENTATION_CONTEXT ( 'NONE', 'WORKASPACE' ) );
#98 = FILL_AREA_STYLE ('',( #245 ) ) ;
#99 = DIRECTION ( 'NONE',  ( 0.000000000000000000, 0.000000000000000000, 1.000000000000000000 ) ) ;
#100 = FILL_AREA_STYLE ('',( #281 ) ) ;
#101 = UNCERTAINTY_MEASURE_WITH_UNIT (LENGTH_MEASURE( 1.000000000000000082E-05 ), #140, 'distance_accuracy_value', 'NONE');
#102 = CARTESIAN_POINT ( 'NONE',  ( -1.714505518806293652E-15, 89.00000000000000000, 0.000000000000000000 ) ) ;
#103 = FILL_AREA_STYLE ('',( #172 ) ) ;
#104 = ORIENTED_EDGE ( 'NONE', *, *, #307, .F. ) ;
#105 = DIRECTION ( 'NONE',  ( -1.576935716305902603E-16, 1.000000000000000000, -0.000000000000000000 ) ) ;
#106 = EDGE_CURVE ( 'NONE', #28, #340, #278, .T. ) ;
#107 = DIRECTION ( 'NONE',  ( -1.576935716305902603E-16, 1.000000000000000000, -0.000000000000000000 ) ) ;
#108 = DIRECTION ( 'NONE',  ( -0.000000000000000000, -1.000000000000000000, -0.000000000000000000 ) ) ;
#109 = ORIENTED_EDGE ( 'NONE', *, *, #251, .F. ) ;
#110 = FACE_OUTER_BOUND ( 'NONE', #344, .T. ) ;
#111 = FILL_AREA_STYLE_COLOUR ( '', #7 ) ;
#112 = ADVANCED_FACE ( 'NONE', ( #64 ), #274, .T. ) ;
#113 = ORIENTED_EDGE ( 'NONE', *, *, #57, .F. ) ;
#114 = CARTESIAN_POINT ( 'NONE',  ( 10.00000000000000000, 89.00000000000000000, 0.000000000000000000 ) ) ;
#115 = PRODUCT_RELATED_PRODUCT_CATEGORY ( 'part', '', ( #170 ) ) ;
#116 = SURFACE_STYLE_FILL_AREA ( #6 ) ;
#117 = CARTESIAN_POINT ( 'NONE',  ( 0.000000000000000000, 0.5000000000000000000, -9.500000000000000000 ) ) ;
#118 = SURFACE_STYLE_FILL_AREA ( #83 ) ;
#119 = CARTESIAN_POINT ( 'NONE',  ( 7.589415207398531038E-15, 30.00000000000000000, 0.000000000000000000 ) ) ;
#120 = UNCERTAINTY_MEASURE_WITH_UNIT (LENGTH_MEASURE( 1.000000000000000082E-05 ), #86, 'distance_accuracy_value', 'NONE');
#121 =( NAMED_UNIT ( * ) PLANE_ANGLE_UNIT ( ) SI_UNIT ( $, .RADIAN. ) );
#122 = MECHANICAL_DESIGN_GEOMETRIC_PRESENTATION_REPRESENTATION (  '', ( #74 ), #204 ) ;
#123 = ORIENTED_EDGE ( 'NONE', *, *, #61, .F. ) ;
#124 = EDGE_LOOP ( 'NONE', ( #292, #38 ) ) ;
#125 =( NAMED_UNIT ( * ) SI_UNIT ( $, .STERADIAN. ) SOLID_ANGLE_UNIT ( ) );
#126 = SURFACE_STYLE_USAGE ( .BOTH. , #92 ) ;
#127 = ORIENTED_EDGE ( 'NONE', *, *, #320, .F. ) ;
#128 = DIRECTION ( 'NONE',  ( -0.000000000000000000, -1.000000000000000000, -0.000000000000000000 ) ) ;
#129 = VERTEX_POINT ( 'NONE', #334 ) ;
#130 = CIRCLE ( 'NONE', #33, 0.5000000000000004441 ) ;
#131 =( GEOMETRIC_REPRESENTATION_CONTEXT ( 3 ) GLOBAL_UNCERTAINTY_ASSIGNED_CONTEXT ( ( #291 ) ) GLOBAL_UNIT_ASSIGNED_CONTEXT ( ( #257, #287, #309 ) ) REPRESENTATION_CONTEXT ( 'NONE', 'WORKASPACE' ) );
#132 = EDGE_CURVE ( 'NONE', #185, #37, #236, .T. ) ;
#133 = CARTESIAN_POINT ( 'NONE',  ( 0.000000000000000000, 0.5000000000000000000, 0.000000000000000000 ) ) ;
#134 = DIRECTION ( 'NONE',  ( 0.000000000000000000, 0.000000000000000000, -1.000000000000000000 ) ) ;
#135 = FILL_AREA_STYLE ('',( #18 ) ) ;
#136 = SURFACE_SIDE_STYLE ('',( #338 ) ) ;
#137 = PRESENTATION_LAYER_ASSIGNMENT (  '', '', ( #69 ) ) ;
#138 = DIRECTION ( 'NONE',  ( -1.576935716305902603E-16, 1.000000000000000000, -0.000000000000000000 ) ) ;
#139 = ADVANCED_FACE ( 'NONE', ( #186 ), #36, .T. ) ;
#140 =( LENGTH_UNIT ( ) NAMED_UNIT ( * ) SI_UNIT ( .MILLI., .METRE. ) );
#141 =( NAMED_UNIT ( * ) SI_UNIT ( $, .STERADIAN. ) SOLID_ANGLE_UNIT ( ) );
#142 = DIRECTION ( 'NONE',  ( 1.576935716305902603E-16, -1.000000000000000000, 0.000000000000000000 ) ) ;
#143 = ORIENTED_EDGE ( 'NONE', *, *, #106, .F. ) ;
#144 = CIRCLE ( 'NONE', #35, 9.999999999999992895 ) ;
#145 = AXIS2_PLACEMENT_3D ( 'NONE', #77, #105, #25 ) ;
#146 = CARTESIAN_POINT ( 'NONE',  ( 0.000000000000000000, 0.000000000000000000, 0.000000000000000000 ) ) ;
#147 = FACE_OUTER_BOUND ( 'NONE', #31, .T. ) ;
#148 = ORIENTED_EDGE ( 'NONE', *, *, #156, .T. ) ;
#149 = CARTESIAN_POINT ( 'NONE',  ( -9.999999999999985789, 30.00000000000000000, 0.000000000000000000 ) ) ;
#150 = AXIS2_PLACEMENT_3D ( 'NONE', #52, #175, #233 ) ;
#151 = AXIS2_PLACEMENT_3D ( 'NONE', #72, #221, #48 ) ;
#152 = FILL_AREA_STYLE ('',( #302 ) ) ;
#153 = DIRECTION ( 'NONE',  ( -1.224646799147353454E-16, 0.000000000000000000, -1.000000000000000000 ) ) ;
#154 = CARTESIAN_POINT ( 'NONE',  ( 0.000000000000000000, 0.000000000000000000, -10.00000000000000000 ) ) ;
#155 = CARTESIAN_POINT ( 'NONE',  ( 0.000000000000000000, 0.5000000000000000000, 0.000000000000000000 ) ) ;
#156 = EDGE_CURVE ( 'NONE', #37, #185, #242, .T. ) ;
#157 = CIRCLE ( 'NONE', #53, 10.00000000000000000 ) ;
#158 = PRESENTATION_LAYER_ASSIGNMENT (  '', '', ( #8 ) ) ;
#159 = AXIS2_PLACEMENT_3D ( 'NONE', #102, #107, #252 ) ;
#160 = ORIENTED_EDGE ( 'NONE', *, *, #106, .T. ) ;
#161 = DIRECTION ( 'NONE',  ( 0.000000000000000000, -1.000000000000000000, -0.000000000000000000 ) ) ;
#162 = ADVANCED_FACE ( 'NONE', ( #167 ), #343, .T. ) ;
#163 = APPLICATION_PROTOCOL_DEFINITION ( 'draft international standard', 'automotive_design', 1998, #70 ) ;
#164 = DIRECTION ( 'NONE',  ( 0.000000000000000000, 0.000000000000000000, -1.000000000000000000 ) ) ;
#165 = DIRECTION ( 'NONE',  ( 0.000000000000000000, -0.000000000000000000, 1.000000000000000000 ) ) ;
#166 = UNCERTAINTY_MEASURE_WITH_UNIT (LENGTH_MEASURE( 1.000000000000000082E-05 ), #75, 'distance_accuracy_value', 'NONE');
#167 = FACE_OUTER_BOUND ( 'NONE', #303, .T. ) ;
#168 = CLOSED_SHELL ( 'NONE', ( #308, #139, #112, #228, #296, #316 ) ) ;
#169 =( NAMED_UNIT ( * ) PLANE_ANGLE_UNIT ( ) SI_UNIT ( $, .RADIAN. ) );
#170 = PRODUCT ( '59722', '59722', '', ( #222 ) ) ;
#171 = PRODUCT_DEFINITION_FORMATION_WITH_SPECIFIED_SOURCE ( 'ANY', '', #170, .NOT_KNOWN. ) ;
#172 = FILL_AREA_STYLE_COLOUR ( '', #277 ) ;
#173 = DIRECTION ( 'NONE',  ( 0.000000000000000000, 0.000000000000000000, -1.000000000000000000 ) ) ;
#174 = ORIENTED_EDGE ( 'NONE', *, *, #307, .T. ) ;
#175 = DIRECTION ( 'NONE',  ( -0.000000000000000000, -1.000000000000000000, -0.000000000000000000 ) ) ;
#176 = COLOUR_RGB ( '',0.7921568627450980005, 0.8196078431372548767, 0.9333333333333333481 ) ;
#177 = ORIENTED_EDGE ( 'NONE', *, *, #10, .T. ) ;
#178 = LINE ( 'NONE', #29, #209 ) ;
#179 = DIRECTION ( 'NONE',  ( -0.000000000000000000, -1.000000000000000000, -0.000000000000000000 ) ) ;
#180 =( NAMED_UNIT ( * ) SI_UNIT ( $, .STERADIAN. ) SOLID_ANGLE_UNIT ( ) );
#181 = FACE_OUTER_BOUND ( 'NONE', #337, .T. ) ;
#182 = ORIENTED_EDGE ( 'NONE', *, *, #193, .F. ) ;
#183 = CLOSED_SHELL ( 'NONE', ( #234, #262, #162, #266 ) ) ;
#184 = AXIS2_PLACEMENT_3D ( 'NONE', #235, #232, #293 ) ;
#185 = VERTEX_POINT ( 'NONE', #289 ) ;
#186 = FACE_OUTER_BOUND ( 'NONE', #56, .T. ) ;
#187 = PLANE ( 'NONE',  #295 ) ;
#188 = VECTOR ( 'NONE', #306, 1000.000000000000000 ) ;
#189 = AXIS2_PLACEMENT_3D ( 'NONE', #114, #142, #350 ) ;
#190 = VECTOR ( 'NONE', #198, 1000.000000000000000 ) ;
#191 = DIRECTION ( 'NONE',  ( -1.000000000000000000, 0.000000000000000000, 0.000000000000000000 ) ) ;
#192 = FACE_OUTER_BOUND ( 'NONE', #50, .T. ) ;
#193 = EDGE_CURVE ( 'NONE', #5, #71, #276, .T. ) ;
#194 = SURFACE_SIDE_STYLE ('',( #196 ) ) ;
#195 = AXIS2_PLACEMENT_3D ( 'NONE', #146, #11, #333 ) ;
#196 = SURFACE_STYLE_FILL_AREA ( #103 ) ;
#197 = CIRCLE ( 'NONE', #22, 9.999999999999992895 ) ;
#198 = DIRECTION ( 'NONE',  ( -1.576935716305902603E-16, 1.000000000000000000, -0.000000000000000000 ) ) ;
#199 =( NAMED_UNIT ( * ) PLANE_ANGLE_UNIT ( ) SI_UNIT ( $, .RADIAN. ) );
#200 = SURFACE_STYLE_USAGE ( .BOTH. , #78 ) ;
#201 = ORIENTED_EDGE ( 'NONE', *, *, #132, .T. ) ;
#202 = CIRCLE ( 'NONE', #225, 9.500000000000000000 ) ;
#203 = SURFACE_STYLE_USAGE ( .BOTH. , #348 ) ;
#204 =( GEOMETRIC_REPRESENTATION_CONTEXT ( 3 ) GLOBAL_UNCERTAINTY_ASSIGNED_CONTEXT ( ( #67 ) ) GLOBAL_UNIT_ASSIGNED_CONTEXT ( ( #205, #326, #180 ) ) REPRESENTATION_CONTEXT ( 'NONE', 'WORKASPACE' ) );
#205 =( LENGTH_UNIT ( ) NAMED_UNIT ( * ) SI_UNIT ( .MILLI., .METRE. ) );
#206 = DIRECTION ( 'NONE',  ( 0.000000000000000000, 0.000000000000000000, -1.000000000000000000 ) ) ;
#207 = SURFACE_STYLE_USAGE ( .BOTH. , #88 ) ;
#208 = CARTESIAN_POINT ( 'NONE',  ( 10.00000000000000000, 89.00000000000000000, 1.224646799147353256E-15 ) ) ;
#209 = VECTOR ( 'NONE', #26, 1000.000000000000000 ) ;
#210 = UNCERTAINTY_MEASURE_WITH_UNIT (LENGTH_MEASURE( 1.000000000000000082E-05 ), #297, 'distance_accuracy_value', 'NONE');
#211 =( NAMED_UNIT ( * ) PLANE_ANGLE_UNIT ( ) SI_UNIT ( $, .RADIAN. ) );
#212 = CARTESIAN_POINT ( 'NONE',  ( 0.000000000000000000, 0.000000000000000000, 0.000000000000000000 ) ) ;
#213 = DIRECTION ( 'NONE',  ( -0.000000000000000000, -1.000000000000000000, -0.000000000000000000 ) ) ;
#214 = DIRECTION ( 'NONE',  ( 0.000000000000000000, 0.000000000000000000, -1.000000000000000000 ) ) ;
#215 = COLOUR_RGB ( '',1.000000000000000000, 0.000000000000000000, 0.000000000000000000 ) ;
#216 = SURFACE_SIDE_STYLE ('',( #14 ) ) ;
#217 = CARTESIAN_POINT ( 'NONE',  ( 0.000000000000000000, 30.00000000000000000, -10.00000000000000000 ) ) ;
#218 = PRESENTATION_LAYER_ASSIGNMENT (  '', '', ( #39 ) ) ;
#219 = PRESENTATION_LAYER_ASSIGNMENT (  '', '', ( #349 ) ) ;
#220 = ORIENTED_EDGE ( 'NONE', *, *, #251, .T. ) ;
#221 = DIRECTION ( 'NONE',  ( -1.576935716305902603E-16, 1.000000000000000000, -0.000000000000000000 ) ) ;
#222 = PRODUCT_CONTEXT ( 'NONE', #70, 'mechanical' ) ;
#223 = SURFACE_STYLE_USAGE ( .BOTH. , #136 ) ;
#224 = CARTESIAN_POINT ( 'NONE',  ( 0.000000000000000000, 0.000000000000000000, 0.000000000000000000 ) ) ;
#225 = AXIS2_PLACEMENT_3D ( 'NONE', #273, #271, #352 ) ;
#226 = CIRCLE ( 'NONE', #159, 10.00000000000000178 ) ;
#227 = PRESENTATION_STYLE_ASSIGNMENT (( #207 ) ) ;
#228 = ADVANCED_FACE ( 'NONE', ( #192 ), #47, .T. ) ;
#229 = FILL_AREA_STYLE_COLOUR ( '', #323 ) ;
#230 = MANIFOLD_SOLID_BREP ( 'Revolve - Tool Body (Straight Shanked)', #183 ) ;
#231 = LINE ( 'NONE', #154, #188 ) ;
#232 = DIRECTION ( 'NONE',  ( -1.576935716305902603E-16, 1.000000000000000000, -0.000000000000000000 ) ) ;
#233 = DIRECTION ( 'NONE',  ( 0.000000000000000000, 0.000000000000000000, -1.000000000000000000 ) ) ;
#234 = ADVANCED_FACE ( 'NONE', ( #85 ), #364, .T. ) ;
#235 = CARTESIAN_POINT ( 'NONE',  ( -1.714505518806293849E-15, 89.00000000000000000, 0.000000000000000000 ) ) ;
#236 = CIRCLE ( 'NONE', #68, 10.00000000000000000 ) ;
#237 = PLANE ( 'NONE',  #189 ) ;
#238 = DIRECTION ( 'NONE',  ( -1.576935716305902603E-16, 1.000000000000000000, -0.000000000000000000 ) ) ;
#239 = DIRECTION ( 'NONE',  ( -1.576935716305902603E-16, 1.000000000000000000, 0.000000000000000000 ) ) ;
#240 = CARTESIAN_POINT ( 'NONE',  ( -10.00000000000000355, 89.00000000000000000, 0.000000000000000000 ) ) ;
#241 =( NAMED_UNIT ( * ) SI_UNIT ( $, .STERADIAN. ) SOLID_ANGLE_UNIT ( ) );
#242 = CIRCLE ( 'NONE', #15, 10.00000000000000000 ) ;
#243 = ORIENTED_EDGE ( 'NONE', *, *, #335, .F. ) ;
#244 = ORIENTED_EDGE ( 'NONE', *, *, #94, .T. ) ;
#245 = FILL_AREA_STYLE_COLOUR ( '', #96 ) ;
#246 = PRODUCT_DEFINITION ( 'UNKNOWN', '', #171, #256 ) ;
#247 =( GEOMETRIC_REPRESENTATION_CONTEXT ( 3 ) GLOBAL_UNCERTAINTY_ASSIGNED_CONTEXT ( ( #312 ) ) GLOBAL_UNIT_ASSIGNED_CONTEXT ( ( #318, #199, #141 ) ) REPRESENTATION_CONTEXT ( 'NONE', 'WORKASPACE' ) );
#248 = ORIENTED_EDGE ( 'NONE', *, *, #320, .T. ) ;
#249 = DIRECTION ( 'NONE',  ( -0.000000000000000000, -1.000000000000000000, -0.000000000000000000 ) ) ;
#250 = DIRECTION ( 'NONE',  ( 1.000000000000000000, 0.000000000000000000, 0.000000000000000000 ) ) ;
#251 = EDGE_CURVE ( 'NONE', #30, #5, #178, .T. ) ;
#252 = DIRECTION ( 'NONE',  ( -1.000000000000000000, 0.000000000000000000, 0.000000000000000000 ) ) ;
#253 = AXIS2_PLACEMENT_3D ( 'NONE', #269, #239, #51 ) ;
#254 =( GEOMETRIC_REPRESENTATION_CONTEXT ( 3 ) GLOBAL_UNCERTAINTY_ASSIGNED_CONTEXT ( ( #101 ) ) GLOBAL_UNIT_ASSIGNED_CONTEXT ( ( #140, #46, #42 ) ) REPRESENTATION_CONTEXT ( 'NONE', 'WORKASPACE' ) );
#255 =( LENGTH_UNIT ( ) NAMED_UNIT ( * ) SI_UNIT ( .MILLI., .METRE. ) );
#256 = PRODUCT_DEFINITION_CONTEXT ( 'detailed design', #288, 'design' ) ;
#257 =( LENGTH_UNIT ( ) NAMED_UNIT ( * ) SI_UNIT ( .MILLI., .METRE. ) );
#258 = EDGE_LOOP ( 'NONE', ( #81, #44 ) ) ;
#259 = LINE ( 'NONE', #369, #190 ) ;
#260 = ADVANCED_BREP_SHAPE_REPRESENTATION ( '59722', ( #359, #230, #358 ), #131 ) ;
#261 = CARTESIAN_POINT ( 'NONE',  ( 0.000000000000000000, 30.00000000000000000, 0.000000000000000000 ) ) ;
#262 = ADVANCED_FACE ( 'NONE', ( #147 ), #267, .F. ) ;
#263 = EDGE_CURVE ( 'NONE', #185, #60, #130, .T. ) ;
#264 = ORIENTED_EDGE ( 'NONE', *, *, #57, .T. ) ;
#265 = DIRECTION ( 'NONE',  ( -1.000000000000000000, 0.000000000000000000, 0.000000000000000000 ) ) ;
#266 = ADVANCED_FACE ( 'NONE', ( #299 ), #237, .F. ) ;
#267 = PLANE ( 'NONE',  #253 ) ;
#268 = ORIENTED_EDGE ( 'NONE', *, *, #132, .F. ) ;
#269 = CARTESIAN_POINT ( 'NONE',  ( 7.589415207398531038E-15, 30.00000000000000000, 0.000000000000000000 ) ) ;
#270 = MECHANICAL_DESIGN_GEOMETRIC_PRESENTATION_REPRESENTATION (  '', ( #39 ), #82 ) ;
#271 = DIRECTION ( 'NONE',  ( -0.000000000000000000, -1.000000000000000000, -0.000000000000000000 ) ) ;
#272 = CARTESIAN_POINT ( 'NONE',  ( 1.224646799147353256E-15, 0.000000000000000000, 10.00000000000000000 ) ) ;
#273 = CARTESIAN_POINT ( 'NONE',  ( 0.000000000000000000, 0.000000000000000000, 0.000000000000000000 ) ) ;
#274 = PLANE ( 'NONE',  #19 ) ;
#275 = PRESENTATION_STYLE_ASSIGNMENT (( #362 ) ) ;
#276 = CIRCLE ( 'NONE', #145, 10.00000000000000178 ) ;
#277 = COLOUR_RGB ( '',0.7921568627450980005, 0.8196078431372548767, 0.9333333333333333481 ) ;
#278 = CIRCLE ( 'NONE', #150, 10.00000000000000000 ) ;
#279 = PRESENTATION_STYLE_ASSIGNMENT (( #223 ) ) ;
#280 = CARTESIAN_POINT ( 'NONE',  ( 7.589415207398531038E-15, 30.00000000000000000, 0.000000000000000000 ) ) ;
#281 = FILL_AREA_STYLE_COLOUR ( '', #317 ) ;
#282 =( NAMED_UNIT ( * ) PLANE_ANGLE_UNIT ( ) SI_UNIT ( $, .RADIAN. ) );
#283 = ORIENTED_EDGE ( 'NONE', *, *, #94, .F. ) ;
#284 = STYLED_ITEM ( 'NONE', ( #275 ), #139 ) ;
#285 = AXIS2_PLACEMENT_3D ( 'NONE', #2, #324, #173 ) ;
#286 =( NAMED_UNIT ( * ) PLANE_ANGLE_UNIT ( ) SI_UNIT ( $, .RADIAN. ) );
#287 =( NAMED_UNIT ( * ) PLANE_ANGLE_UNIT ( ) SI_UNIT ( $, .RADIAN. ) );
#288 = APPLICATION_CONTEXT ( 'automotive_design' ) ;
#289 = CARTESIAN_POINT ( 'NONE',  ( 0.000000000000000000, 0.5000000000000000000, -10.00000000000000000 ) ) ;
#290 = FILL_AREA_STYLE_COLOUR ( '', #89 ) ;
#291 = UNCERTAINTY_MEASURE_WITH_UNIT (LENGTH_MEASURE( 1.000000000000000082E-05 ), #257, 'distance_accuracy_value', 'NONE');
#292 = ORIENTED_EDGE ( 'NONE', *, *, #80, .T. ) ;
#293 = DIRECTION ( 'NONE',  ( -1.000000000000000000, 0.000000000000000000, 0.000000000000000000 ) ) ;
#294 = MECHANICAL_DESIGN_GEOMETRIC_PRESENTATION_REPRESENTATION (  '', ( #69 ), #97 ) ;
#295 = AXIS2_PLACEMENT_3D ( 'NONE', #261, #363, #165 ) ;
#296 = ADVANCED_FACE ( 'NONE', ( #9 ), #347, .T. ) ;
#297 =( LENGTH_UNIT ( ) NAMED_UNIT ( * ) SI_UNIT ( .MILLI., .METRE. ) );
#298 = CARTESIAN_POINT ( 'NONE',  ( 1.224646799147353256E-15, 0.5000000000000000000, 10.00000000000000000 ) ) ;
#299 = FACE_OUTER_BOUND ( 'NONE', #258, .T. ) ;
#300 = ORIENTED_EDGE ( 'NONE', *, *, #49, .T. ) ;
#301 =( NAMED_UNIT ( * ) SI_UNIT ( $, .STERADIAN. ) SOLID_ANGLE_UNIT ( ) );
#302 = FILL_AREA_STYLE_COLOUR ( '', #215 ) ;
#303 = EDGE_LOOP ( 'NONE', ( #243, #244, #220, #351 ) ) ;
#304 = VECTOR ( 'NONE', #55, 1000.000000000000000 ) ;
#305 = PRESENTATION_LAYER_ASSIGNMENT (  '', '', ( #90 ) ) ;
#306 = DIRECTION ( 'NONE',  ( -0.000000000000000000, -1.000000000000000000, -0.000000000000000000 ) ) ;
#307 = EDGE_CURVE ( 'NONE', #28, #37, #328, .T. ) ;
#308 = ADVANCED_FACE ( 'NONE', ( #110 ), #360, .T. ) ;
#309 =( NAMED_UNIT ( * ) SI_UNIT ( $, .STERADIAN. ) SOLID_ANGLE_UNIT ( ) );
#310 = PRESENTATION_LAYER_ASSIGNMENT (  '', '', ( #74 ) ) ;
#311 = MECHANICAL_DESIGN_GEOMETRIC_PRESENTATION_REPRESENTATION (  '', ( #90 ), #254 ) ;
#312 = UNCERTAINTY_MEASURE_WITH_UNIT (LENGTH_MEASURE( 1.000000000000000082E-05 ), #318, 'distance_accuracy_value', 'NONE');
#313 =( NAMED_UNIT ( * ) SI_UNIT ( $, .STERADIAN. ) SOLID_ANGLE_UNIT ( ) );
#314 = APPLICATION_PROTOCOL_DEFINITION ( 'draft international standard', 'automotive_design', 1998, #288 ) ;
#315 = PRESENTATION_LAYER_ASSIGNMENT (  '', '', ( #284 ) ) ;
#316 = ADVANCED_FACE ( 'NONE', ( #181 ), #187, .T. ) ;
#317 = COLOUR_RGB ( '',1.000000000000000000, 0.000000000000000000, 0.000000000000000000 ) ;
#318 =( LENGTH_UNIT ( ) NAMED_UNIT ( * ) SI_UNIT ( .MILLI., .METRE. ) );
#319 = CARTESIAN_POINT ( 'NONE',  ( 10.00000000000000000, 30.00000000000000000, 1.224646799147353256E-15 ) ) ;
#320 = EDGE_CURVE ( 'NONE', #30, #329, #197, .T. ) ;
#321 = PRESENTATION_STYLE_ASSIGNMENT (( #200 ) ) ;
#322 = DIRECTION ( 'NONE',  ( 1.000000000000000000, 0.000000000000000000, -1.224646799147353207E-16 ) ) ;
#323 = COLOUR_RGB ( '',1.000000000000000000, 0.000000000000000000, 0.000000000000000000 ) ;
#324 = DIRECTION ( 'NONE',  ( -0.000000000000000000, -1.000000000000000000, -0.000000000000000000 ) ) ;
#325 = PRESENTATION_STYLE_ASSIGNMENT (( #203 ) ) ;
#326 =( NAMED_UNIT ( * ) PLANE_ANGLE_UNIT ( ) SI_UNIT ( $, .RADIAN. ) );
#327 = CARTESIAN_POINT ( 'NONE',  ( 0.000000000000000000, 0.000000000000000000, -9.500000000000000000 ) ) ;
#328 = LINE ( 'NONE', #272, #304 ) ;
#329 = VERTEX_POINT ( 'NONE', #319 ) ;
#330 = EDGE_CURVE ( 'NONE', #71, #5, #226, .T. ) ;
#331 = SURFACE_SIDE_STYLE ('',( #118 ) ) ;
#332 = AXIS2_PLACEMENT_3D ( 'NONE', #79, #322, #153 ) ;
#333 = DIRECTION ( 'NONE',  ( 0.000000000000000000, 0.000000000000000000, -1.000000000000000000 ) ) ;
#334 = CARTESIAN_POINT ( 'NONE',  ( 1.194030629168669469E-15, 0.000000000000000000, 9.500000000000000000 ) ) ;
#335 = EDGE_CURVE ( 'NONE', #329, #71, #259, .T. ) ;
#336 =( GEOMETRIC_REPRESENTATION_CONTEXT ( 3 ) GLOBAL_UNCERTAINTY_ASSIGNED_CONTEXT ( ( #210 ) ) GLOBAL_UNIT_ASSIGNED_CONTEXT ( ( #297, #211, #125 ) ) REPRESENTATION_CONTEXT ( 'NONE', 'WORKASPACE' ) );
#337 = EDGE_LOOP ( 'NONE', ( #73, #143 ) ) ;
#338 = SURFACE_STYLE_FILL_AREA ( #100 ) ;
#339 = SHAPE_DEFINITION_REPRESENTATION ( #20, #260 ) ;
#340 = VERTEX_POINT ( 'NONE', #217 ) ;
#341 = DIRECTION ( 'NONE',  ( 0.000000000000000000, 0.000000000000000000, -1.000000000000000000 ) ) ;
#342 = STYLED_ITEM ( 'NONE', ( #227 ), #316 ) ;
#343 = CYLINDRICAL_SURFACE ( 'NONE', #151, 9.999999999999998224 ) ;
#344 = EDGE_LOOP ( 'NONE', ( #177, #174, #268, #40 ) ) ;
#345 = FILL_AREA_STYLE ('',( #229 ) ) ;
#346 = CARTESIAN_POINT ( 'NONE',  ( 0.000000000000000000, 30.00000000000000000, 0.000000000000000000 ) ) ;
#347 = CYLINDRICAL_SURFACE ( 'NONE', #285, 10.00000000000000000 ) ;
#348 = SURFACE_SIDE_STYLE ('',( #116 ) ) ;
#349 = STYLED_ITEM ( 'NONE', ( #368 ), #230 ) ;
#350 = DIRECTION ( 'NONE',  ( 1.000000000000000000, 1.576935716305902603E-16, 0.000000000000000000 ) ) ;
#351 = ORIENTED_EDGE ( 'NONE', *, *, #330, .F. ) ;
#352 = DIRECTION ( 'NONE',  ( 0.000000000000000000, 0.000000000000000000, -1.000000000000000000 ) ) ;
#353 = DIRECTION ( 'NONE',  ( 0.000000000000000000, 0.000000000000000000, 1.000000000000000000 ) ) ;
#354 = SURFACE_STYLE_FILL_AREA ( #152 ) ;
#355 = CARTESIAN_POINT ( 'NONE',  ( 1.224646799147353256E-15, 30.00000000000000000, 10.00000000000000000 ) ) ;
#356 = UNCERTAINTY_MEASURE_WITH_UNIT (LENGTH_MEASURE( 1.000000000000000082E-05 ), #255, 'distance_accuracy_value', 'NONE');
#357 =( GEOMETRIC_REPRESENTATION_CONTEXT ( 3 ) GLOBAL_UNCERTAINTY_ASSIGNED_CONTEXT ( ( #95 ) ) GLOBAL_UNIT_ASSIGNED_CONTEXT ( ( #21, #282, #24 ) ) REPRESENTATION_CONTEXT ( 'NONE', 'WORKASPACE' ) );
#358 = AXIS2_PLACEMENT_3D ( 'NONE', #224, #99, #250 ) ;
#359 = MANIFOLD_SOLID_BREP ( 'Revolve - Cutting Edge', #168 ) ;
#360 = CYLINDRICAL_SURFACE ( 'NONE', #76, 10.00000000000000000 ) ;
#361 = MECHANICAL_DESIGN_GEOMETRIC_PRESENTATION_REPRESENTATION (  '', ( #349 ), #54 ) ;
#362 = SURFACE_STYLE_USAGE ( .BOTH. , #216 ) ;
#363 = DIRECTION ( 'NONE',  ( 0.000000000000000000, 1.000000000000000000, 0.000000000000000000 ) ) ;
#364 = CYLINDRICAL_SURFACE ( 'NONE', #184, 9.999999999999998224 ) ;
#365 = CIRCLE ( 'NONE', #332, 0.5000000000000004441 ) ;
#366 = MECHANICAL_DESIGN_GEOMETRIC_PRESENTATION_REPRESENTATION (  '', ( #8 ), #336 ) ;
#367 = SURFACE_STYLE_FILL_AREA ( #135 ) ;
#368 = PRESENTATION_STYLE_ASSIGNMENT (( #23 ) ) ;
#369 = CARTESIAN_POINT ( 'NONE',  ( 9.999999999999996447, 89.00000000000000000, 1.224646799147353059E-15 ) ) ;
#370 = ORIENTED_EDGE ( 'NONE', *, *, #156, .F. ) ;
ENDSEC;
END-ISO-10303-21;
