ISO-10303-21;
HEADER;
FILE_DESCRIPTION (( 'STEP AP214' ),
    '1' );
FILE_NAME ('86082.STEP',
    '2023-07-01T00:05:17',
    ( '' ),
    ( '' ),
    'SwSTEP 2.0',
    'SolidWorks 2023',
    '' );
FILE_SCHEMA (( 'AUTOMOTIVE_DESIGN' ));
ENDSEC;

DATA;
#1 =( NAMED_UNIT ( * ) PLANE_ANGLE_UNIT ( ) SI_UNIT ( $, .RADIAN. ) );
#2 =( NAMED_UNIT ( * ) PLANE_ANGLE_UNIT ( ) SI_UNIT ( $, .RADIAN. ) );
#3 = FILL_AREA_STYLE ('',( #114 ) ) ;
#4 = AXIS2_PLACEMENT_3D ( 'NONE', #309, #5, #155 ) ;
#5 = DIRECTION ( 'NONE',  ( 0.000000000000000000, 0.000000000000000000, 1.000000000000000000 ) ) ;
#6 = DIRECTION ( 'NONE',  ( 0.000000000000000000, -0.000000000000000000, 1.000000000000000000 ) ) ;
#7 = EDGE_LOOP ( 'NONE', ( #78, #37, #372, #194, #82 ) ) ;
#8 = VERTEX_POINT ( 'NONE', #44 ) ;
#9 = CARTESIAN_POINT ( 'NONE',  ( 0.000000000000000000, 2.500000000000000000, 0.000000000000000000 ) ) ;
#10 = ORIENTED_EDGE ( 'NONE', *, *, #348, .T. ) ;
#11 = CARTESIAN_POINT ( 'NONE',  ( -0.1875000000000000833, 5.000000000000000000, 0.000000000000000000 ) ) ;
#12 = AXIS2_PLACEMENT_3D ( 'NONE', #98, #332, #323 ) ;
#13 = ORIENTED_EDGE ( 'NONE', *, *, #369, .F. ) ;
#14 = CARTESIAN_POINT ( 'NONE',  ( 6.167612263025076553E-17, 2.500000000000000000, 0.000000000000000000 ) ) ;
#15 = SURFACE_SIDE_STYLE ('',( #100 ) ) ;
#16 = UNCERTAINTY_MEASURE_WITH_UNIT (LENGTH_MEASURE( 1.000000000000000082E-05 ), #231, 'distance_accuracy_value', 'NONE');
#17 = CARTESIAN_POINT ( 'NONE',  ( -2.449293598294705921E-16, 5.000000000000000000, 0.000000000000000000 ) ) ;
#18 = CIRCLE ( 'NONE', #302, 0.1875000000000000278 ) ;
#19 = EDGE_CURVE ( 'NONE', #105, #75, #159, .T. ) ;
#20 = EDGE_CURVE ( 'NONE', #105, #134, #201, .T. ) ;
#21 = DIRECTION ( 'NONE',  ( -0.000000000000000000, -1.000000000000000000, -0.000000000000000000 ) ) ;
#22 =( GEOMETRIC_REPRESENTATION_CONTEXT ( 3 ) GLOBAL_UNCERTAINTY_ASSIGNED_CONTEXT ( ( #171 ) ) GLOBAL_UNIT_ASSIGNED_CONTEXT ( ( #215, #274, #331 ) ) REPRESENTATION_CONTEXT ( 'NONE', 'WORKASPACE' ) );
#23 = STYLED_ITEM ( 'NONE', ( #94 ), #116 ) ;
#24 =( LENGTH_UNIT ( ) NAMED_UNIT ( * ) SI_UNIT ( $, .METRE. ) );
#25 = LENGTH_MEASURE_WITH_UNIT ( LENGTH_MEASURE( 0.02539999999999999897 ), #147 );
#26 = DIMENSIONAL_EXPONENTS ( 1.000000000000000000, 0.000000000000000000, 0.000000000000000000, 0.000000000000000000, 0.000000000000000000, 0.000000000000000000, 0.000000000000000000 ) ;
#27 = APPLICATION_CONTEXT ( 'automotive_design' ) ;
#28 = FACE_OUTER_BOUND ( 'NONE', #126, .T. ) ;
#29 = FACE_OUTER_BOUND ( 'NONE', #220, .T. ) ;
#30 = AXIS2_PLACEMENT_3D ( 'NONE', #257, #310, #317 ) ;
#31 = COLOUR_RGB ( '',1.000000000000000000, 0.000000000000000000, 0.000000000000000000 ) ;
#32 = SPHERICAL_SURFACE ( 'NONE', #138, 0.1875000000000000278 ) ;
#33 = SURFACE_STYLE_USAGE ( .BOTH. , #296 ) ;
#34 = DIRECTION ( 'NONE',  ( -1.226421929838885431E-16, 1.000000000000000000, -0.000000000000000000 ) ) ;
#35 = DIRECTION ( 'NONE',  ( 0.000000000000000000, 0.000000000000000000, -1.000000000000000000 ) ) ;
#36 = ADVANCED_FACE ( 'NONE', ( #204 ), #85, .T. ) ;
#37 = ORIENTED_EDGE ( 'NONE', *, *, #66, .T. ) ;
#38 = SURFACE_STYLE_FILL_AREA ( #41 ) ;
#39 = DIRECTION ( 'NONE',  ( -1.000000000000000000, 0.000000000000000000, 0.000000000000000000 ) ) ;
#40 = VERTEX_POINT ( 'NONE', #48 ) ;
#41 = FILL_AREA_STYLE ('',( #306 ) ) ;
#42 = SURFACE_STYLE_FILL_AREA ( #245 ) ;
#43 = VERTEX_POINT ( 'NONE', #281 ) ;
#44 = CARTESIAN_POINT ( 'NONE',  ( -0.1875000000000000278, 0.1875000000000000555, 2.296212748401287109E-17 ) ) ;
#45 = CIRCLE ( 'NONE', #64, 0.1874999999999999722 ) ;
#46 =( LENGTH_UNIT ( ) NAMED_UNIT ( * ) SI_UNIT ( $, .METRE. ) );
#47 =( CONVERSION_BASED_UNIT ( 'INCH', #283 ) LENGTH_UNIT ( ) NAMED_UNIT ( #316 ) );
#48 = CARTESIAN_POINT ( 'NONE',  ( -0.1875000000000002220, 5.000000000000000000, 0.000000000000000000 ) ) ;
#49 = EDGE_CURVE ( 'NONE', #8, #43, #338, .T. ) ;
#50 = DIRECTION ( 'NONE',  ( -1.226421929838885431E-16, 1.000000000000000000, -0.000000000000000000 ) ) ;
#51 = DIRECTION ( 'NONE',  ( -1.000000000000000000, 0.000000000000000000, 0.000000000000000000 ) ) ;
#52 = COLOUR_RGB ( '',1.000000000000000000, 0.000000000000000000, 0.000000000000000000 ) ;
#53 =( NAMED_UNIT ( * ) SI_UNIT ( $, .STERADIAN. ) SOLID_ANGLE_UNIT ( ) );
#54 = COLOUR_RGB ( '',1.000000000000000000, 0.000000000000000000, 0.000000000000000000 ) ;
#55 = DIRECTION ( 'NONE',  ( -1.000000000000000000, 0.000000000000000000, 0.000000000000000000 ) ) ;
#56 = DIRECTION ( 'NONE',  ( 0.000000000000000000, 0.000000000000000000, -1.000000000000000000 ) ) ;
#57 = CARTESIAN_POINT ( 'NONE',  ( 0.000000000000000000, 0.1875000000000000555, -0.1874999999999999722 ) ) ;
#58 =( LENGTH_UNIT ( ) NAMED_UNIT ( * ) SI_UNIT ( $, .METRE. ) );
#59 = STYLED_ITEM ( 'NONE', ( #67 ), #221 ) ;
#60 =( GEOMETRIC_REPRESENTATION_CONTEXT ( 3 ) GLOBAL_UNCERTAINTY_ASSIGNED_CONTEXT ( ( #166 ) ) GLOBAL_UNIT_ASSIGNED_CONTEXT ( ( #65, #2, #62 ) ) REPRESENTATION_CONTEXT ( 'NONE', 'WORKASPACE' ) );
#61 = FILL_AREA_STYLE_COLOUR ( '', #365 ) ;
#62 =( NAMED_UNIT ( * ) SI_UNIT ( $, .STERADIAN. ) SOLID_ANGLE_UNIT ( ) );
#63 = FACE_OUTER_BOUND ( 'NONE', #144, .T. ) ;
#64 = AXIS2_PLACEMENT_3D ( 'NONE', #285, #200, #56 ) ;
#65 =( CONVERSION_BASED_UNIT ( 'INCH', #25 ) LENGTH_UNIT ( ) NAMED_UNIT ( #263 ) );
#66 = EDGE_CURVE ( 'NONE', #134, #105, #72, .T. ) ;
#67 = PRESENTATION_STYLE_ASSIGNMENT (( #125 ) ) ;
#68 = DIRECTION ( 'NONE',  ( -0.000000000000000000, -1.000000000000000000, -0.000000000000000000 ) ) ;
#69 = ORIENTED_EDGE ( 'NONE', *, *, #66, .F. ) ;
#70 = PRESENTATION_LAYER_ASSIGNMENT (  '', '', ( #350 ) ) ;
#71 = AXIS2_PLACEMENT_3D ( 'NONE', #216, #326, #35 ) ;
#72 = CIRCLE ( 'NONE', #237, 0.1874999999999997502 ) ;
#73 = CARTESIAN_POINT ( 'NONE',  ( 2.296212748401286801E-17, 0.1875000000000000555, 0.1874999999999999722 ) ) ;
#74 = EDGE_LOOP ( 'NONE', ( #333, #188 ) ) ;
#75 = VERTEX_POINT ( 'NONE', #57 ) ;
#76 = ADVANCED_FACE ( 'NONE', ( #373 ), #270, .F. ) ;
#77 = CARTESIAN_POINT ( 'NONE',  ( 0.000000000000000000, 0.1875000000000000555, 0.000000000000000000 ) ) ;
#78 = ORIENTED_EDGE ( 'NONE', *, *, #179, .F. ) ;
#79 = CARTESIAN_POINT ( 'NONE',  ( 0.000000000000000000, 0.000000000000000000, 0.000000000000000000 ) ) ;
#80 =( NAMED_UNIT ( * ) SI_UNIT ( $, .STERADIAN. ) SOLID_ANGLE_UNIT ( ) );
#81 = COLOUR_RGB ( '',1.000000000000000000, 0.000000000000000000, 0.000000000000000000 ) ;
#82 = ORIENTED_EDGE ( 'NONE', *, *, #298, .F. ) ;
#83 = FILL_AREA_STYLE_COLOUR ( '', #81 ) ;
#84 = CYLINDRICAL_SURFACE ( 'NONE', #132, 0.1874999999999998335 ) ;
#85 = CYLINDRICAL_SURFACE ( 'NONE', #91, 0.1874999999999998335 ) ;
#86 = CARTESIAN_POINT ( 'NONE',  ( -2.449293598294705921E-16, 5.000000000000000000, 0.000000000000000000 ) ) ;
#87 = COLOUR_RGB ( '',0.7921568627450980005, 0.8196078431372548767, 0.9333333333333333481 ) ;
#88 = PRESENTATION_LAYER_ASSIGNMENT (  '', '', ( #23 ) ) ;
#89 = LENGTH_MEASURE_WITH_UNIT ( LENGTH_MEASURE( 0.02539999999999999897 ), #311 );
#90 = COLOUR_RGB ( '',0.7921568627450980005, 0.8196078431372548767, 0.9333333333333333481 ) ;
#91 = AXIS2_PLACEMENT_3D ( 'NONE', #254, #107, #225 ) ;
#92 = SURFACE_SIDE_STYLE ('',( #174 ) ) ;
#93 = LENGTH_MEASURE_WITH_UNIT ( LENGTH_MEASURE( 0.02539999999999999897 ), #58 );
#94 = PRESENTATION_STYLE_ASSIGNMENT (( #267 ) ) ;
#95 = AXIS2_PLACEMENT_3D ( 'NONE', #9, #130, #6 ) ;
#96 = ADVANCED_BREP_SHAPE_REPRESENTATION ( '86082', ( #221, #340, #218 ), #168 ) ;
#97 = CLOSED_SHELL ( 'NONE', ( #292, #291, #280, #76 ) ) ;
#98 = CARTESIAN_POINT ( 'NONE',  ( -2.449293598294705921E-16, 5.000000000000000000, 0.000000000000000000 ) ) ;
#99 = ORIENTED_EDGE ( 'NONE', *, *, #298, .T. ) ;
#100 = SURFACE_STYLE_FILL_AREA ( #307 ) ;
#101 = LENGTH_MEASURE_WITH_UNIT ( LENGTH_MEASURE( 0.02539999999999999897 ), #127 );
#102 = MECHANICAL_DESIGN_GEOMETRIC_PRESENTATION_REPRESENTATION (  '', ( #123 ), #366 ) ;
#103 = CARTESIAN_POINT ( 'NONE',  ( 0.000000000000000000, 0.1875000000000000555, 0.000000000000000000 ) ) ;
#104 = CARTESIAN_POINT ( 'NONE',  ( 0.1874999999999997502, 5.000000000000000000, 2.296212748401286493E-17 ) ) ;
#105 = VERTEX_POINT ( 'NONE', #349 ) ;
#106 = AXIS2_PLACEMENT_3D ( 'NONE', #153, #161, #195 ) ;
#107 = DIRECTION ( 'NONE',  ( -0.000000000000000000, -1.000000000000000000, -0.000000000000000000 ) ) ;
#108 = PRODUCT_CONTEXT ( 'NONE', #27, 'mechanical' ) ;
#109 = FILL_AREA_STYLE ('',( #83 ) ) ;
#110 = STYLED_ITEM ( 'NONE', ( #148 ), #305 ) ;
#111 = UNCERTAINTY_MEASURE_WITH_UNIT (LENGTH_MEASURE( 1.000000000000000082E-05 ), #47, 'distance_accuracy_value', 'NONE');
#112 = DIRECTION ( 'NONE',  ( 0.000000000000000000, 0.000000000000000000, -1.000000000000000000 ) ) ;
#113 = LENGTH_MEASURE_WITH_UNIT ( LENGTH_MEASURE( 0.02539999999999999897 ), #24 );
#114 = FILL_AREA_STYLE_COLOUR ( '', #31 ) ;
#115 = DIMENSIONAL_EXPONENTS ( 1.000000000000000000, 0.000000000000000000, 0.000000000000000000, 0.000000000000000000, 0.000000000000000000, 0.000000000000000000, 0.000000000000000000 ) ;
#116 = ADVANCED_FACE ( 'NONE', ( #63 ), #176, .T. ) ;
#117 = PRESENTATION_LAYER_ASSIGNMENT (  '', '', ( #110 ) ) ;
#118 = VECTOR ( 'NONE', #21, 39.37007874015748143 ) ;
#119 = DIRECTION ( 'NONE',  ( -0.000000000000000000, -1.000000000000000000, -0.000000000000000000 ) ) ;
#120 = SURFACE_STYLE_FILL_AREA ( #269 ) ;
#121 = CARTESIAN_POINT ( 'NONE',  ( 2.296212748401285260E-17, 0.000000000000000000, 0.1874999999999998335 ) ) ;
#122 = VECTOR ( 'NONE', #315, 39.37007874015748143 ) ;
#123 = STYLED_ITEM ( 'NONE', ( #354 ), #183 ) ;
#124 = SURFACE_STYLE_USAGE ( .BOTH. , #219 ) ;
#125 = SURFACE_STYLE_USAGE ( .BOTH. , #15 ) ;
#126 = EDGE_LOOP ( 'NONE', ( #303, #253, #193, #357 ) ) ;
#127 =( LENGTH_UNIT ( ) NAMED_UNIT ( * ) SI_UNIT ( $, .METRE. ) );
#128 =( LENGTH_UNIT ( ) NAMED_UNIT ( * ) SI_UNIT ( $, .METRE. ) );
#129 = ORIENTED_EDGE ( 'NONE', *, *, #179, .T. ) ;
#130 = DIRECTION ( 'NONE',  ( 0.000000000000000000, 1.000000000000000000, 0.000000000000000000 ) ) ;
#131 = ORIENTED_EDGE ( 'NONE', *, *, #358, .T. ) ;
#132 = AXIS2_PLACEMENT_3D ( 'NONE', #86, #312, #51 ) ;
#133 = DIRECTION ( 'NONE',  ( 0.000000000000000000, 0.000000000000000000, -1.000000000000000000 ) ) ;
#134 = VERTEX_POINT ( 'NONE', #320 ) ;
#135 = CARTESIAN_POINT ( 'NONE',  ( -2.296212748401287726E-17, 0.1875000000000000278, 0.000000000000000000 ) ) ;
#136 = CARTESIAN_POINT ( 'NONE',  ( 6.167612263025076553E-17, 2.500000000000000000, 0.000000000000000000 ) ) ;
#137 = UNCERTAINTY_MEASURE_WITH_UNIT (LENGTH_MEASURE( 1.000000000000000082E-05 ), #208, 'distance_accuracy_value', 'NONE');
#138 = AXIS2_PLACEMENT_3D ( 'NONE', #295, #187, #242 ) ;
#139 = CIRCLE ( 'NONE', #71, 0.1874999999999999722 ) ;
#140 = AXIS2_PLACEMENT_3D ( 'NONE', #368, #142, #344 ) ;
#141 = APPLICATION_PROTOCOL_DEFINITION ( 'draft international standard', 'automotive_design', 1998, #355 ) ;
#142 = DIRECTION ( 'NONE',  ( 1.224646799147353207E-16, -0.000000000000000000, 1.000000000000000000 ) ) ;
#143 = DIRECTION ( 'NONE',  ( -1.000000000000000000, 0.000000000000000000, 0.000000000000000000 ) ) ;
#144 = EDGE_LOOP ( 'NONE', ( #163, #129, #324, #364, #250 ) ) ;
#145 = UNCERTAINTY_MEASURE_WITH_UNIT (LENGTH_MEASURE( 1.000000000000000082E-05 ), #162, 'distance_accuracy_value', 'NONE');
#146 = SURFACE_SIDE_STYLE ('',( #287 ) ) ;
#147 =( LENGTH_UNIT ( ) NAMED_UNIT ( * ) SI_UNIT ( $, .METRE. ) );
#148 = PRESENTATION_STYLE_ASSIGNMENT (( #240 ) ) ;
#149 = MECHANICAL_DESIGN_GEOMETRIC_PRESENTATION_REPRESENTATION (  '', ( #347 ), #22 ) ;
#150 = STYLED_ITEM ( 'NONE', ( #339 ), #36 ) ;
#151 = CARTESIAN_POINT ( 'NONE',  ( 0.1874999999999997502, 2.500000000000000000, 2.296212748401286493E-17 ) ) ;
#152 = LINE ( 'NONE', #121, #169 ) ;
#153 = CARTESIAN_POINT ( 'NONE',  ( 6.167612263025076553E-17, 2.500000000000000000, 0.000000000000000000 ) ) ;
#154 = CIRCLE ( 'NONE', #235, 0.1874999999999999722 ) ;
#155 = DIRECTION ( 'NONE',  ( 1.000000000000000000, 0.000000000000000000, 0.000000000000000000 ) ) ;
#156 = SURFACE_STYLE_USAGE ( .BOTH. , #356 ) ;
#157 = ORIENTED_EDGE ( 'NONE', *, *, #265, .F. ) ;
#158 = EDGE_LOOP ( 'NONE', ( #99, #223, #157, #190 ) ) ;
#159 = LINE ( 'NONE', #313, #118 ) ;
#160 = VECTOR ( 'NONE', #34, 39.37007874015748143 ) ;
#161 = DIRECTION ( 'NONE',  ( -1.226421929838885431E-16, 1.000000000000000000, -0.000000000000000000 ) ) ;
#162 =( CONVERSION_BASED_UNIT ( 'INCH', #272 ) LENGTH_UNIT ( ) NAMED_UNIT ( #278 ) );
#163 = ORIENTED_EDGE ( 'NONE', *, *, #20, .T. ) ;
#164 =( NAMED_UNIT ( * ) PLANE_ANGLE_UNIT ( ) SI_UNIT ( $, .RADIAN. ) );
#165 = DIRECTION ( 'NONE',  ( -1.000000000000000000, -1.226421929838885431E-16, 0.000000000000000000 ) ) ;
#166 = UNCERTAINTY_MEASURE_WITH_UNIT (LENGTH_MEASURE( 1.000000000000000082E-05 ), #65, 'distance_accuracy_value', 'NONE');
#167 = AXIS2_PLACEMENT_3D ( 'NONE', #180, #210, #353 ) ;
#168 =( GEOMETRIC_REPRESENTATION_CONTEXT ( 3 ) GLOBAL_UNCERTAINTY_ASSIGNED_CONTEXT ( ( #111 ) ) GLOBAL_UNIT_ASSIGNED_CONTEXT ( ( #47, #164, #80 ) ) REPRESENTATION_CONTEXT ( 'NONE', 'WORKASPACE' ) );
#169 = VECTOR ( 'NONE', #207, 39.37007874015748143 ) ;
#170 =( NAMED_UNIT ( * ) PLANE_ANGLE_UNIT ( ) SI_UNIT ( $, .RADIAN. ) );
#171 = UNCERTAINTY_MEASURE_WITH_UNIT (LENGTH_MEASURE( 1.000000000000000082E-05 ), #215, 'distance_accuracy_value', 'NONE');
#172 = DIRECTION ( 'NONE',  ( -0.000000000000000000, -1.000000000000000000, -0.000000000000000000 ) ) ;
#173 =( GEOMETRIC_REPRESENTATION_CONTEXT ( 3 ) GLOBAL_UNCERTAINTY_ASSIGNED_CONTEXT ( ( #337 ) ) GLOBAL_UNIT_ASSIGNED_CONTEXT ( ( #214, #299, #192 ) ) REPRESENTATION_CONTEXT ( 'NONE', 'WORKASPACE' ) );
#174 = SURFACE_STYLE_FILL_AREA ( #3 ) ;
#175 = SURFACE_SIDE_STYLE ('',( #120 ) ) ;
#176 = CYLINDRICAL_SURFACE ( 'NONE', #289, 0.1874999999999998335 ) ;
#177 = PRODUCT_DEFINITION_SHAPE ( 'NONE', 'NONE',  #329 ) ;
#178 = FILL_AREA_STYLE_COLOUR ( '', #54 ) ;
#179 = EDGE_CURVE ( 'NONE', #134, #277, #152, .T. ) ;
#180 = CARTESIAN_POINT ( 'NONE',  ( 0.1874999999999997502, 5.000000000000000000, 0.000000000000000000 ) ) ;
#181 = ORIENTED_EDGE ( 'NONE', *, *, #20, .F. ) ;
#182 = CARTESIAN_POINT ( 'NONE',  ( 0.1874999999999999722, 0.1875000000000000555, 0.000000000000000000 ) ) ;
#183 = ADVANCED_FACE ( 'NONE', ( #28 ), #32, .T. ) ;
#184 = ADVANCED_FACE ( 'NONE', ( #29 ), #252, .T. ) ;
#185 = CLOSED_SHELL ( 'NONE', ( #305, #116, #184, #36, #183 ) ) ;
#186 = DIRECTION ( 'NONE',  ( 0.000000000000000000, 0.000000000000000000, -1.000000000000000000 ) ) ;
#187 = DIRECTION ( 'NONE',  ( 0.000000000000000000, 0.000000000000000000, 1.000000000000000000 ) ) ;
#188 = ORIENTED_EDGE ( 'NONE', *, *, #198, .T. ) ;
#189 = LENGTH_MEASURE_WITH_UNIT ( LENGTH_MEASURE( 0.02539999999999999897 ), #46 );
#190 = ORIENTED_EDGE ( 'NONE', *, *, #238, .T. ) ;
#191 = CARTESIAN_POINT ( 'NONE',  ( -0.1874999999999996114, 2.500000000000000000, 0.000000000000000000 ) ) ;
#192 =( NAMED_UNIT ( * ) SI_UNIT ( $, .STERADIAN. ) SOLID_ANGLE_UNIT ( ) );
#193 = ORIENTED_EDGE ( 'NONE', *, *, #328, .T. ) ;
#194 = ORIENTED_EDGE ( 'NONE', *, *, #271, .F. ) ;
#195 = DIRECTION ( 'NONE',  ( -1.000000000000000000, 0.000000000000000000, 0.000000000000000000 ) ) ;
#196 = FACE_OUTER_BOUND ( 'NONE', #260, .T. ) ;
#197 = CARTESIAN_POINT ( 'NONE',  ( 0.000000000000000000, 2.500000000000000000, 0.000000000000000000 ) ) ;
#198 = EDGE_CURVE ( 'NONE', #361, #40, #241, .T. ) ;
#199 = CARTESIAN_POINT ( 'NONE',  ( 0.1874999999999996114, 5.000000000000000000, 2.296212748401285260E-17 ) ) ;
#200 = DIRECTION ( 'NONE',  ( -0.000000000000000000, -1.000000000000000000, -0.000000000000000000 ) ) ;
#201 = CIRCLE ( 'NONE', #282, 0.1874999999999997502 ) ;
#202 = DIRECTION ( 'NONE',  ( 0.000000000000000000, 0.000000000000000000, -1.000000000000000000 ) ) ;
#203 = FACE_OUTER_BOUND ( 'NONE', #247, .T. ) ;
#204 = FACE_OUTER_BOUND ( 'NONE', #7, .T. ) ;
#205 =( NAMED_UNIT ( * ) SI_UNIT ( $, .STERADIAN. ) SOLID_ANGLE_UNIT ( ) );
#206 = CIRCLE ( 'NONE', #351, 0.1874999999999999722 ) ;
#207 = DIRECTION ( 'NONE',  ( -0.000000000000000000, -1.000000000000000000, -0.000000000000000000 ) ) ;
#208 =( CONVERSION_BASED_UNIT ( 'INCH', #93 ) LENGTH_UNIT ( ) NAMED_UNIT ( #286 ) );
#209 =( NAMED_UNIT ( * ) PLANE_ANGLE_UNIT ( ) SI_UNIT ( $, .RADIAN. ) );
#210 = DIRECTION ( 'NONE',  ( 1.226421929838885431E-16, -1.000000000000000000, 0.000000000000000000 ) ) ;
#211 = PRESENTATION_LAYER_ASSIGNMENT (  '', '', ( #347 ) ) ;
#212 = FILL_AREA_STYLE_COLOUR ( '', #52 ) ;
#213 = PRESENTATION_STYLE_ASSIGNMENT (( #124 ) ) ;
#214 =( CONVERSION_BASED_UNIT ( 'INCH', #189 ) LENGTH_UNIT ( ) NAMED_UNIT ( #258 ) );
#215 =( CONVERSION_BASED_UNIT ( 'INCH', #101 ) LENGTH_UNIT ( ) NAMED_UNIT ( #26 ) );
#216 = CARTESIAN_POINT ( 'NONE',  ( 0.000000000000000000, 0.1875000000000000555, 0.000000000000000000 ) ) ;
#217 = ORIENTED_EDGE ( 'NONE', *, *, #319, .T. ) ;
#218 = AXIS2_PLACEMENT_3D ( 'NONE', #79, #367, #284 ) ;
#219 = SURFACE_SIDE_STYLE ('',( #38 ) ) ;
#220 = EDGE_LOOP ( 'NONE', ( #181, #69 ) ) ;
#221 = MANIFOLD_SOLID_BREP ( 'Revolve - Cutting Edge', #185 ) ;
#222 = SHAPE_DEFINITION_REPRESENTATION ( #177, #96 ) ;
#223 = ORIENTED_EDGE ( 'NONE', *, *, #49, .T. ) ;
#224 = CIRCLE ( 'NONE', #106, 0.1874999999999996669 ) ;
#225 = DIRECTION ( 'NONE',  ( 0.000000000000000000, 0.000000000000000000, -1.000000000000000000 ) ) ;
#226 = LINE ( 'NONE', #199, #122 ) ;
#227 = FACE_OUTER_BOUND ( 'NONE', #304, .T. ) ;
#228 = DIRECTION ( 'NONE',  ( -0.000000000000000000, -1.000000000000000000, -0.000000000000000000 ) ) ;
#229 = AXIS2_PLACEMENT_3D ( 'NONE', #136, #345, #165 ) ;
#230 = ORIENTED_EDGE ( 'NONE', *, *, #319, .F. ) ;
#231 =( CONVERSION_BASED_UNIT ( 'INCH', #113 ) LENGTH_UNIT ( ) NAMED_UNIT ( #256 ) );
#232 = CARTESIAN_POINT ( 'NONE',  ( 0.000000000000000000, 0.000000000000000000, 0.000000000000000000 ) ) ;
#233 = PRODUCT ( '86082', '86082', '', ( #108 ) ) ;
#234 =( GEOMETRIC_REPRESENTATION_CONTEXT ( 3 ) GLOBAL_UNCERTAINTY_ASSIGNED_CONTEXT ( ( #343 ) ) GLOBAL_UNIT_ASSIGNED_CONTEXT ( ( #346, #170, #53 ) ) REPRESENTATION_CONTEXT ( 'NONE', 'WORKASPACE' ) );
#235 = AXIS2_PLACEMENT_3D ( 'NONE', #103, #68, #133 ) ;
#236 =( NAMED_UNIT ( * ) SI_UNIT ( $, .STERADIAN. ) SOLID_ANGLE_UNIT ( ) );
#237 = AXIS2_PLACEMENT_3D ( 'NONE', #197, #228, #202 ) ;
#238 = EDGE_CURVE ( 'NONE', #243, #277, #154, .T. ) ;
#239 = DIRECTION ( 'NONE',  ( 0.000000000000000000, 0.000000000000000000, -1.000000000000000000 ) ) ;
#240 = SURFACE_STYLE_USAGE ( .BOTH. , #175 ) ;
#241 = CIRCLE ( 'NONE', #12, 0.1874999999999999722 ) ;
#242 = DIRECTION ( 'NONE',  ( 1.000000000000000000, 0.000000000000000000, 0.000000000000000000 ) ) ;
#243 = VERTEX_POINT ( 'NONE', #182 ) ;
#244 = ORIENTED_EDGE ( 'NONE', *, *, #358, .F. ) ;
#245 = FILL_AREA_STYLE ('',( #212 ) ) ;
#246 =( GEOMETRIC_REPRESENTATION_CONTEXT ( 3 ) GLOBAL_UNCERTAINTY_ASSIGNED_CONTEXT ( ( #16 ) ) GLOBAL_UNIT_ASSIGNED_CONTEXT ( ( #231, #209, #205 ) ) REPRESENTATION_CONTEXT ( 'NONE', 'WORKASPACE' ) );
#247 = EDGE_LOOP ( 'NONE', ( #244, #322, #217, #300 ) ) ;
#248 = MECHANICAL_DESIGN_GEOMETRIC_PRESENTATION_REPRESENTATION (  '', ( #150 ), #234 ) ;
#249 = PRESENTATION_STYLE_ASSIGNMENT (( #156 ) ) ;
#250 = ORIENTED_EDGE ( 'NONE', *, *, #19, .F. ) ;
#251 = DIRECTION ( 'NONE',  ( -1.226421929838885431E-16, 1.000000000000000000, -0.000000000000000000 ) ) ;
#252 = PLANE ( 'NONE',  #95 ) ;
#253 = ORIENTED_EDGE ( 'NONE', *, *, #271, .T. ) ;
#254 = CARTESIAN_POINT ( 'NONE',  ( 0.000000000000000000, 0.000000000000000000, 0.000000000000000000 ) ) ;
#255 =( GEOMETRIC_REPRESENTATION_CONTEXT ( 3 ) GLOBAL_UNCERTAINTY_ASSIGNED_CONTEXT ( ( #145 ) ) GLOBAL_UNIT_ASSIGNED_CONTEXT ( ( #162, #363, #321 ) ) REPRESENTATION_CONTEXT ( 'NONE', 'WORKASPACE' ) );
#256 = DIMENSIONAL_EXPONENTS ( 1.000000000000000000, 0.000000000000000000, 0.000000000000000000, 0.000000000000000000, 0.000000000000000000, 0.000000000000000000, 0.000000000000000000 ) ;
#257 = CARTESIAN_POINT ( 'NONE',  ( -2.449293598294705921E-16, 5.000000000000000000, 0.000000000000000000 ) ) ;
#258 = DIMENSIONAL_EXPONENTS ( 1.000000000000000000, 0.000000000000000000, 0.000000000000000000, 0.000000000000000000, 0.000000000000000000, 0.000000000000000000, 0.000000000000000000 ) ;
#259 = PRESENTATION_LAYER_ASSIGNMENT (  '', '', ( #59 ) ) ;
#260 = EDGE_LOOP ( 'NONE', ( #10, #131, #13, #230 ) ) ;
#261 = SURFACE_STYLE_USAGE ( .BOTH. , #146 ) ;
#262 = PRODUCT_RELATED_PRODUCT_CATEGORY ( 'part', '', ( #233 ) ) ;
#263 = DIMENSIONAL_EXPONENTS ( 1.000000000000000000, 0.000000000000000000, 0.000000000000000000, 0.000000000000000000, 0.000000000000000000, 0.000000000000000000, 0.000000000000000000 ) ;
#264 = FACE_OUTER_BOUND ( 'NONE', #158, .T. ) ;
#265 = EDGE_CURVE ( 'NONE', #243, #43, #18, .T. ) ;
#266 = PRODUCT_DEFINITION_FORMATION_WITH_SPECIFIED_SOURCE ( 'ANY', '', #233, .NOT_KNOWN. ) ;
#267 = SURFACE_STYLE_USAGE ( .BOTH. , #92 ) ;
#268 = PRESENTATION_LAYER_ASSIGNMENT (  '', '', ( #123 ) ) ;
#269 = FILL_AREA_STYLE ('',( #61 ) ) ;
#270 = PLANE ( 'NONE',  #167 ) ;
#271 = EDGE_CURVE ( 'NONE', #8, #75, #139, .T. ) ;
#272 = LENGTH_MEASURE_WITH_UNIT ( LENGTH_MEASURE( 0.02539999999999999897 ), #128 );
#273 = CIRCLE ( 'NONE', #318, 0.1874999999999996669 ) ;
#274 =( NAMED_UNIT ( * ) PLANE_ANGLE_UNIT ( ) SI_UNIT ( $, .RADIAN. ) );
#275 = ORIENTED_EDGE ( 'NONE', *, *, #359, .F. ) ;
#276 = SPHERICAL_SURFACE ( 'NONE', #4, 0.1875000000000000278 ) ;
#277 = VERTEX_POINT ( 'NONE', #73 ) ;
#278 = DIMENSIONAL_EXPONENTS ( 1.000000000000000000, 0.000000000000000000, 0.000000000000000000, 0.000000000000000000, 0.000000000000000000, 0.000000000000000000, 0.000000000000000000 ) ;
#279 = PRODUCT_DEFINITION_CONTEXT ( 'detailed design', #355, 'design' ) ;
#280 = ADVANCED_FACE ( 'NONE', ( #203 ), #336, .T. ) ;
#281 = CARTESIAN_POINT ( 'NONE',  ( -1.148106374200643863E-17, 0.000000000000000000, 0.000000000000000000 ) ) ;
#282 = AXIS2_PLACEMENT_3D ( 'NONE', #370, #172, #112 ) ;
#283 = LENGTH_MEASURE_WITH_UNIT ( LENGTH_MEASURE( 0.02539999999999999897 ), #335 );
#284 = DIRECTION ( 'NONE',  ( 1.000000000000000000, 0.000000000000000000, 0.000000000000000000 ) ) ;
#285 = CARTESIAN_POINT ( 'NONE',  ( 0.000000000000000000, 0.1875000000000000555, 0.000000000000000000 ) ) ;
#286 = DIMENSIONAL_EXPONENTS ( 1.000000000000000000, 0.000000000000000000, 0.000000000000000000, 0.000000000000000000, 0.000000000000000000, 0.000000000000000000, 0.000000000000000000 ) ;
#287 = SURFACE_STYLE_FILL_AREA ( #109 ) ;
#288 = CIRCLE ( 'NONE', #371, 0.1874999999999999722 ) ;
#289 = AXIS2_PLACEMENT_3D ( 'NONE', #232, #119, #239 ) ;
#290 = SURFACE_STYLE_FILL_AREA ( #293 ) ;
#291 = ADVANCED_FACE ( 'NONE', ( #227 ), #342, .F. ) ;
#292 = ADVANCED_FACE ( 'NONE', ( #196 ), #84, .T. ) ;
#293 = FILL_AREA_STYLE ('',( #178 ) ) ;
#294 = MECHANICAL_DESIGN_GEOMETRIC_PRESENTATION_REPRESENTATION (  '', ( #59 ), #173 ) ;
#295 = CARTESIAN_POINT ( 'NONE',  ( -2.296212748401287726E-17, 0.1875000000000000278, 0.000000000000000000 ) ) ;
#296 = SURFACE_SIDE_STYLE ('',( #290 ) ) ;
#297 = LINE ( 'NONE', #11, #160 ) ;
#298 = EDGE_CURVE ( 'NONE', #277, #8, #45, .T. ) ;
#299 =( NAMED_UNIT ( * ) PLANE_ANGLE_UNIT ( ) SI_UNIT ( $, .RADIAN. ) );
#300 = ORIENTED_EDGE ( 'NONE', *, *, #198, .F. ) ;
#301 = DIRECTION ( 'NONE',  ( 0.000000000000000000, 0.000000000000000000, -1.000000000000000000 ) ) ;
#302 = AXIS2_PLACEMENT_3D ( 'NONE', #135, #301, #39 ) ;
#303 = ORIENTED_EDGE ( 'NONE', *, *, #49, .F. ) ;
#304 = EDGE_LOOP ( 'NONE', ( #330, #275 ) ) ;
#305 = ADVANCED_FACE ( 'NONE', ( #264 ), #276, .T. ) ;
#306 = FILL_AREA_STYLE_COLOUR ( '', #87 ) ;
#307 = FILL_AREA_STYLE ('',( #360 ) ) ;
#308 = VERTEX_POINT ( 'NONE', #151 ) ;
#309 = CARTESIAN_POINT ( 'NONE',  ( -2.296212748401287726E-17, 0.1875000000000000278, 0.000000000000000000 ) ) ;
#310 = DIRECTION ( 'NONE',  ( -1.226421929838885431E-16, 1.000000000000000000, -0.000000000000000000 ) ) ;
#311 =( LENGTH_UNIT ( ) NAMED_UNIT ( * ) SI_UNIT ( $, .METRE. ) );
#312 = DIRECTION ( 'NONE',  ( -1.226421929838885431E-16, 1.000000000000000000, -0.000000000000000000 ) ) ;
#313 = CARTESIAN_POINT ( 'NONE',  ( 0.000000000000000000, 0.000000000000000000, -0.1874999999999998335 ) ) ;
#314 = MECHANICAL_DESIGN_GEOMETRIC_PRESENTATION_REPRESENTATION (  '', ( #350 ), #255 ) ;
#315 = DIRECTION ( 'NONE',  ( -1.226421929838885431E-16, 1.000000000000000000, -0.000000000000000000 ) ) ;
#316 = DIMENSIONAL_EXPONENTS ( 1.000000000000000000, 0.000000000000000000, 0.000000000000000000, 0.000000000000000000, 0.000000000000000000, 0.000000000000000000, 0.000000000000000000 ) ;
#317 = DIRECTION ( 'NONE',  ( -1.000000000000000000, 0.000000000000000000, 0.000000000000000000 ) ) ;
#318 = AXIS2_PLACEMENT_3D ( 'NONE', #14, #251, #143 ) ;
#319 = EDGE_CURVE ( 'NONE', #334, #40, #297, .T. ) ;
#320 = CARTESIAN_POINT ( 'NONE',  ( 2.296212748401284952E-17, 2.500000000000000000, 0.1874999999999997502 ) ) ;
#321 =( NAMED_UNIT ( * ) SI_UNIT ( $, .STERADIAN. ) SOLID_ANGLE_UNIT ( ) );
#322 = ORIENTED_EDGE ( 'NONE', *, *, #359, .T. ) ;
#323 = DIRECTION ( 'NONE',  ( -1.000000000000000000, 0.000000000000000000, 0.000000000000000000 ) ) ;
#324 = ORIENTED_EDGE ( 'NONE', *, *, #238, .F. ) ;
#325 = DIRECTION ( 'NONE',  ( -0.000000000000000000, -1.000000000000000000, -0.000000000000000000 ) ) ;
#326 = DIRECTION ( 'NONE',  ( -0.000000000000000000, -1.000000000000000000, -0.000000000000000000 ) ) ;
#327 = MECHANICAL_DESIGN_GEOMETRIC_PRESENTATION_REPRESENTATION (  '', ( #110 ), #246 ) ;
#328 = EDGE_CURVE ( 'NONE', #75, #243, #288, .T. ) ;
#329 = PRODUCT_DEFINITION ( 'UNKNOWN', '', #266, #279 ) ;
#330 = ORIENTED_EDGE ( 'NONE', *, *, #348, .F. ) ;
#331 =( NAMED_UNIT ( * ) SI_UNIT ( $, .STERADIAN. ) SOLID_ANGLE_UNIT ( ) );
#332 = DIRECTION ( 'NONE',  ( -1.226421929838885431E-16, 1.000000000000000000, -0.000000000000000000 ) ) ;
#333 = ORIENTED_EDGE ( 'NONE', *, *, #369, .T. ) ;
#334 = VERTEX_POINT ( 'NONE', #191 ) ;
#335 =( LENGTH_UNIT ( ) NAMED_UNIT ( * ) SI_UNIT ( $, .METRE. ) );
#336 = CYLINDRICAL_SURFACE ( 'NONE', #30, 0.1874999999999998335 ) ;
#337 = UNCERTAINTY_MEASURE_WITH_UNIT (LENGTH_MEASURE( 1.000000000000000082E-05 ), #214, 'distance_accuracy_value', 'NONE');
#338 = CIRCLE ( 'NONE', #140, 0.1875000000000000278 ) ;
#339 = PRESENTATION_STYLE_ASSIGNMENT (( #261 ) ) ;
#340 = MANIFOLD_SOLID_BREP ( 'Revolve - Tool Body (Straight Shanked)', #97 ) ;
#341 = APPLICATION_PROTOCOL_DEFINITION ( 'draft international standard', 'automotive_design', 1998, #27 ) ;
#342 = PLANE ( 'NONE',  #229 ) ;
#343 = UNCERTAINTY_MEASURE_WITH_UNIT (LENGTH_MEASURE( 1.000000000000000082E-05 ), #346, 'distance_accuracy_value', 'NONE');
#344 = DIRECTION ( 'NONE',  ( 1.000000000000000000, 0.000000000000000000, -1.224646799147353207E-16 ) ) ;
#345 = DIRECTION ( 'NONE',  ( -1.226421929838885431E-16, 1.000000000000000000, 0.000000000000000000 ) ) ;
#346 =( CONVERSION_BASED_UNIT ( 'INCH', #89 ) LENGTH_UNIT ( ) NAMED_UNIT ( #115 ) );
#347 = STYLED_ITEM ( 'NONE', ( #213 ), #340 ) ;
#348 = EDGE_CURVE ( 'NONE', #334, #308, #224, .T. ) ;
#349 = CARTESIAN_POINT ( 'NONE',  ( 0.000000000000000000, 2.500000000000000000, -0.1874999999999997502 ) ) ;
#350 = STYLED_ITEM ( 'NONE', ( #249 ), #184 ) ;
#351 = AXIS2_PLACEMENT_3D ( 'NONE', #17, #50, #55 ) ;
#352 = MECHANICAL_DESIGN_GEOMETRIC_PRESENTATION_REPRESENTATION (  '', ( #23 ), #60 ) ;
#353 = DIRECTION ( 'NONE',  ( 1.000000000000000000, 1.226421929838885431E-16, 0.000000000000000000 ) ) ;
#354 = PRESENTATION_STYLE_ASSIGNMENT (( #33 ) ) ;
#355 = APPLICATION_CONTEXT ( 'automotive_design' ) ;
#356 = SURFACE_SIDE_STYLE ('',( #42 ) ) ;
#357 = ORIENTED_EDGE ( 'NONE', *, *, #265, .T. ) ;
#358 = EDGE_CURVE ( 'NONE', #308, #361, #226, .T. ) ;
#359 = EDGE_CURVE ( 'NONE', #308, #334, #273, .T. ) ;
#360 = FILL_AREA_STYLE_COLOUR ( '', #90 ) ;
#361 = VERTEX_POINT ( 'NONE', #104 ) ;
#362 = PRESENTATION_LAYER_ASSIGNMENT (  '', '', ( #150 ) ) ;
#363 =( NAMED_UNIT ( * ) PLANE_ANGLE_UNIT ( ) SI_UNIT ( $, .RADIAN. ) );
#364 = ORIENTED_EDGE ( 'NONE', *, *, #328, .F. ) ;
#365 = COLOUR_RGB ( '',1.000000000000000000, 0.000000000000000000, 0.000000000000000000 ) ;
#366 =( GEOMETRIC_REPRESENTATION_CONTEXT ( 3 ) GLOBAL_UNCERTAINTY_ASSIGNED_CONTEXT ( ( #137 ) ) GLOBAL_UNIT_ASSIGNED_CONTEXT ( ( #208, #1, #236 ) ) REPRESENTATION_CONTEXT ( 'NONE', 'WORKASPACE' ) );
#367 = DIRECTION ( 'NONE',  ( 0.000000000000000000, 0.000000000000000000, 1.000000000000000000 ) ) ;
#368 = CARTESIAN_POINT ( 'NONE',  ( -2.296212748401287726E-17, 0.1875000000000000278, 0.000000000000000000 ) ) ;
#369 = EDGE_CURVE ( 'NONE', #40, #361, #206, .T. ) ;
#370 = CARTESIAN_POINT ( 'NONE',  ( 0.000000000000000000, 2.500000000000000000, 0.000000000000000000 ) ) ;
#371 = AXIS2_PLACEMENT_3D ( 'NONE', #77, #325, #186 ) ;
#372 = ORIENTED_EDGE ( 'NONE', *, *, #19, .T. ) ;
#373 = FACE_OUTER_BOUND ( 'NONE', #74, .T. ) ;
ENDSEC;
END-ISO-10303-21;
