ISO-10303-21;
HEADER;
FILE_DESCRIPTION (( 'STEP AP214' ),
    '1' );
FILE_NAME ('Micro_AEMM-035-2X.STEP',
    '2022-03-15T14:24:32',
    ( '' ),
    ( '' ),
    'SwSTEP 2.0',
    'SolidWorks 2022',
    '' );
FILE_SCHEMA (( 'AUTOMOTIVE_DESIGN' ));
ENDSEC;

DATA;
#1 = APPLICATION_PROTOCOL_DEFINITION ( 'draft international standard', 'automotive_design', 1998, #3 ) ;
#2 = ORIENTED_EDGE ( 'NONE', *, *, #273, .F. ) ;
#3 = APPLICATION_CONTEXT ( 'automotive_design' ) ;
#4 = ORIENTED_EDGE ( 'NONE', *, *, #245, .F. ) ;
#5 = LINE ( 'NONE', #250, #23 ) ;
#6 = VERTEX_POINT ( 'NONE', #183 ) ;
#7 = COLOUR_RGB ( '',0.7921568627450980005, 0.8196078431372548767, 0.9333333333333333481 ) ;
#8 = ORIENTED_EDGE ( 'NONE', *, *, #146, .F. ) ;
#9 =( NAMED_UNIT ( * ) SI_UNIT ( $, .STERADIAN. ) SOLID_ANGLE_UNIT ( ) );
#10 = CARTESIAN_POINT ( 'NONE',  ( 0.000000000000000000, 0.000000000000000000, 2.229093999999999465 ) ) ;
#11 = FILL_AREA_STYLE ('',( #63 ) ) ;
#12 = FACE_OUTER_BOUND ( 'NONE', #198, .T. ) ;
#13 = PRESENTATION_STYLE_ASSIGNMENT (( #230 ) ) ;
#14 = DIRECTION ( 'NONE',  ( -1.000000000000000000, 0.000000000000000000, 1.224646799147353454E-16 ) ) ;
#15 = CARTESIAN_POINT ( 'NONE',  ( 0.06882860250000000235, 8.429072774141052587E-18, 0.000000000000000000 ) ) ;
#16 = LINE ( 'NONE', #110, #262 ) ;
#17 = CLOSED_SHELL ( 'NONE', ( #24, #126, #113, #260, #227, #56, #35, #78, #89, #150 ) ) ;
#18 = EDGE_CURVE ( 'NONE', #6, #179, #231, .T. ) ;
#19 = CARTESIAN_POINT ( 'NONE',  ( 0.000000000000000000, 0.000000000000000000, 2.244094000000000033 ) ) ;
#20 = CARTESIAN_POINT ( 'NONE',  ( 4.821446694711121291E-17, 0.000000000000000000, 0.3937009999999999676 ) ) ;
#21 = PRODUCT_DEFINITION_SHAPE ( 'NONE', 'NONE',  #140 ) ;
#22 = DIRECTION ( 'NONE',  ( -0.000000000000000000, -0.000000000000000000, -1.000000000000000000 ) ) ;
#23 = VECTOR ( 'NONE', #274, 39.37007874015748143 ) ;
#24 = ADVANCED_FACE ( 'NONE', ( #224 ), #199, .T. ) ;
#25 = VERTEX_POINT ( 'NONE', #242 ) ;
#26 = LENGTH_MEASURE_WITH_UNIT ( LENGTH_MEASURE( 0.02539999999999999897 ), #177 );
#27 = EDGE_LOOP ( 'NONE', ( #279, #127 ) ) ;
#28 = DIRECTION ( 'NONE',  ( 0.000000000000000000, 0.000000000000000000, -1.000000000000000000 ) ) ;
#29 = STYLED_ITEM ( 'NONE', ( #13 ), #60 ) ;
#30 = CARTESIAN_POINT ( 'NONE',  ( 0.000000000000000000, 0.000000000000000000, 2.244094000000000033 ) ) ;
#31 = CONICAL_SURFACE ( 'NONE', #212, 0.1031100000000002570, 0.7853981633974318477 ) ;
#32 = ORIENTED_EDGE ( 'NONE', *, *, #90, .F. ) ;
#33 = DIRECTION ( 'NONE',  ( -1.224646799147353207E-16, -0.000000000000000000, -1.000000000000000000 ) ) ;
#34 = VECTOR ( 'NONE', #47, 39.37007874015748143 ) ;
#35 = ADVANCED_FACE ( 'NONE', ( #124 ), #31, .T. ) ;
#36 = AXIS2_PLACEMENT_3D ( 'NONE', #20, #213, #88 ) ;
#37 = CARTESIAN_POINT ( 'NONE',  ( 0.06882860250000000235, 8.429072774141052587E-18, -8.429072774141052587E-18 ) ) ;
#38 = DIRECTION ( 'NONE',  ( -1.000000000000000000, 0.000000000000000000, 0.000000000000000000 ) ) ;
#39 = VECTOR ( 'NONE', #83, 39.37007874015748143 ) ;
#40 =( NAMED_UNIT ( * ) PLANE_ANGLE_UNIT ( ) SI_UNIT ( $, .RADIAN. ) );
#41 = FACE_OUTER_BOUND ( 'NONE', #160, .T. ) ;
#42 = AXIS2_PLACEMENT_3D ( 'NONE', #184, #135, #269 ) ;
#43 = DIRECTION ( 'NONE',  ( -1.224646799147353207E-16, -0.000000000000000000, -1.000000000000000000 ) ) ;
#44 = CARTESIAN_POINT ( 'NONE',  ( 0.000000000000000000, 0.000000000000000000, 2.244094000000000033 ) ) ;
#45 =( LENGTH_UNIT ( ) NAMED_UNIT ( * ) SI_UNIT ( $, .METRE. ) );
#46 = PRODUCT_RELATED_PRODUCT_CATEGORY ( 'part', '', ( #297 ) ) ;
#47 = DIRECTION ( 'NONE',  ( -0.000000000000000000, -0.000000000000000000, -1.000000000000000000 ) ) ;
#48 = PRODUCT_DEFINITION_CONTEXT ( 'detailed design', #3, 'design' ) ;
#49 = ORIENTED_EDGE ( 'NONE', *, *, #96, .F. ) ;
#50 = ORIENTED_EDGE ( 'NONE', *, *, #142, .T. ) ;
#51 = CARTESIAN_POINT ( 'NONE',  ( 0.000000000000000000, 0.000000000000000000, 2.244094000000000033 ) ) ;
#52 = MECHANICAL_DESIGN_GEOMETRIC_PRESENTATION_REPRESENTATION (  '', ( #29 ), #115 ) ;
#53 = CARTESIAN_POINT ( 'NONE',  ( -0.06882860250000000235, 0.000000000000000000, 1.685814554828210517E-17 ) ) ;
#54 = ORIENTED_EDGE ( 'NONE', *, *, #96, .T. ) ;
#55 = VERTEX_POINT ( 'NONE', #53 ) ;
#56 = ADVANCED_FACE ( 'NONE', ( #12 ), #223, .T. ) ;
#57 = AXIS2_PLACEMENT_3D ( 'NONE', #159, #290, #14 ) ;
#58 = DIRECTION ( 'NONE',  ( 1.000000000000000000, 0.000000000000000000, -0.000000000000000000 ) ) ;
#59 = EDGE_LOOP ( 'NONE', ( #155, #265, #61, #49 ) ) ;
#60 = ADVANCED_BREP_SHAPE_REPRESENTATION ( 'Micro_AEMM-035-2X', ( #168, #243 ), #258 ) ;
#61 = ORIENTED_EDGE ( 'NONE', *, *, #234, .T. ) ;
#62 = DIRECTION ( 'NONE',  ( 0.000000000000000000, 0.000000000000000000, -1.000000000000000000 ) ) ;
#63 = FILL_AREA_STYLE_COLOUR ( '', #7 ) ;
#64 = CIRCLE ( 'NONE', #296, 0.1181100000000000066 ) ;
#65 = CARTESIAN_POINT ( 'NONE',  ( -0.1181100000000000066, 0.000000000000000000, 2.229093999999999465 ) ) ;
#66 = CARTESIAN_POINT ( 'NONE',  ( 0.000000000000000000, 0.000000000000000000, 2.244094000000000033 ) ) ;
#67 = EDGE_CURVE ( 'NONE', #284, #100, #278, .T. ) ;
#68 = DIRECTION ( 'NONE',  ( -1.224646799147353207E-16, -0.000000000000000000, -1.000000000000000000 ) ) ;
#69 = CIRCLE ( 'NONE', #253, 0.06882860250000000235 ) ;
#70 = CARTESIAN_POINT ( 'NONE',  ( 0.06882860250000005786, 0.000000000000000000, 0.3937009999999999676 ) ) ;
#71 = UNCERTAINTY_MEASURE_WITH_UNIT (LENGTH_MEASURE( 1.000000000000000082E-05 ), #277, 'distance_accuracy_value', 'NONE');
#72 = VERTEX_POINT ( 'NONE', #283 ) ;
#73 = EDGE_CURVE ( 'NONE', #205, #55, #69, .T. ) ;
#74 = CONICAL_SURFACE ( 'NONE', #239, 0.1031100000000002570, 0.7853981633974318477 ) ;
#75 = CARTESIAN_POINT ( 'NONE',  ( 0.000000000000000000, 0.000000000000000000, 0.000000000000000000 ) ) ;
#76 = ORIENTED_EDGE ( 'NONE', *, *, #241, .F. ) ;
#77 = CIRCLE ( 'NONE', #174, 0.1181100000000000066 ) ;
#78 = ADVANCED_FACE ( 'NONE', ( #247 ), #225, .T. ) ;
#79 = CARTESIAN_POINT ( 'NONE',  ( 1.032263699263193969E-33, 0.000000000000000000, 8.429072774141052587E-18 ) ) ;
#80 = VECTOR ( 'NONE', #255, 39.37007874015748143 ) ;
#81 = DIRECTION ( 'NONE',  ( 0.000000000000000000, 0.000000000000000000, 1.000000000000000000 ) ) ;
#82 =( LENGTH_UNIT ( ) NAMED_UNIT ( * ) SI_UNIT ( $, .METRE. ) );
#83 = DIRECTION ( 'NONE',  ( -0.000000000000000000, -0.000000000000000000, -1.000000000000000000 ) ) ;
#84 = EDGE_CURVE ( 'NONE', #284, #246, #5, .T. ) ;
#85 = DIRECTION ( 'NONE',  ( -0.000000000000000000, -0.000000000000000000, -1.000000000000000000 ) ) ;
#86 = CARTESIAN_POINT ( 'NONE',  ( -0.1031100000000002570, 0.000000000000000000, 2.244094000000000033 ) ) ;
#87 = AXIS2_PLACEMENT_3D ( 'NONE', #111, #68, #298 ) ;
#88 = DIRECTION ( 'NONE',  ( 1.000000000000000000, 0.000000000000000000, 0.000000000000000000 ) ) ;
#89 = ADVANCED_FACE ( 'NONE', ( #41 ), #117, .T. ) ;
#90 = EDGE_CURVE ( 'NONE', #100, #284, #201, .T. ) ;
#91 = LINE ( 'NONE', #299, #132 ) ;
#92 = LINE ( 'NONE', #276, #34 ) ;
#93 = DIRECTION ( 'NONE',  ( 0.000000000000000000, 0.000000000000000000, 1.000000000000000000 ) ) ;
#94 = SHAPE_DEFINITION_REPRESENTATION ( #21, #60 ) ;
#95 = AXIS2_PLACEMENT_3D ( 'NONE', #108, #203, #58 ) ;
#96 = EDGE_CURVE ( 'NONE', #246, #72, #64, .T. ) ;
#97 = DIRECTION ( 'NONE',  ( -1.000000000000000000, 0.000000000000000000, 0.000000000000000000 ) ) ;
#98 = ORIENTED_EDGE ( 'NONE', *, *, #173, .T. ) ;
#99 = EDGE_LOOP ( 'NONE', ( #2, #285, #217, #120 ) ) ;
#100 = VERTEX_POINT ( 'NONE', #233 ) ;
#101 = ORIENTED_EDGE ( 'NONE', *, *, #73, .F. ) ;
#102 = AXIS2_PLACEMENT_3D ( 'NONE', #10, #266, #202 ) ;
#103 = ORIENTED_EDGE ( 'NONE', *, *, #245, .T. ) ;
#104 = CARTESIAN_POINT ( 'NONE',  ( 4.821446694711121291E-17, 0.000000000000000000, 0.3937009999999999676 ) ) ;
#105 = LINE ( 'NONE', #86, #147 ) ;
#106 = DIRECTION ( 'NONE',  ( -1.000000000000000000, 0.000000000000000000, 0.000000000000000000 ) ) ;
#107 = SURFACE_STYLE_USAGE ( .BOTH. , #190 ) ;
#108 = CARTESIAN_POINT ( 'NONE',  ( 0.000000000000000000, 0.000000000000000000, 0.000000000000000000 ) ) ;
#109 = LENGTH_MEASURE_WITH_UNIT ( LENGTH_MEASURE( 0.02539999999999999897 ), #82 );
#110 = CARTESIAN_POINT ( 'NONE',  ( -0.06882860250000000235, 0.000000000000000000, 8.429072774141052587E-18 ) ) ;
#111 = CARTESIAN_POINT ( 'NONE',  ( 0.000000000000000000, 0.000000000000000000, 0.000000000000000000 ) ) ;
#112 = AXIS2_PLACEMENT_3D ( 'NONE', #30, #81, #267 ) ;
#113 = ADVANCED_FACE ( 'NONE', ( #257 ), #74, .T. ) ;
#114 = DIRECTION ( 'NONE',  ( 0.000000000000000000, 0.000000000000000000, 1.000000000000000000 ) ) ;
#115 =( GEOMETRIC_REPRESENTATION_CONTEXT ( 3 ) GLOBAL_UNCERTAINTY_ASSIGNED_CONTEXT ( ( #122 ) ) GLOBAL_UNIT_ASSIGNED_CONTEXT ( ( #261, #145, #238 ) ) REPRESENTATION_CONTEXT ( 'NONE', 'WORKASPACE' ) );
#116 = CARTESIAN_POINT ( 'NONE',  ( 0.000000000000000000, 0.000000000000000000, 2.244094000000000033 ) ) ;
#117 = CYLINDRICAL_SURFACE ( 'NONE', #87, 0.06882860250000000235 ) ;
#118 = PRESENTATION_LAYER_ASSIGNMENT (  '', '', ( #215 ) ) ;
#119 = EDGE_CURVE ( 'NONE', #100, #72, #259, .T. ) ;
#120 = ORIENTED_EDGE ( 'NONE', *, *, #18, .F. ) ;
#121 = CARTESIAN_POINT ( 'NONE',  ( 0.000000000000000000, 0.000000000000000000, 0.000000000000000000 ) ) ;
#122 = UNCERTAINTY_MEASURE_WITH_UNIT (LENGTH_MEASURE( 1.000000000000000082E-05 ), #261, 'distance_accuracy_value', 'NONE');
#123 = ORIENTED_EDGE ( 'NONE', *, *, #141, .T. ) ;
#124 = FACE_OUTER_BOUND ( 'NONE', #99, .T. ) ;
#125 = AXIS2_PLACEMENT_3D ( 'NONE', #44, #22, #97 ) ;
#126 = ADVANCED_FACE ( 'NONE', ( #143 ), #130, .T. ) ;
#127 = ORIENTED_EDGE ( 'NONE', *, *, #73, .T. ) ;
#128 = ORIENTED_EDGE ( 'NONE', *, *, #84, .F. ) ;
#129 = ORIENTED_EDGE ( 'NONE', *, *, #141, .F. ) ;
#130 = CONICAL_SURFACE ( 'NONE', #36, 0.06882860250000000235, 0.1745329251994338360 ) ;
#131 = VERTEX_POINT ( 'NONE', #193 ) ;
#132 = VECTOR ( 'NONE', #197, 39.37007874015748854 ) ;
#133 = PRODUCT_DEFINITION_FORMATION_WITH_SPECIFIED_SOURCE ( 'ANY', '', #297, .NOT_KNOWN. ) ;
#134 =( NAMED_UNIT ( * ) SI_UNIT ( $, .STERADIAN. ) SOLID_ANGLE_UNIT ( ) );
#135 = DIRECTION ( 'NONE',  ( 1.224646799147353207E-16, 0.000000000000000000, 1.000000000000000000 ) ) ;
#136 = SURFACE_SIDE_STYLE ('',( #161 ) ) ;
#137 = MECHANICAL_DESIGN_GEOMETRIC_PRESENTATION_REPRESENTATION (  '', ( #215 ), #218 ) ;
#138 = COLOUR_RGB ( '',0.7921568627450980005, 0.8196078431372548767, 0.9333333333333333481 ) ;
#139 = DIRECTION ( 'NONE',  ( 1.000000000000000000, 0.000000000000000000, 0.000000000000000000 ) ) ;
#140 = PRODUCT_DEFINITION ( 'UNKNOWN', '', #133, #48 ) ;
#141 = EDGE_CURVE ( 'NONE', #72, #246, #292, .T. ) ;
#142 = EDGE_CURVE ( 'NONE', #131, #25, #235, .T. ) ;
#143 = FACE_OUTER_BOUND ( 'NONE', #148, .T. ) ;
#144 = DIRECTION ( 'NONE',  ( -1.000000000000000000, 0.000000000000000000, 0.000000000000000000 ) ) ;
#145 =( NAMED_UNIT ( * ) PLANE_ANGLE_UNIT ( ) SI_UNIT ( $, .RADIAN. ) );
#146 = EDGE_CURVE ( 'NONE', #55, #205, #171, .T. ) ;
#147 = VECTOR ( 'NONE', #288, 39.37007874015748854 ) ;
#148 = EDGE_LOOP ( 'NONE', ( #32, #156, #123, #128 ) ) ;
#149 = CYLINDRICAL_SURFACE ( 'NONE', #125, 0.1181100000000000066 ) ;
#150 = ADVANCED_FACE ( 'NONE', ( #249 ), #186, .F. ) ;
#151 = EDGE_CURVE ( 'NONE', #131, #179, #105, .T. ) ;
#152 = ORIENTED_EDGE ( 'NONE', *, *, #84, .T. ) ;
#153 = EDGE_LOOP ( 'NONE', ( #222, #98, #8, #226 ) ) ;
#154 = AXIS2_PLACEMENT_3D ( 'NONE', #164, #165, #139 ) ;
#155 = ORIENTED_EDGE ( 'NONE', *, *, #293, .F. ) ;
#156 = ORIENTED_EDGE ( 'NONE', *, *, #119, .T. ) ;
#157 = AXIS2_PLACEMENT_3D ( 'NONE', #104, #204, #106 ) ;
#158 = ORIENTED_EDGE ( 'NONE', *, *, #241, .T. ) ;
#159 = CARTESIAN_POINT ( 'NONE',  ( 1.032263699263193969E-33, 0.000000000000000000, 8.429072774141052587E-18 ) ) ;
#160 = EDGE_LOOP ( 'NONE', ( #240, #264, #281, #101 ) ) ;
#161 = SURFACE_STYLE_FILL_AREA ( #185 ) ;
#162 = CARTESIAN_POINT ( 'NONE',  ( -0.1181100000000000066, 0.000000000000000000, 2.244094000000000033 ) ) ;
#163 = SURFACE_STYLE_FILL_AREA ( #11 ) ;
#164 = CARTESIAN_POINT ( 'NONE',  ( 0.000000000000000000, 0.000000000000000000, 2.244094000000000033 ) ) ;
#165 = DIRECTION ( 'NONE',  ( 0.000000000000000000, 0.000000000000000000, 1.000000000000000000 ) ) ;
#166 = DIRECTION ( 'NONE',  ( 0.000000000000000000, 0.000000000000000000, -1.000000000000000000 ) ) ;
#167 = ORIENTED_EDGE ( 'NONE', *, *, #119, .F. ) ;
#168 = MANIFOLD_SOLID_BREP ( 'Cut-Revolve1', #17 ) ;
#169 = CARTESIAN_POINT ( 'NONE',  ( 8.244196035928968872E-17, 0.000000000000000000, 0.6731896936871021309 ) ) ;
#170 = LENGTH_MEASURE_WITH_UNIT ( LENGTH_MEASURE( 0.02539999999999999897 ), #45 );
#171 = CIRCLE ( 'NONE', #57, 0.06882860250000000235 ) ;
#172 = APPLICATION_PROTOCOL_DEFINITION ( 'draft international standard', 'automotive_design', 1998, #271 ) ;
#173 = EDGE_CURVE ( 'NONE', #284, #205, #252, .T. ) ;
#174 = AXIS2_PLACEMENT_3D ( 'NONE', #187, #62, #291 ) ;
#175 = UNCERTAINTY_MEASURE_WITH_UNIT (LENGTH_MEASURE( 1.000000000000000082E-05 ), #270, 'distance_accuracy_value', 'NONE');
#176 = EDGE_LOOP ( 'NONE', ( #76, #219, #4, #229 ) ) ;
#177 =( LENGTH_UNIT ( ) NAMED_UNIT ( * ) SI_UNIT ( $, .METRE. ) );
#178 = ORIENTED_EDGE ( 'NONE', *, *, #293, .T. ) ;
#179 = VERTEX_POINT ( 'NONE', #65 ) ;
#180 = AXIS2_PLACEMENT_3D ( 'NONE', #19, #114, #287 ) ;
#181 = ORIENTED_EDGE ( 'NONE', *, *, #67, .F. ) ;
#182 = DIRECTION ( 'NONE',  ( -1.000000000000000000, 0.000000000000000000, 1.224646799147353454E-16 ) ) ;
#183 = CARTESIAN_POINT ( 'NONE',  ( 0.1181100000000000066, 1.446430334472939084E-17, 2.229093999999999465 ) ) ;
#184 = CARTESIAN_POINT ( 'NONE',  ( 4.821446694711121291E-17, 0.000000000000000000, 0.3937009999999999676 ) ) ;
#185 = FILL_AREA_STYLE ('',( #286 ) ) ;
#186 = PLANE ( 'NONE',  #95 ) ;
#187 = CARTESIAN_POINT ( 'NONE',  ( 0.000000000000000000, 0.000000000000000000, 2.229093999999999465 ) ) ;
#188 = LINE ( 'NONE', #162, #39 ) ;
#189 = AXIS2_PLACEMENT_3D ( 'NONE', #194, #192, #275 ) ;
#190 = SURFACE_SIDE_STYLE ('',( #163 ) ) ;
#191 = FACE_OUTER_BOUND ( 'NONE', #200, .T. ) ;
#192 = DIRECTION ( 'NONE',  ( -1.224646799147353207E-16, -0.000000000000000000, -1.000000000000000000 ) ) ;
#193 = CARTESIAN_POINT ( 'NONE',  ( -0.1031100000000002570, 0.000000000000000000, 2.244094000000000033 ) ) ;
#194 = CARTESIAN_POINT ( 'NONE',  ( 4.821446694711121291E-17, 0.000000000000000000, 0.3937009999999999676 ) ) ;
#195 = DIRECTION ( 'NONE',  ( 1.000000000000000000, 0.000000000000000000, 0.000000000000000000 ) ) ;
#196 = AXIS2_PLACEMENT_3D ( 'NONE', #214, #43, #236 ) ;
#197 = DIRECTION ( 'NONE',  ( 0.7071067811865358044, 8.659560562354788645E-17, -0.7071067811865590080 ) ) ;
#198 = EDGE_LOOP ( 'NONE', ( #50, #158 ) ) ;
#199 = CYLINDRICAL_SURFACE ( 'NONE', #280, 0.06882860250000000235 ) ;
#200 = EDGE_LOOP ( 'NONE', ( #103, #178, #129, #263 ) ) ;
#201 = CIRCLE ( 'NONE', #189, 0.06882860250000000235 ) ;
#202 = DIRECTION ( 'NONE',  ( 1.000000000000000000, 0.000000000000000000, 0.000000000000000000 ) ) ;
#203 = DIRECTION ( 'NONE',  ( 0.000000000000000000, 0.000000000000000000, 1.000000000000000000 ) ) ;
#204 = DIRECTION ( 'NONE',  ( -1.224646799147353207E-16, -0.000000000000000000, -1.000000000000000000 ) ) ;
#205 = VERTEX_POINT ( 'NONE', #15 ) ;
#206 = PRESENTATION_STYLE_ASSIGNMENT (( #107 ) ) ;
#207 = DIMENSIONAL_EXPONENTS ( 1.000000000000000000, 0.000000000000000000, 0.000000000000000000, 0.000000000000000000, 0.000000000000000000, 0.000000000000000000, 0.000000000000000000 ) ;
#208 = PRESENTATION_LAYER_ASSIGNMENT (  '', '', ( #29 ) ) ;
#209 = CIRCLE ( 'NONE', #154, 0.1031100000000002570 ) ;
#210 = AXIS2_PLACEMENT_3D ( 'NONE', #66, #85, #38 ) ;
#211 = DIRECTION ( 'NONE',  ( -1.224646799147353207E-16, -0.000000000000000000, -1.000000000000000000 ) ) ;
#212 = AXIS2_PLACEMENT_3D ( 'NONE', #51, #28, #244 ) ;
#213 = DIRECTION ( 'NONE',  ( 1.224646799147353207E-16, 0.000000000000000000, 1.000000000000000000 ) ) ;
#214 = CARTESIAN_POINT ( 'NONE',  ( 8.244196035928968872E-17, 0.000000000000000000, 0.6731896936871021309 ) ) ;
#215 = STYLED_ITEM ( 'NONE', ( #206 ), #168 ) ;
#216 = PRODUCT_CONTEXT ( 'NONE', #271, 'mechanical' ) ;
#217 = ORIENTED_EDGE ( 'NONE', *, *, #151, .T. ) ;
#218 =( GEOMETRIC_REPRESENTATION_CONTEXT ( 3 ) GLOBAL_UNCERTAINTY_ASSIGNED_CONTEXT ( ( #175 ) ) GLOBAL_UNIT_ASSIGNED_CONTEXT ( ( #270, #40, #134 ) ) REPRESENTATION_CONTEXT ( 'NONE', 'WORKASPACE' ) );
#219 = ORIENTED_EDGE ( 'NONE', *, *, #273, .T. ) ;
#220 = EDGE_LOOP ( 'NONE', ( #167, #181, #152, #54 ) ) ;
#221 =( NAMED_UNIT ( * ) PLANE_ANGLE_UNIT ( ) SI_UNIT ( $, .RADIAN. ) );
#222 = ORIENTED_EDGE ( 'NONE', *, *, #90, .T. ) ;
#223 = PLANE ( 'NONE',  #112 ) ;
#224 = FACE_OUTER_BOUND ( 'NONE', #153, .T. ) ;
#225 = CONICAL_SURFACE ( 'NONE', #42, 0.06882860250000000235, 0.1745329251994338360 ) ;
#226 = ORIENTED_EDGE ( 'NONE', *, *, #251, .F. ) ;
#227 = ADVANCED_FACE ( 'NONE', ( #289 ), #254, .T. ) ;
#228 = DIMENSIONAL_EXPONENTS ( 1.000000000000000000, 0.000000000000000000, 0.000000000000000000, 0.000000000000000000, 0.000000000000000000, 0.000000000000000000, 0.000000000000000000 ) ;
#229 = ORIENTED_EDGE ( 'NONE', *, *, #151, .F. ) ;
#230 = SURFACE_STYLE_USAGE ( .BOTH. , #136 ) ;
#231 = CIRCLE ( 'NONE', #102, 0.1181100000000000066 ) ;
#232 = CARTESIAN_POINT ( 'NONE',  ( 0.1181100000000000899, 1.446430334472940009E-17, 0.6731896936871021309 ) ) ;
#233 = CARTESIAN_POINT ( 'NONE',  ( -0.06882860249999996072, 1.144668805943522018E-17, 0.3937009999999999676 ) ) ;
#234 = EDGE_CURVE ( 'NONE', #179, #72, #188, .T. ) ;
#235 = CIRCLE ( 'NONE', #180, 0.1031100000000002570 ) ;
#236 = DIRECTION ( 'NONE',  ( 1.000000000000000000, 0.000000000000000000, 0.000000000000000000 ) ) ;
#237 = CARTESIAN_POINT ( 'NONE',  ( -0.06882860249999996072, 8.429072774141052587E-18, 0.3937009999999999676 ) ) ;
#238 =( NAMED_UNIT ( * ) SI_UNIT ( $, .STERADIAN. ) SOLID_ANGLE_UNIT ( ) );
#239 = AXIS2_PLACEMENT_3D ( 'NONE', #116, #166, #144 ) ;
#240 = ORIENTED_EDGE ( 'NONE', *, *, #173, .F. ) ;
#241 = EDGE_CURVE ( 'NONE', #25, #131, #209, .T. ) ;
#242 = CARTESIAN_POINT ( 'NONE',  ( 0.1031100000000002570, 1.354581824536888722E-17, 2.244094000000000033 ) ) ;
#243 = AXIS2_PLACEMENT_3D ( 'NONE', #121, #93, #195 ) ;
#244 = DIRECTION ( 'NONE',  ( -1.000000000000000000, 0.000000000000000000, 0.000000000000000000 ) ) ;
#245 = EDGE_CURVE ( 'NONE', #179, #6, #77, .T. ) ;
#246 = VERTEX_POINT ( 'NONE', #232 ) ;
#247 = FACE_OUTER_BOUND ( 'NONE', #220, .T. ) ;
#248 = DIMENSIONAL_EXPONENTS ( 1.000000000000000000, 0.000000000000000000, 0.000000000000000000, 0.000000000000000000, 0.000000000000000000, 0.000000000000000000, 0.000000000000000000 ) ;
#249 = FACE_OUTER_BOUND ( 'NONE', #27, .T. ) ;
#250 = CARTESIAN_POINT ( 'NONE',  ( 0.06882860250000005786, 0.000000000000000000, 0.3937009999999999676 ) ) ;
#251 = EDGE_CURVE ( 'NONE', #100, #55, #16, .T. ) ;
#252 = LINE ( 'NONE', #37, #80 ) ;
#253 = AXIS2_PLACEMENT_3D ( 'NONE', #79, #33, #268 ) ;
#254 = CYLINDRICAL_SURFACE ( 'NONE', #210, 0.1181100000000000066 ) ;
#255 = DIRECTION ( 'NONE',  ( -1.224646799147353207E-16, -0.000000000000000000, -1.000000000000000000 ) ) ;
#256 = DIRECTION ( 'NONE',  ( -0.1736481776669311639, 2.126576849575782392E-17, 0.9848077530122080203 ) ) ;
#257 = FACE_OUTER_BOUND ( 'NONE', #176, .T. ) ;
#258 =( GEOMETRIC_REPRESENTATION_CONTEXT ( 3 ) GLOBAL_UNCERTAINTY_ASSIGNED_CONTEXT ( ( #71 ) ) GLOBAL_UNIT_ASSIGNED_CONTEXT ( ( #277, #221, #9 ) ) REPRESENTATION_CONTEXT ( 'NONE', 'WORKASPACE' ) );
#259 = LINE ( 'NONE', #237, #272 ) ;
#260 = ADVANCED_FACE ( 'NONE', ( #191 ), #149, .T. ) ;
#261 =( CONVERSION_BASED_UNIT ( 'INCH', #170 ) LENGTH_UNIT ( ) NAMED_UNIT ( #248 ) );
#262 = VECTOR ( 'NONE', #211, 39.37007874015748143 ) ;
#263 = ORIENTED_EDGE ( 'NONE', *, *, #234, .F. ) ;
#264 = ORIENTED_EDGE ( 'NONE', *, *, #67, .T. ) ;
#265 = ORIENTED_EDGE ( 'NONE', *, *, #18, .T. ) ;
#266 = DIRECTION ( 'NONE',  ( 0.000000000000000000, 0.000000000000000000, -1.000000000000000000 ) ) ;
#267 = DIRECTION ( 'NONE',  ( 1.000000000000000000, 0.000000000000000000, -0.000000000000000000 ) ) ;
#268 = DIRECTION ( 'NONE',  ( -1.000000000000000000, 0.000000000000000000, 1.224646799147353454E-16 ) ) ;
#269 = DIRECTION ( 'NONE',  ( 1.000000000000000000, 0.000000000000000000, 0.000000000000000000 ) ) ;
#270 =( CONVERSION_BASED_UNIT ( 'INCH', #109 ) LENGTH_UNIT ( ) NAMED_UNIT ( #207 ) );
#271 = APPLICATION_CONTEXT ( 'automotive_design' ) ;
#272 = VECTOR ( 'NONE', #256, 39.37007874015747433 ) ;
#273 = EDGE_CURVE ( 'NONE', #25, #6, #91, .T. ) ;
#274 = DIRECTION ( 'NONE',  ( 0.1736481776669313304, 0.000000000000000000, 0.9848077530122077983 ) ) ;
#275 = DIRECTION ( 'NONE',  ( -1.000000000000000000, 0.000000000000000000, 0.000000000000000000 ) ) ;
#276 = CARTESIAN_POINT ( 'NONE',  ( 0.1181100000000000066, 1.446430334472939084E-17, 2.244094000000000033 ) ) ;
#277 =( CONVERSION_BASED_UNIT ( 'INCH', #26 ) LENGTH_UNIT ( ) NAMED_UNIT ( #228 ) );
#278 = CIRCLE ( 'NONE', #157, 0.06882860250000000235 ) ;
#279 = ORIENTED_EDGE ( 'NONE', *, *, #146, .T. ) ;
#280 = AXIS2_PLACEMENT_3D ( 'NONE', #75, #282, #182 ) ;
#281 = ORIENTED_EDGE ( 'NONE', *, *, #251, .T. ) ;
#282 = DIRECTION ( 'NONE',  ( -1.224646799147353207E-16, -0.000000000000000000, -1.000000000000000000 ) ) ;
#283 = CARTESIAN_POINT ( 'NONE',  ( -0.1181099999999999234, 0.000000000000000000, 0.6731896936871021309 ) ) ;
#284 = VERTEX_POINT ( 'NONE', #70 ) ;
#285 = ORIENTED_EDGE ( 'NONE', *, *, #142, .F. ) ;
#286 = FILL_AREA_STYLE_COLOUR ( '', #138 ) ;
#287 = DIRECTION ( 'NONE',  ( 1.000000000000000000, 0.000000000000000000, 0.000000000000000000 ) ) ;
#288 = DIRECTION ( 'NONE',  ( -0.7071067811865358044, 0.000000000000000000, -0.7071067811865590080 ) ) ;
#289 = FACE_OUTER_BOUND ( 'NONE', #59, .T. ) ;
#290 = DIRECTION ( 'NONE',  ( -1.224646799147353207E-16, -0.000000000000000000, -1.000000000000000000 ) ) ;
#291 = DIRECTION ( 'NONE',  ( 1.000000000000000000, 0.000000000000000000, 0.000000000000000000 ) ) ;
#292 = CIRCLE ( 'NONE', #196, 0.1181100000000000066 ) ;
#293 = EDGE_CURVE ( 'NONE', #6, #246, #92, .T. ) ;
#294 = DIRECTION ( 'NONE',  ( -1.224646799147353207E-16, -0.000000000000000000, -1.000000000000000000 ) ) ;
#295 = DIRECTION ( 'NONE',  ( 1.000000000000000000, 0.000000000000000000, 0.000000000000000000 ) ) ;
#296 = AXIS2_PLACEMENT_3D ( 'NONE', #169, #294, #295 ) ;
#297 = PRODUCT ( 'Micro_AEMM-035-2X', 'Micro_AEMM-035-2X', '', ( #216 ) ) ;
#298 = DIRECTION ( 'NONE',  ( -1.000000000000000000, 0.000000000000000000, 1.224646799147353454E-16 ) ) ;
#299 = CARTESIAN_POINT ( 'NONE',  ( 0.1031100000000002570, 1.262733314600838667E-17, 2.244094000000000033 ) ) ;
ENDSEC;
END-ISO-10303-21;
