ISO-10303-21;
HEADER;
FILE_DESCRIPTION (( 'STEP AP214' ),
    '1' );
FILE_NAME ('Micro_BEM-156-04X.STEP',
    '2021-09-03T13:03:53',
    ( '' ),
    ( '' ),
    'SwSTEP 2.0',
    'SolidWorks 2020',
    '' );
FILE_SCHEMA (( 'AUTOMOTIVE_DESIGN' ));
ENDSEC;

DATA;
#1 = DIRECTION ( 'NONE',  ( -0.7071067811865463515, 0.0000000000000000000, -0.7071067811865486830 ) ) ;
#2 = PRODUCT_DEFINITION_CONTEXT ( 'detailed design', #173, 'design' ) ;
#3 = DIRECTION ( 'NONE',  ( -1.224646799147353207E-16, -0.0000000000000000000, -1.000000000000000000 ) ) ;
#4 = PRODUCT_DEFINITION_SHAPE ( 'NONE', 'NONE',  #142 ) ;
#5 = APPLICATION_PROTOCOL_DEFINITION ( 'draft international standard', 'automotive_design', 1998, #178 ) ;
#6 = ORIENTED_EDGE ( 'NONE', *, *, #88, .T. ) ;
#7 = PRESENTATION_LAYER_ASSIGNMENT (  '', '', ( #191 ) ) ;
#8 = DIRECTION ( 'NONE',  ( 1.224646799147353207E-16, 0.0000000000000000000, 1.000000000000000000 ) ) ;
#9 = PRESENTATION_STYLE_ASSIGNMENT (( #258 ) ) ;
#10 = CIRCLE ( 'NONE', #146, 0.07802190000000000514 ) ;
#11 = ORIENTED_EDGE ( 'NONE', *, *, #214, .F. ) ;
#12 = DIMENSIONAL_EXPONENTS ( 1.000000000000000000, 0.0000000000000000000, 0.0000000000000000000, 0.0000000000000000000, 0.0000000000000000000, 0.0000000000000000000, 0.0000000000000000000 ) ;
#13 = ORIENTED_EDGE ( 'NONE', *, *, #180, .F. ) ;
#14 = ORIENTED_EDGE ( 'NONE', *, *, #127, .T. ) ;
#15 = DIRECTION ( 'NONE',  ( 0.0000000000000000000, 0.0000000000000000000, 1.000000000000000000 ) ) ;
#16 = DIRECTION ( 'NONE',  ( 1.224646799147353207E-16, 0.0000000000000000000, 1.000000000000000000 ) ) ;
#17 = AXIS2_PLACEMENT_3D ( 'NONE', #28, #126, #27 ) ;
#18 = CARTESIAN_POINT ( 'NONE',  ( 7.987127902323220081E-17, 0.0000000000000000000, 0.6521984875871288390 ) ) ;
#19 =( CONVERSION_BASED_UNIT ( 'INCH', #269 ) LENGTH_UNIT ( ) NAMED_UNIT ( #91 ) );
#20 = CARTESIAN_POINT ( 'NONE',  ( 0.07802190000000007453, 0.0000000000000000000, 0.5629999999999999449 ) ) ;
#21 = DIRECTION ( 'NONE',  ( 1.224646799147353207E-16, 1.000000000000000000, -0.0000000000000000000 ) ) ;
#22 = FILL_AREA_STYLE ('',( #163 ) ) ;
#23 = CYLINDRICAL_SURFACE ( 'NONE', #54, 0.07802190000000000514 ) ;
#24 = AXIS2_PLACEMENT_3D ( 'NONE', #213, #265, #182 ) ;
#25 = CARTESIAN_POINT ( 'NONE',  ( 1.433239051475923482E-17, 0.0000000000000000000, 0.0000000000000000000 ) ) ;
#26 = CYLINDRICAL_SURFACE ( 'NONE', #84, 0.09375000000000001388 ) ;
#27 = DIRECTION ( 'NONE',  ( 0.0000000000000000000, 0.0000000000000000000, -1.000000000000000000 ) ) ;
#28 = CARTESIAN_POINT ( 'NONE',  ( 9.554927009839488851E-18, 0.0000000000000000000, 0.07802190000000000514 ) ) ;
#29 = UNCERTAINTY_MEASURE_WITH_UNIT (LENGTH_MEASURE( 1.000000000000000082E-05 ), #19, 'distance_accuracy_value', 'NONE');
#30 = FACE_OUTER_BOUND ( 'NONE', #312, .T. ) ;
#31 = VERTEX_POINT ( 'NONE', #162 ) ;
#32 = ORIENTED_EDGE ( 'NONE', *, *, #212, .F. ) ;
#33 = AXIS2_PLACEMENT_3D ( 'NONE', #98, #276, #128 ) ;
#34 = VERTEX_POINT ( 'NONE', #290 ) ;
#35 = EDGE_CURVE ( 'NONE', #236, #176, #291, .T. ) ;
#36 = CARTESIAN_POINT ( 'NONE',  ( 6.894761479199598081E-17, 0.0000000000000000000, 0.5629999999999999449 ) ) ;
#37 = EDGE_CURVE ( 'NONE', #174, #117, #149, .T. ) ;
#38 = ORIENTED_EDGE ( 'NONE', *, *, #85, .F. ) ;
#39 = CARTESIAN_POINT ( 'NONE',  ( 0.09375000000000001388, 1.148106374200643863E-17, 1.984999999999999654 ) ) ;
#40 = EDGE_LOOP ( 'NONE', ( #32, #283, #281, #230 ) ) ;
#41 = DIRECTION ( 'NONE',  ( 1.000000000000000000, 0.0000000000000000000, 0.0000000000000000000 ) ) ;
#42 = CIRCLE ( 'NONE', #17, 0.07802190000000000514 ) ;
#43 = VERTEX_POINT ( 'NONE', #210 ) ;
#44 = ADVANCED_FACE ( 'NONE', ( #321 ), #274, .T. ) ;
#45 = DIRECTION ( 'NONE',  ( -1.224646799147353207E-16, -0.0000000000000000000, -1.000000000000000000 ) ) ;
#46 =( NAMED_UNIT ( * ) PLANE_ANGLE_UNIT ( ) SI_UNIT ( $, .RADIAN. ) );
#47 = CARTESIAN_POINT ( 'NONE',  ( -0.07802189999999993575, 1.051799537592296220E-17, 0.5629999999999999449 ) ) ;
#48 = EDGE_CURVE ( 'NONE', #176, #236, #199, .T. ) ;
#49 = CARTESIAN_POINT ( 'NONE',  ( -0.07802189999999993575, 9.554927009839488851E-18, 0.5629999999999999449 ) ) ;
#50 = DIRECTION ( 'NONE',  ( -0.0000000000000000000, -0.0000000000000000000, -1.000000000000000000 ) ) ;
#51 = CARTESIAN_POINT ( 'NONE',  ( 9.554927009839488851E-18, 0.0000000000000000000, 0.07802190000000000514 ) ) ;
#52 = AXIS2_PLACEMENT_3D ( 'NONE', #179, #15, #118 ) ;
#53 = EDGE_CURVE ( 'NONE', #117, #43, #268, .T. ) ;
#54 = AXIS2_PLACEMENT_3D ( 'NONE', #215, #273, #324 ) ;
#55 = CARTESIAN_POINT ( 'NONE',  ( -0.07802190000000000514, 0.0000000000000000000, 9.554927009839488851E-18 ) ) ;
#56 = DIRECTION ( 'NONE',  ( 1.000000000000000000, 0.0000000000000000000, 0.0000000000000000000 ) ) ;
#57 = CIRCLE ( 'NONE', #172, 0.09375000000000001388 ) ;
#58 = EDGE_LOOP ( 'NONE', ( #106, #153, #206, #175 ) ) ;
#59 = ORIENTED_EDGE ( 'NONE', *, *, #205, .F. ) ;
#60 = SURFACE_SIDE_STYLE ('',( #70 ) ) ;
#61 = EDGE_LOOP ( 'NONE', ( #66, #226, #63, #181 ) ) ;
#62 = VERTEX_POINT ( 'NONE', #47 ) ;
#63 = ORIENTED_EDGE ( 'NONE', *, *, #85, .T. ) ;
#64 = EDGE_LOOP ( 'NONE', ( #14, #113, #38, #13 ) ) ;
#65 = CARTESIAN_POINT ( 'NONE',  ( 0.0000000000000000000, 0.0000000000000000000, 1.984999999999999654 ) ) ;
#66 = ORIENTED_EDGE ( 'NONE', *, *, #314, .F. ) ;
#67 = DIRECTION ( 'NONE',  ( 0.1736481776669313026, 0.0000000000000000000, 0.9848077530122077983 ) ) ;
#68 = CIRCLE ( 'NONE', #227, 0.09375000000000001388 ) ;
#69 = CARTESIAN_POINT ( 'NONE',  ( 0.0000000000000000000, 0.0000000000000000000, 2.000000000000000000 ) ) ;
#70 = SURFACE_STYLE_FILL_AREA ( #186 ) ;
#71 = CARTESIAN_POINT ( 'NONE',  ( 7.987127902323220081E-17, 0.0000000000000000000, 0.6521984875871288390 ) ) ;
#72 = CYLINDRICAL_SURFACE ( 'NONE', #263, 0.07802190000000000514 ) ;
#73 = CARTESIAN_POINT ( 'NONE',  ( -0.09375000000000001388, 0.0000000000000000000, 1.984999999999999654 ) ) ;
#74 =( NAMED_UNIT ( * ) PLANE_ANGLE_UNIT ( ) SI_UNIT ( $, .RADIAN. ) );
#75 = DIRECTION ( 'NONE',  ( -1.000000000000000000, 0.0000000000000000000, 1.224646799147353207E-16 ) ) ;
#76 = EDGE_CURVE ( 'NONE', #31, #34, #10, .T. ) ;
#77 = DIRECTION ( 'NONE',  ( -0.0000000000000000000, -0.0000000000000000000, -1.000000000000000000 ) ) ;
#78 = PRODUCT ( 'Micro_BEM-156-04X', 'Micro_BEM-156-04X', '', ( #108 ) ) ;
#79 = CONICAL_SURFACE ( 'NONE', #217, 0.07802190000000000514, 0.1745329251994338082 ) ;
#80 = ADVANCED_FACE ( 'NONE', ( #158 ), #216, .T. ) ;
#81 = CARTESIAN_POINT ( 'NONE',  ( 0.0000000000000000000, 0.0000000000000000000, 2.000000000000000000 ) ) ;
#82 = ADVANCED_BREP_SHAPE_REPRESENTATION ( 'Micro_BEM-156-04X', ( #94, #102 ), #286 ) ;
#83 = SHAPE_DEFINITION_REPRESENTATION ( #4, #82 ) ;
#84 = AXIS2_PLACEMENT_3D ( 'NONE', #218, #77, #148 ) ;
#85 = EDGE_CURVE ( 'NONE', #43, #117, #68, .T. ) ;
#86 = AXIS2_PLACEMENT_3D ( 'NONE', #161, #124, #293 ) ;
#87 = DIRECTION ( 'NONE',  ( 1.000000000000000000, 0.0000000000000000000, 0.0000000000000000000 ) ) ;
#88 = EDGE_CURVE ( 'NONE', #176, #111, #119, .T. ) ;
#89 = EDGE_LOOP ( 'NONE', ( #201, #309, #136 ) ) ;
#90 = DIRECTION ( 'NONE',  ( 0.7071067811865463515, 8.659560562354916834E-17, -0.7071067811865486830 ) ) ;
#91 = DIMENSIONAL_EXPONENTS ( 1.000000000000000000, 0.0000000000000000000, 0.0000000000000000000, 0.0000000000000000000, 0.0000000000000000000, 0.0000000000000000000, 0.0000000000000000000 ) ;
#92 = CARTESIAN_POINT ( 'NONE',  ( 9.554927009839488851E-18, 0.0000000000000000000, 0.07802190000000000514 ) ) ;
#93 =( LENGTH_UNIT ( ) NAMED_UNIT ( * ) SI_UNIT ( $, .METRE. ) );
#94 = MANIFOLD_SOLID_BREP ( 'Fillet1', #249 ) ;
#95 = SURFACE_SIDE_STYLE ('',( #240 ) ) ;
#96 = CARTESIAN_POINT ( 'NONE',  ( -0.07874999999999980627, 0.0000000000000000000, 2.000000000000000000 ) ) ;
#97 = ADVANCED_FACE ( 'NONE', ( #238 ), #122, .T. ) ;
#98 = CARTESIAN_POINT ( 'NONE',  ( 9.554927009839488851E-18, 0.0000000000000000000, 0.07802190000000000514 ) ) ;
#99 = DIRECTION ( 'NONE',  ( -1.224646799147353207E-16, -0.0000000000000000000, -1.000000000000000000 ) ) ;
#100 = FACE_OUTER_BOUND ( 'NONE', #64, .T. ) ;
#101 = MECHANICAL_DESIGN_GEOMETRIC_PRESENTATION_REPRESENTATION (  '', ( #183 ), #190 ) ;
#102 = AXIS2_PLACEMENT_3D ( 'NONE', #319, #211, #296 ) ;
#103 = SPHERICAL_SURFACE ( 'NONE', #33, 0.07802190000000000514 ) ;
#104 = ADVANCED_FACE ( 'NONE', ( #207 ), #317, .T. ) ;
#105 = CARTESIAN_POINT ( 'NONE',  ( 0.07802190000000000514, 9.554927009839488851E-18, -9.554927009839488851E-18 ) ) ;
#106 = ORIENTED_EDGE ( 'NONE', *, *, #88, .F. ) ;
#107 = CONICAL_SURFACE ( 'NONE', #256, 0.07874999999999980627, 0.7853981633974466137 ) ;
#108 = PRODUCT_CONTEXT ( 'NONE', #178, 'mechanical' ) ;
#109 = CARTESIAN_POINT ( 'NONE',  ( 6.894761479199598081E-17, 0.0000000000000000000, 0.5629999999999999449 ) ) ;
#110 = EDGE_LOOP ( 'NONE', ( #116, #315 ) ) ;
#111 = VERTEX_POINT ( 'NONE', #39 ) ;
#112 = ORIENTED_EDGE ( 'NONE', *, *, #37, .T. ) ;
#113 = ORIENTED_EDGE ( 'NONE', *, *, #212, .T. ) ;
#114 = FACE_OUTER_BOUND ( 'NONE', #40, .T. ) ;
#115 = AXIS2_PLACEMENT_3D ( 'NONE', #267, #266, #320 ) ;
#116 = ORIENTED_EDGE ( 'NONE', *, *, #35, .T. ) ;
#117 = VERTEX_POINT ( 'NONE', #203 ) ;
#118 = DIRECTION ( 'NONE',  ( 1.000000000000000000, 0.0000000000000000000, -0.0000000000000000000 ) ) ;
#119 = LINE ( 'NONE', #208, #137 ) ;
#120 = AXIS2_PLACEMENT_3D ( 'NONE', #303, #165, #152 ) ;
#121 = DIMENSIONAL_EXPONENTS ( 1.000000000000000000, 0.0000000000000000000, 0.0000000000000000000, 0.0000000000000000000, 0.0000000000000000000, 0.0000000000000000000, 0.0000000000000000000 ) ;
#122 = PLANE ( 'NONE',  #52 ) ;
#123 = DIRECTION ( 'NONE',  ( -0.1736481776669311083, 2.126576849575782084E-17, 0.9848077530122080203 ) ) ;
#124 = DIRECTION ( 'NONE',  ( 0.0000000000000000000, 0.0000000000000000000, -1.000000000000000000 ) ) ;
#125 = VECTOR ( 'NONE', #1, 39.37007874015748143 ) ;
#126 = DIRECTION ( 'NONE',  ( 0.0000000000000000000, -1.000000000000000000, 0.0000000000000000000 ) ) ;
#127 = EDGE_CURVE ( 'NONE', #254, #111, #57, .T. ) ;
#128 = DIRECTION ( 'NONE',  ( 1.000000000000000000, 0.0000000000000000000, 0.0000000000000000000 ) ) ;
#129 = FACE_OUTER_BOUND ( 'NONE', #157, .T. ) ;
#130 = DIRECTION ( 'NONE',  ( 0.0000000000000000000, 0.0000000000000000000, -1.000000000000000000 ) ) ;
#131 = ADVANCED_FACE ( 'NONE', ( #114 ), #26, .T. ) ;
#132 = AXIS2_PLACEMENT_3D ( 'NONE', #251, #135, #278 ) ;
#133 = APPLICATION_PROTOCOL_DEFINITION ( 'draft international standard', 'automotive_design', 1998, #173 ) ;
#134 = LINE ( 'NONE', #105, #138 ) ;
#135 = DIRECTION ( 'NONE',  ( -1.224646799147353207E-16, -0.0000000000000000000, -1.000000000000000000 ) ) ;
#136 = ORIENTED_EDGE ( 'NONE', *, *, #76, .F. ) ;
#137 = VECTOR ( 'NONE', #90, 39.37007874015748143 ) ;
#138 = VECTOR ( 'NONE', #195, 39.37007874015748143 ) ;
#139 = ORIENTED_EDGE ( 'NONE', *, *, #48, .F. ) ;
#140 = EDGE_LOOP ( 'NONE', ( #234, #143, #141, #59 ) ) ;
#141 = ORIENTED_EDGE ( 'NONE', *, *, #250, .T. ) ;
#142 = PRODUCT_DEFINITION ( 'UNKNOWN', '', #302, #2 ) ;
#143 = ORIENTED_EDGE ( 'NONE', *, *, #306, .T. ) ;
#144 = LENGTH_MEASURE_WITH_UNIT ( LENGTH_MEASURE( 0.02539999999999999897 ), #185 );
#145 = DIRECTION ( 'NONE',  ( 1.000000000000000000, 0.0000000000000000000, 0.0000000000000000000 ) ) ;
#146 = AXIS2_PLACEMENT_3D ( 'NONE', #92, #16, #147 ) ;
#147 = DIRECTION ( 'NONE',  ( -1.000000000000000000, 0.0000000000000000000, 2.188366338220633428E-16 ) ) ;
#148 = DIRECTION ( 'NONE',  ( -1.000000000000000000, 0.0000000000000000000, 0.0000000000000000000 ) ) ;
#149 = LINE ( 'NONE', #20, #150 ) ;
#150 = VECTOR ( 'NONE', #67, 39.37007874015748143 ) ;
#151 = LINE ( 'NONE', #322, #159 ) ;
#152 = DIRECTION ( 'NONE',  ( -1.000000000000000000, 0.0000000000000000000, 0.0000000000000000000 ) ) ;
#153 = ORIENTED_EDGE ( 'NONE', *, *, #35, .F. ) ;
#154 = ADVANCED_FACE ( 'NONE', ( #271 ), #103, .T. ) ;
#155 =( LENGTH_UNIT ( ) NAMED_UNIT ( * ) SI_UNIT ( $, .METRE. ) );
#156 = DIRECTION ( 'NONE',  ( 0.0000000000000000000, 0.0000000000000000000, -1.000000000000000000 ) ) ;
#157 = EDGE_LOOP ( 'NONE', ( #139, #6, #204, #288 ) ) ;
#158 = FACE_OUTER_BOUND ( 'NONE', #261, .T. ) ;
#159 = VECTOR ( 'NONE', #50, 39.37007874015748143 ) ;
#160 = VECTOR ( 'NONE', #192, 39.37007874015748143 ) ;
#161 = CARTESIAN_POINT ( 'NONE',  ( 0.0000000000000000000, 0.0000000000000000000, 2.000000000000000000 ) ) ;
#162 = CARTESIAN_POINT ( 'NONE',  ( -0.07802189999999999126, 0.0000000000000000000, 0.07802190000000001902 ) ) ;
#163 = FILL_AREA_STYLE_COLOUR ( '', #313 ) ;
#164 = CIRCLE ( 'NONE', #202, 0.07802190000000000514 ) ;
#165 = DIRECTION ( 'NONE',  ( -0.0000000000000000000, -0.0000000000000000000, -1.000000000000000000 ) ) ;
#166 =( NAMED_UNIT ( * ) SI_UNIT ( $, .STERADIAN. ) SOLID_ANGLE_UNIT ( ) );
#167 = LINE ( 'NONE', #246, #125 ) ;
#168 = FACE_OUTER_BOUND ( 'NONE', #231, .T. ) ;
#169 = VECTOR ( 'NONE', #123, 39.37007874015747433 ) ;
#170 = DIRECTION ( 'NONE',  ( 1.224646799147353207E-16, 0.0000000000000000000, 1.000000000000000000 ) ) ;
#171 = DIRECTION ( 'NONE',  ( -1.000000000000000000, 0.0000000000000000000, 0.0000000000000000000 ) ) ;
#172 = AXIS2_PLACEMENT_3D ( 'NONE', #65, #156, #41 ) ;
#173 = APPLICATION_CONTEXT ( 'automotive_design' ) ;
#174 = VERTEX_POINT ( 'NONE', #220 ) ;
#175 = ORIENTED_EDGE ( 'NONE', *, *, #244, .F. ) ;
#176 = VERTEX_POINT ( 'NONE', #247 ) ;
#177 = ADVANCED_FACE ( 'NONE', ( #168 ), #72, .T. ) ;
#178 = APPLICATION_CONTEXT ( 'automotive_design' ) ;
#179 = CARTESIAN_POINT ( 'NONE',  ( 0.0000000000000000000, 0.0000000000000000000, 2.000000000000000000 ) ) ;
#180 = EDGE_CURVE ( 'NONE', #254, #43, #151, .T. ) ;
#181 = ORIENTED_EDGE ( 'NONE', *, *, #37, .F. ) ;
#182 = DIRECTION ( 'NONE',  ( 1.000000000000000000, 0.0000000000000000000, 0.0000000000000000000 ) ) ;
#183 = STYLED_ITEM ( 'NONE', ( #318 ), #94 ) ;
#184 = VECTOR ( 'NONE', #99, 39.37007874015748143 ) ;
#185 =( LENGTH_UNIT ( ) NAMED_UNIT ( * ) SI_UNIT ( $, .METRE. ) );
#186 = FILL_AREA_STYLE ('',( #285 ) ) ;
#187 =( CONVERSION_BASED_UNIT ( 'INCH', #200 ) LENGTH_UNIT ( ) NAMED_UNIT ( #121 ) );
#188 = SURFACE_STYLE_USAGE ( .BOTH. , #95 ) ;
#189 = EDGE_CURVE ( 'NONE', #236, #254, #167, .T. ) ;
#190 =( GEOMETRIC_REPRESENTATION_CONTEXT ( 3 ) GLOBAL_UNCERTAINTY_ASSIGNED_CONTEXT ( ( #252 ) ) GLOBAL_UNIT_ASSIGNED_CONTEXT ( ( #294, #46, #166 ) ) REPRESENTATION_CONTEXT ( 'NONE', 'WORKASPACE' ) );
#191 = STYLED_ITEM ( 'NONE', ( #9 ), #82 ) ;
#192 = DIRECTION ( 'NONE',  ( -0.0000000000000000000, -0.0000000000000000000, -1.000000000000000000 ) ) ;
#193 = LINE ( 'NONE', #49, #169 ) ;
#194 = CYLINDRICAL_SURFACE ( 'NONE', #120, 0.09375000000000001388 ) ;
#195 = DIRECTION ( 'NONE',  ( -1.224646799147353207E-16, -0.0000000000000000000, -1.000000000000000000 ) ) ;
#196 = EDGE_CURVE ( 'NONE', #257, #31, #305, .T. ) ;
#197 = AXIS2_PLACEMENT_3D ( 'NONE', #69, #237, #264 ) ;
#198 = CIRCLE ( 'NONE', #292, 0.09375000000000001388 ) ;
#199 = CIRCLE ( 'NONE', #197, 0.07874999999999980627 ) ;
#200 = LENGTH_MEASURE_WITH_UNIT ( LENGTH_MEASURE( 0.02539999999999999897 ), #155 );
#201 = ORIENTED_EDGE ( 'NONE', *, *, #196, .F. ) ;
#202 = AXIS2_PLACEMENT_3D ( 'NONE', #109, #232, #304 ) ;
#203 = CARTESIAN_POINT ( 'NONE',  ( 0.09375000000000009714, 1.148106374200644787E-17, 0.6521984875871288390 ) ) ;
#204 = ORIENTED_EDGE ( 'NONE', *, *, #127, .F. ) ;
#205 = EDGE_CURVE ( 'NONE', #62, #31, #275, .T. ) ;
#206 = ORIENTED_EDGE ( 'NONE', *, *, #189, .T. ) ;
#207 = FACE_OUTER_BOUND ( 'NONE', #61, .T. ) ;
#208 = CARTESIAN_POINT ( 'NONE',  ( 0.07874999999999980627, 9.644093543285380530E-18, 2.000000000000000000 ) ) ;
#209 = AXIS2_PLACEMENT_3D ( 'NONE', #270, #21, #248 ) ;
#210 = CARTESIAN_POINT ( 'NONE',  ( -0.09374999999999991673, 0.0000000000000000000, 0.6521984875871288390 ) ) ;
#211 = DIRECTION ( 'NONE',  ( 0.0000000000000000000, 0.0000000000000000000, 1.000000000000000000 ) ) ;
#212 = EDGE_CURVE ( 'NONE', #111, #117, #243, .T. ) ;
#213 = CARTESIAN_POINT ( 'NONE',  ( 9.554927009839488851E-18, 0.0000000000000000000, 0.07802190000000000514 ) ) ;
#214 = EDGE_CURVE ( 'NONE', #62, #43, #193, .T. ) ;
#215 = CARTESIAN_POINT ( 'NONE',  ( 0.0000000000000000000, 0.0000000000000000000, 0.0000000000000000000 ) ) ;
#216 = SPHERICAL_SURFACE ( 'NONE', #24, 0.07802190000000000514 ) ;
#217 = AXIS2_PLACEMENT_3D ( 'NONE', #36, #8, #56 ) ;
#218 = CARTESIAN_POINT ( 'NONE',  ( 0.0000000000000000000, 0.0000000000000000000, 2.000000000000000000 ) ) ;
#219 = ADVANCED_FACE ( 'NONE', ( #300 ), #23, .T. ) ;
#220 = CARTESIAN_POINT ( 'NONE',  ( 0.07802190000000007453, 0.0000000000000000000, 0.5629999999999999449 ) ) ;
#221 = EDGE_CURVE ( 'NONE', #257, #34, #42, .T. ) ;
#222 = DIRECTION ( 'NONE',  ( 0.0000000000000000000, 0.0000000000000000000, -1.000000000000000000 ) ) ;
#223 = PRESENTATION_LAYER_ASSIGNMENT (  '', '', ( #183 ) ) ;
#224 = DIRECTION ( 'NONE',  ( 1.000000000000000000, 0.0000000000000000000, 0.0000000000000000000 ) ) ;
#225 = MECHANICAL_DESIGN_GEOMETRIC_PRESENTATION_REPRESENTATION (  '', ( #191 ), #279 ) ;
#226 = ORIENTED_EDGE ( 'NONE', *, *, #214, .T. ) ;
#227 = AXIS2_PLACEMENT_3D ( 'NONE', #71, #45, #145 ) ;
#228 = COLOUR_RGB ( '',0.7921568627450980005, 0.8196078431372548767, 0.9333333333333333481 ) ;
#229 =( NAMED_UNIT ( * ) PLANE_ANGLE_UNIT ( ) SI_UNIT ( $, .RADIAN. ) );
#230 = ORIENTED_EDGE ( 'NONE', *, *, #53, .F. ) ;
#231 = EDGE_LOOP ( 'NONE', ( #284, #289, #259, #260 ) ) ;
#232 = DIRECTION ( 'NONE',  ( -1.224646799147353207E-16, -0.0000000000000000000, -1.000000000000000000 ) ) ;
#233 = ORIENTED_EDGE ( 'NONE', *, *, #282, .F. ) ;
#234 = ORIENTED_EDGE ( 'NONE', *, *, #314, .T. ) ;
#235 = AXIS2_PLACEMENT_3D ( 'NONE', #316, #170, #87 ) ;
#236 = VERTEX_POINT ( 'NONE', #96 ) ;
#237 = DIRECTION ( 'NONE',  ( 0.0000000000000000000, 0.0000000000000000000, 1.000000000000000000 ) ) ;
#238 = FACE_OUTER_BOUND ( 'NONE', #110, .T. ) ;
#239 = CIRCLE ( 'NONE', #132, 0.07802190000000000514 ) ;
#240 = SURFACE_STYLE_FILL_AREA ( #22 ) ;
#241 = CARTESIAN_POINT ( 'NONE',  ( 0.09375000000000001388, 1.148106374200643863E-17, 2.000000000000000000 ) ) ;
#242 = DIRECTION ( 'NONE',  ( -1.224646799147353207E-16, -0.0000000000000000000, -1.000000000000000000 ) ) ;
#243 = LINE ( 'NONE', #241, #160 ) ;
#244 = EDGE_CURVE ( 'NONE', #111, #254, #198, .T. ) ;
#245 = PRODUCT_RELATED_PRODUCT_CATEGORY ( 'part', '', ( #78 ) ) ;
#246 = CARTESIAN_POINT ( 'NONE',  ( -0.07874999999999980627, 0.0000000000000000000, 2.000000000000000000 ) ) ;
#247 = CARTESIAN_POINT ( 'NONE',  ( 0.07874999999999980627, 1.056257864264590573E-17, 2.000000000000000000 ) ) ;
#248 = DIRECTION ( 'NONE',  ( -1.000000000000000000, 1.224646799147353207E-16, 0.0000000000000000000 ) ) ;
#249 = CLOSED_SHELL ( 'NONE', ( #80, #219, #104, #255, #272, #131, #97, #44, #277, #177, #154 ) ) ;
#250 = EDGE_CURVE ( 'NONE', #34, #31, #307, .T. ) ;
#251 = CARTESIAN_POINT ( 'NONE',  ( 6.894761479199598081E-17, 0.0000000000000000000, 0.5629999999999999449 ) ) ;
#252 = UNCERTAINTY_MEASURE_WITH_UNIT (LENGTH_MEASURE( 1.000000000000000082E-05 ), #294, 'distance_accuracy_value', 'NONE');
#253 =( NAMED_UNIT ( * ) SI_UNIT ( $, .STERADIAN. ) SOLID_ANGLE_UNIT ( ) );
#254 = VERTEX_POINT ( 'NONE', #73 ) ;
#255 = ADVANCED_FACE ( 'NONE', ( #129 ), #107, .T. ) ;
#256 = AXIS2_PLACEMENT_3D ( 'NONE', #81, #222, #171 ) ;
#257 = VERTEX_POINT ( 'NONE', #25 ) ;
#258 = SURFACE_STYLE_USAGE ( .BOTH. , #60 ) ;
#259 = ORIENTED_EDGE ( 'NONE', *, *, #205, .T. ) ;
#260 = ORIENTED_EDGE ( 'NONE', *, *, #76, .T. ) ;
#261 = EDGE_LOOP ( 'NONE', ( #311, #310, #287 ) ) ;
#262 = ORIENTED_EDGE ( 'NONE', *, *, #53, .T. ) ;
#263 = AXIS2_PLACEMENT_3D ( 'NONE', #325, #3, #75 ) ;
#264 = DIRECTION ( 'NONE',  ( 1.000000000000000000, 0.0000000000000000000, 0.0000000000000000000 ) ) ;
#265 = DIRECTION ( 'NONE',  ( 0.0000000000000000000, 1.000000000000000000, 0.0000000000000000000 ) ) ;
#266 = DIRECTION ( 'NONE',  ( 0.0000000000000000000, 0.0000000000000000000, 1.000000000000000000 ) ) ;
#267 = CARTESIAN_POINT ( 'NONE',  ( 0.0000000000000000000, 0.0000000000000000000, 2.000000000000000000 ) ) ;
#268 = CIRCLE ( 'NONE', #298, 0.09375000000000001388 ) ;
#269 = LENGTH_MEASURE_WITH_UNIT ( LENGTH_MEASURE( 0.02539999999999999897 ), #93 );
#270 = CARTESIAN_POINT ( 'NONE',  ( 9.554927009839488851E-18, 0.0000000000000000000, 0.07802190000000000514 ) ) ;
#271 = FACE_OUTER_BOUND ( 'NONE', #89, .T. ) ;
#272 = ADVANCED_FACE ( 'NONE', ( #100 ), #194, .T. ) ;
#273 = DIRECTION ( 'NONE',  ( -1.224646799147353207E-16, -0.0000000000000000000, -1.000000000000000000 ) ) ;
#274 = CONICAL_SURFACE ( 'NONE', #86, 0.07874999999999980627, 0.7853981633974466137 ) ;
#275 = LINE ( 'NONE', #55, #184 ) ;
#276 = DIRECTION ( 'NONE',  ( 0.0000000000000000000, 1.000000000000000000, 0.0000000000000000000 ) ) ;
#277 = ADVANCED_FACE ( 'NONE', ( #30 ), #79, .T. ) ;
#278 = DIRECTION ( 'NONE',  ( -1.000000000000000000, 0.0000000000000000000, 0.0000000000000000000 ) ) ;
#279 =( GEOMETRIC_REPRESENTATION_CONTEXT ( 3 ) GLOBAL_UNCERTAINTY_ASSIGNED_CONTEXT ( ( #29 ) ) GLOBAL_UNIT_ASSIGNED_CONTEXT ( ( #19, #74, #323 ) ) REPRESENTATION_CONTEXT ( 'NONE', 'WORKASPACE' ) );
#280 = UNCERTAINTY_MEASURE_WITH_UNIT (LENGTH_MEASURE( 1.000000000000000082E-05 ), #187, 'distance_accuracy_value', 'NONE');
#281 = ORIENTED_EDGE ( 'NONE', *, *, #180, .T. ) ;
#282 = EDGE_CURVE ( 'NONE', #174, #62, #164, .T. ) ;
#283 = ORIENTED_EDGE ( 'NONE', *, *, #244, .T. ) ;
#284 = ORIENTED_EDGE ( 'NONE', *, *, #306, .F. ) ;
#285 = FILL_AREA_STYLE_COLOUR ( '', #228 ) ;
#286 =( GEOMETRIC_REPRESENTATION_CONTEXT ( 3 ) GLOBAL_UNCERTAINTY_ASSIGNED_CONTEXT ( ( #280 ) ) GLOBAL_UNIT_ASSIGNED_CONTEXT ( ( #187, #229, #253 ) ) REPRESENTATION_CONTEXT ( 'NONE', 'WORKASPACE' ) );
#287 = ORIENTED_EDGE ( 'NONE', *, *, #250, .F. ) ;
#288 = ORIENTED_EDGE ( 'NONE', *, *, #189, .F. ) ;
#289 = ORIENTED_EDGE ( 'NONE', *, *, #282, .T. ) ;
#290 = CARTESIAN_POINT ( 'NONE',  ( 0.07802190000000001902, 9.554927009839488851E-18, 0.07802189999999999126 ) ) ;
#291 = CIRCLE ( 'NONE', #115, 0.07874999999999980627 ) ;
#292 = AXIS2_PLACEMENT_3D ( 'NONE', #299, #130, #224 ) ;
#293 = DIRECTION ( 'NONE',  ( -1.000000000000000000, 0.0000000000000000000, 0.0000000000000000000 ) ) ;
#294 =( CONVERSION_BASED_UNIT ( 'INCH', #144 ) LENGTH_UNIT ( ) NAMED_UNIT ( #12 ) );
#295 = DIRECTION ( 'NONE',  ( 1.000000000000000000, 0.0000000000000000000, 0.0000000000000000000 ) ) ;
#296 = DIRECTION ( 'NONE',  ( 1.000000000000000000, 0.0000000000000000000, 0.0000000000000000000 ) ) ;
#297 = DIRECTION ( 'NONE',  ( -1.000000000000000000, 0.0000000000000000000, 2.188366338220633428E-16 ) ) ;
#298 = AXIS2_PLACEMENT_3D ( 'NONE', #18, #242, #295 ) ;
#299 = CARTESIAN_POINT ( 'NONE',  ( 0.0000000000000000000, 0.0000000000000000000, 1.984999999999999654 ) ) ;
#300 = FACE_OUTER_BOUND ( 'NONE', #140, .T. ) ;
#301 = DIRECTION ( 'NONE',  ( 1.224646799147353207E-16, 0.0000000000000000000, 1.000000000000000000 ) ) ;
#302 = PRODUCT_DEFINITION_FORMATION_WITH_SPECIFIED_SOURCE ( 'ANY', '', #78, .NOT_KNOWN. ) ;
#303 = CARTESIAN_POINT ( 'NONE',  ( 0.0000000000000000000, 0.0000000000000000000, 2.000000000000000000 ) ) ;
#304 = DIRECTION ( 'NONE',  ( -1.000000000000000000, 0.0000000000000000000, 0.0000000000000000000 ) ) ;
#305 = CIRCLE ( 'NONE', #209, 0.07802190000000000514 ) ;
#306 = EDGE_CURVE ( 'NONE', #174, #34, #134, .T. ) ;
#307 = CIRCLE ( 'NONE', #308, 0.07802190000000000514 ) ;
#308 = AXIS2_PLACEMENT_3D ( 'NONE', #51, #301, #297 ) ;
#309 = ORIENTED_EDGE ( 'NONE', *, *, #221, .T. ) ;
#310 = ORIENTED_EDGE ( 'NONE', *, *, #196, .T. ) ;
#311 = ORIENTED_EDGE ( 'NONE', *, *, #221, .F. ) ;
#312 = EDGE_LOOP ( 'NONE', ( #11, #233, #112, #262 ) ) ;
#313 = COLOUR_RGB ( '',0.7921568627450980005, 0.8196078431372548767, 0.9333333333333333481 ) ;
#314 = EDGE_CURVE ( 'NONE', #62, #174, #239, .T. ) ;
#315 = ORIENTED_EDGE ( 'NONE', *, *, #48, .T. ) ;
#316 = CARTESIAN_POINT ( 'NONE',  ( 6.894761479199598081E-17, 0.0000000000000000000, 0.5629999999999999449 ) ) ;
#317 = CONICAL_SURFACE ( 'NONE', #235, 0.07802190000000000514, 0.1745329251994338082 ) ;
#318 = PRESENTATION_STYLE_ASSIGNMENT (( #188 ) ) ;
#319 = CARTESIAN_POINT ( 'NONE',  ( 0.0000000000000000000, 0.0000000000000000000, 0.0000000000000000000 ) ) ;
#320 = DIRECTION ( 'NONE',  ( 1.000000000000000000, 0.0000000000000000000, 0.0000000000000000000 ) ) ;
#321 = FACE_OUTER_BOUND ( 'NONE', #58, .T. ) ;
#322 = CARTESIAN_POINT ( 'NONE',  ( -0.09375000000000001388, 0.0000000000000000000, 2.000000000000000000 ) ) ;
#323 =( NAMED_UNIT ( * ) SI_UNIT ( $, .STERADIAN. ) SOLID_ANGLE_UNIT ( ) );
#324 = DIRECTION ( 'NONE',  ( -1.000000000000000000, 0.0000000000000000000, 1.224646799147353207E-16 ) ) ;
#325 = CARTESIAN_POINT ( 'NONE',  ( 0.0000000000000000000, 0.0000000000000000000, 0.0000000000000000000 ) ) ;
ENDSEC;
END-ISO-10303-21;
