ISO-10303-21;
HEADER;
FILE_DESCRIPTION (( 'STEP AP214' ),
    '1' );
FILE_NAME ('59271.STEP',
    '2023-06-22T22:40:45',
    ( '' ),
    ( '' ),
    'SwSTEP 2.0',
    'SolidWorks 2023',
    '' );
FILE_SCHEMA (( 'AUTOMOTIVE_DESIGN' ));
ENDSEC;

DATA;
#1 = STYLED_ITEM ( 'NONE', ( #152 ), #164 ) ;
#2 =( NAMED_UNIT ( * ) PLANE_ANGLE_UNIT ( ) SI_UNIT ( $, .RADIAN. ) );
#3 = FACE_OUTER_BOUND ( 'NONE', #158, .T. ) ;
#4 = DIRECTION ( 'NONE',  ( -0.000000000000000000, -1.000000000000000000, -0.000000000000000000 ) ) ;
#5 = AXIS2_PLACEMENT_3D ( 'NONE', #64, #138, #17 ) ;
#6 = ADVANCED_FACE ( 'NONE', ( #3 ), #188, .T. ) ;
#7 = CARTESIAN_POINT ( 'NONE',  ( 0.3125000000000000000, 5.000000000000000000, 3.827021247335479543E-17 ) ) ;
#8 = CARTESIAN_POINT ( 'NONE',  ( 0.000000000000000000, 0.000000000000000000, -0.3125000000000000000 ) ) ;
#9 =( NAMED_UNIT ( * ) PLANE_ANGLE_UNIT ( ) SI_UNIT ( $, .RADIAN. ) );
#10 = VECTOR ( 'NONE', #128, 39.37007874015748143 ) ;
#11 =( CONVERSION_BASED_UNIT ( 'INCH', #228 ) LENGTH_UNIT ( ) NAMED_UNIT ( #80 ) );
#12 = EDGE_CURVE ( 'NONE', #177, #33, #194, .T. ) ;
#13 = DIMENSIONAL_EXPONENTS ( 1.000000000000000000, 0.000000000000000000, 0.000000000000000000, 0.000000000000000000, 0.000000000000000000, 0.000000000000000000, 0.000000000000000000 ) ;
#14 = ORIENTED_EDGE ( 'NONE', *, *, #225, .T. ) ;
#15 = DIRECTION ( 'NONE',  ( 0.000000000000000000, -0.000000000000000000, 1.000000000000000000 ) ) ;
#16 = COLOUR_RGB ( '',0.7921568627450980005, 0.8196078431372548767, 0.9333333333333333481 ) ;
#17 = DIRECTION ( 'NONE',  ( -1.000000000000000000, 0.000000000000000000, 0.000000000000000000 ) ) ;
#18 = DIRECTION ( 'NONE',  ( 0.000000000000000000, -1.000000000000000000, -0.000000000000000000 ) ) ;
#19 = DIRECTION ( 'NONE',  ( -0.000000000000000000, -1.000000000000000000, -0.000000000000000000 ) ) ;
#20 = AXIS2_PLACEMENT_3D ( 'NONE', #246, #4, #143 ) ;
#21 = VERTEX_POINT ( 'NONE', #8 ) ;
#22 = LINE ( 'NONE', #293, #10 ) ;
#23 = CARTESIAN_POINT ( 'NONE',  ( 0.000000000000000000, 0.000000000000000000, 0.000000000000000000 ) ) ;
#24 =( NAMED_UNIT ( * ) PLANE_ANGLE_UNIT ( ) SI_UNIT ( $, .RADIAN. ) );
#25 = DIRECTION ( 'NONE',  ( -4.898587196589413075E-17, 1.000000000000000000, -0.000000000000000000 ) ) ;
#26 = SURFACE_STYLE_USAGE ( .BOTH. , #149 ) ;
#27 = ADVANCED_FACE ( 'NONE', ( #103 ), #121, .T. ) ;
#28 = FILL_AREA_STYLE_COLOUR ( '', #154 ) ;
#29 = SURFACE_STYLE_USAGE ( .BOTH. , #223 ) ;
#30 = COLOUR_RGB ( '',1.000000000000000000, 0.000000000000000000, 0.000000000000000000 ) ;
#31 = ORIENTED_EDGE ( 'NONE', *, *, #251, .F. ) ;
#32 =( NAMED_UNIT ( * ) PLANE_ANGLE_UNIT ( ) SI_UNIT ( $, .RADIAN. ) );
#33 = VERTEX_POINT ( 'NONE', #272 ) ;
#34 = STYLED_ITEM ( 'NONE', ( #168 ), #41 ) ;
#35 = MECHANICAL_DESIGN_GEOMETRIC_PRESENTATION_REPRESENTATION (  '', ( #1 ), #235 ) ;
#36 = VERTEX_POINT ( 'NONE', #7 ) ;
#37 = ORIENTED_EDGE ( 'NONE', *, *, #209, .T. ) ;
#38 =( CONVERSION_BASED_UNIT ( 'INCH', #88 ) LENGTH_UNIT ( ) NAMED_UNIT ( #232 ) );
#39 = DIRECTION ( 'NONE',  ( 0.000000000000000000, 0.000000000000000000, -1.000000000000000000 ) ) ;
#40 = SURFACE_STYLE_FILL_AREA ( #263 ) ;
#41 = MANIFOLD_SOLID_BREP ( 'Revolve - Cutting Edge', #157 ) ;
#42 = CARTESIAN_POINT ( 'NONE',  ( -0.3125000000000000000, 2.500000000000000000, 0.000000000000000000 ) ) ;
#43 = FILL_AREA_STYLE ('',( #221 ) ) ;
#44 = DIRECTION ( 'NONE',  ( 0.000000000000000000, 0.000000000000000000, -1.000000000000000000 ) ) ;
#45 = DIRECTION ( 'NONE',  ( -0.000000000000000000, -1.000000000000000000, -0.000000000000000000 ) ) ;
#46 = PRODUCT_DEFINITION_FORMATION_WITH_SPECIFIED_SOURCE ( 'ANY', '', #187, .NOT_KNOWN. ) ;
#47 =( CONVERSION_BASED_UNIT ( 'INCH', #298 ) LENGTH_UNIT ( ) NAMED_UNIT ( #87 ) );
#48 = AXIS2_PLACEMENT_3D ( 'NONE', #132, #226, #224 ) ;
#49 = SURFACE_STYLE_USAGE ( .BOTH. , #53 ) ;
#50 = SURFACE_STYLE_FILL_AREA ( #71 ) ;
#51 = EDGE_CURVE ( 'NONE', #180, #36, #22, .T. ) ;
#52 = MANIFOLD_SOLID_BREP ( 'Revolve - Tool Body (Straight Shanked)', #234 ) ;
#53 = SURFACE_SIDE_STYLE ('',( #280 ) ) ;
#54 = AXIS2_PLACEMENT_3D ( 'NONE', #75, #25, #171 ) ;
#55 = AXIS2_PLACEMENT_3D ( 'NONE', #106, #281, #148 ) ;
#56 = EDGE_CURVE ( 'NONE', #21, #33, #195, .T. ) ;
#57 = CARTESIAN_POINT ( 'NONE',  ( -0.3125000000000002776, 5.000000000000000000, 0.000000000000000000 ) ) ;
#58 = UNCERTAINTY_MEASURE_WITH_UNIT (LENGTH_MEASURE( 1.000000000000000082E-05 ), #125, 'distance_accuracy_value', 'NONE');
#59 = EDGE_LOOP ( 'NONE', ( #307, #233 ) ) ;
#60 = PRESENTATION_LAYER_ASSIGNMENT (  '', '', ( #210 ) ) ;
#61 = DIRECTION ( 'NONE',  ( -1.000000000000000000, -4.898587196589412459E-17, 0.000000000000000000 ) ) ;
#62 = PRESENTATION_LAYER_ASSIGNMENT (  '', '', ( #34 ) ) ;
#63 = EDGE_CURVE ( 'NONE', #155, #21, #176, .T. ) ;
#64 = CARTESIAN_POINT ( 'NONE',  ( -1.224646799147353207E-16, 5.000000000000000000, 0.000000000000000000 ) ) ;
#65 = LENGTH_MEASURE_WITH_UNIT ( LENGTH_MEASURE( 0.02539999999999999897 ), #144 );
#66 = AXIS2_PLACEMENT_3D ( 'NONE', #23, #45, #108 ) ;
#67 = FILL_AREA_STYLE ('',( #193 ) ) ;
#68 = AXIS2_PLACEMENT_3D ( 'NONE', #127, #124, #99 ) ;
#69 = CARTESIAN_POINT ( 'NONE',  ( 0.3125000000000000000, 5.000000000000000000, 0.000000000000000000 ) ) ;
#70 = CARTESIAN_POINT ( 'NONE',  ( -0.3125000000000002220, 5.000000000000000000, 0.000000000000000000 ) ) ;
#71 = FILL_AREA_STYLE ('',( #299 ) ) ;
#72 = UNCERTAINTY_MEASURE_WITH_UNIT (LENGTH_MEASURE( 1.000000000000000082E-05 ), #122, 'distance_accuracy_value', 'NONE');
#73 = COLOUR_RGB ( '',1.000000000000000000, 0.000000000000000000, 0.000000000000000000 ) ;
#74 = ORIENTED_EDGE ( 'NONE', *, *, #12, .T. ) ;
#75 = CARTESIAN_POINT ( 'NONE',  ( -1.224646799147353207E-16, 5.000000000000000000, 0.000000000000000000 ) ) ;
#76 = ORIENTED_EDGE ( 'NONE', *, *, #102, .T. ) ;
#77 =( NAMED_UNIT ( * ) PLANE_ANGLE_UNIT ( ) SI_UNIT ( $, .RADIAN. ) );
#78 = SHAPE_DEFINITION_REPRESENTATION ( #93, #161 ) ;
#79 = ORIENTED_EDGE ( 'NONE', *, *, #51, .F. ) ;
#80 = DIMENSIONAL_EXPONENTS ( 1.000000000000000000, 0.000000000000000000, 0.000000000000000000, 0.000000000000000000, 0.000000000000000000, 0.000000000000000000, 0.000000000000000000 ) ;
#81 = EDGE_CURVE ( 'NONE', #36, #82, #166, .T. ) ;
#82 = VERTEX_POINT ( 'NONE', #57 ) ;
#83 = EDGE_LOOP ( 'NONE', ( #79, #37, #231, #207 ) ) ;
#84 = CARTESIAN_POINT ( 'NONE',  ( 3.749399456654644447E-34, 2.500000000000000000, 0.000000000000000000 ) ) ;
#85 = ORIENTED_EDGE ( 'NONE', *, *, #12, .F. ) ;
#86 = DIRECTION ( 'NONE',  ( 0.000000000000000000, 1.000000000000000000, 0.000000000000000000 ) ) ;
#87 = DIMENSIONAL_EXPONENTS ( 1.000000000000000000, 0.000000000000000000, 0.000000000000000000, 0.000000000000000000, 0.000000000000000000, 0.000000000000000000, 0.000000000000000000 ) ;
#88 = LENGTH_MEASURE_WITH_UNIT ( LENGTH_MEASURE( 0.02539999999999999897 ), #135 );
#89 = PRODUCT_DEFINITION ( 'UNKNOWN', '', #46, #283 ) ;
#90 = ORIENTED_EDGE ( 'NONE', *, *, #63, .T. ) ;
#91 = AXIS2_PLACEMENT_3D ( 'NONE', #100, #162, #295 ) ;
#92 = DIRECTION ( 'NONE',  ( 1.000000000000000000, 4.898587196589412459E-17, 0.000000000000000000 ) ) ;
#93 = PRODUCT_DEFINITION_SHAPE ( 'NONE', 'NONE',  #89 ) ;
#94 = LENGTH_MEASURE_WITH_UNIT ( LENGTH_MEASURE( 0.02539999999999999897 ), #212 );
#95 = CARTESIAN_POINT ( 'NONE',  ( 0.000000000000000000, 0.000000000000000000, 0.000000000000000000 ) ) ;
#96 = PRESENTATION_LAYER_ASSIGNMENT (  '', '', ( #118 ) ) ;
#97 = CIRCLE ( 'NONE', #117, 0.3125000000000000000 ) ;
#98 = FILL_AREA_STYLE_COLOUR ( '', #16 ) ;
#99 = DIRECTION ( 'NONE',  ( -1.000000000000000000, 0.000000000000000000, 0.000000000000000000 ) ) ;
#100 = CARTESIAN_POINT ( 'NONE',  ( 0.000000000000000000, 0.000000000000000000, 0.000000000000000000 ) ) ;
#101 = SURFACE_STYLE_FILL_AREA ( #67 ) ;
#102 = EDGE_CURVE ( 'NONE', #236, #180, #261, .T. ) ;
#103 = FACE_OUTER_BOUND ( 'NONE', #185, .T. ) ;
#104 = LENGTH_MEASURE_WITH_UNIT ( LENGTH_MEASURE( 0.02539999999999999897 ), #292 );
#105 = PRESENTATION_STYLE_ASSIGNMENT (( #29 ) ) ;
#106 = CARTESIAN_POINT ( 'NONE',  ( 0.000000000000000000, 0.000000000000000000, 0.000000000000000000 ) ) ;
#107 = DIRECTION ( 'NONE',  ( -0.000000000000000000, -1.000000000000000000, -0.000000000000000000 ) ) ;
#108 = DIRECTION ( 'NONE',  ( 0.000000000000000000, 0.000000000000000000, -1.000000000000000000 ) ) ;
#109 = PRODUCT_CONTEXT ( 'NONE', #304, 'mechanical' ) ;
#110 =( GEOMETRIC_REPRESENTATION_CONTEXT ( 3 ) GLOBAL_UNCERTAINTY_ASSIGNED_CONTEXT ( ( #72 ) ) GLOBAL_UNIT_ASSIGNED_CONTEXT ( ( #122, #167, #216 ) ) REPRESENTATION_CONTEXT ( 'NONE', 'WORKASPACE' ) );
#111 =( GEOMETRIC_REPRESENTATION_CONTEXT ( 3 ) GLOBAL_UNCERTAINTY_ASSIGNED_CONTEXT ( ( #58 ) ) GLOBAL_UNIT_ASSIGNED_CONTEXT ( ( #125, #2, #268 ) ) REPRESENTATION_CONTEXT ( 'NONE', 'WORKASPACE' ) );
#112 = ORIENTED_EDGE ( 'NONE', *, *, #63, .F. ) ;
#113 = PRODUCT_RELATED_PRODUCT_CATEGORY ( 'part', '', ( #187 ) ) ;
#114 = ORIENTED_EDGE ( 'NONE', *, *, #137, .F. ) ;
#115 = EDGE_LOOP ( 'NONE', ( #264, #74, #305, #112 ) ) ;
#116 = ADVANCED_FACE ( 'NONE', ( #204 ), #200, .T. ) ;
#117 = AXIS2_PLACEMENT_3D ( 'NONE', #140, #120, #267 ) ;
#118 = STYLED_ITEM ( 'NONE', ( #105 ), #27 ) ;
#119 = SURFACE_STYLE_USAGE ( .BOTH. , #189 ) ;
#120 = DIRECTION ( 'NONE',  ( -4.898587196589413075E-17, 1.000000000000000000, -0.000000000000000000 ) ) ;
#121 = PLANE ( 'NONE',  #178 ) ;
#122 =( CONVERSION_BASED_UNIT ( 'INCH', #65 ) LENGTH_UNIT ( ) NAMED_UNIT ( #289 ) );
#123 = COLOUR_RGB ( '',1.000000000000000000, 0.000000000000000000, 0.000000000000000000 ) ;
#124 = DIRECTION ( 'NONE',  ( -4.898587196589413075E-17, 1.000000000000000000, -0.000000000000000000 ) ) ;
#125 =( CONVERSION_BASED_UNIT ( 'INCH', #94 ) LENGTH_UNIT ( ) NAMED_UNIT ( #181 ) );
#126 =( LENGTH_UNIT ( ) NAMED_UNIT ( * ) SI_UNIT ( $, .METRE. ) );
#127 = CARTESIAN_POINT ( 'NONE',  ( -1.224646799147353207E-16, 5.000000000000000000, 0.000000000000000000 ) ) ;
#128 = DIRECTION ( 'NONE',  ( -4.898587196589412459E-17, 1.000000000000000000, -0.000000000000000000 ) ) ;
#129 = DIRECTION ( 'NONE',  ( -4.898587196589413075E-17, 1.000000000000000000, -0.000000000000000000 ) ) ;
#130 = DIRECTION ( 'NONE',  ( -1.000000000000000000, 0.000000000000000000, 0.000000000000000000 ) ) ;
#131 = DIMENSIONAL_EXPONENTS ( 1.000000000000000000, 0.000000000000000000, 0.000000000000000000, 0.000000000000000000, 0.000000000000000000, 0.000000000000000000, 0.000000000000000000 ) ;
#132 = CARTESIAN_POINT ( 'NONE',  ( 1.516480271171051896E-32, 2.500000000000000000, 0.000000000000000000 ) ) ;
#133 = STYLED_ITEM ( 'NONE', ( #153 ), #116 ) ;
#134 = EDGE_LOOP ( 'NONE', ( #31, #309 ) ) ;
#135 =( LENGTH_UNIT ( ) NAMED_UNIT ( * ) SI_UNIT ( $, .METRE. ) );
#136 =( GEOMETRIC_REPRESENTATION_CONTEXT ( 3 ) GLOBAL_UNCERTAINTY_ASSIGNED_CONTEXT ( ( #252 ) ) GLOBAL_UNIT_ASSIGNED_CONTEXT ( ( #47, #9, #282 ) ) REPRESENTATION_CONTEXT ( 'NONE', 'WORKASPACE' ) );
#137 = EDGE_CURVE ( 'NONE', #236, #82, #169, .T. ) ;
#138 = DIRECTION ( 'NONE',  ( -4.898587196589413075E-17, 1.000000000000000000, -0.000000000000000000 ) ) ;
#139 = EDGE_CURVE ( 'NONE', #33, #21, #214, .T. ) ;
#140 = CARTESIAN_POINT ( 'NONE',  ( 1.516480271171051896E-32, 2.500000000000000000, 0.000000000000000000 ) ) ;
#141 = SURFACE_STYLE_FILL_AREA ( #190 ) ;
#142 = AXIS2_PLACEMENT_3D ( 'NONE', #243, #86, #15 ) ;
#143 = DIRECTION ( 'NONE',  ( 0.000000000000000000, 0.000000000000000000, -1.000000000000000000 ) ) ;
#144 =( LENGTH_UNIT ( ) NAMED_UNIT ( * ) SI_UNIT ( $, .METRE. ) );
#145 = PRESENTATION_STYLE_ASSIGNMENT (( #119 ) ) ;
#146 = EDGE_CURVE ( 'NONE', #82, #36, #230, .T. ) ;
#147 = UNCERTAINTY_MEASURE_WITH_UNIT (LENGTH_MEASURE( 1.000000000000000082E-05 ), #11, 'distance_accuracy_value', 'NONE');
#148 = DIRECTION ( 'NONE',  ( 1.000000000000000000, 0.000000000000000000, 0.000000000000000000 ) ) ;
#149 = SURFACE_SIDE_STYLE ('',( #50 ) ) ;
#150 = UNCERTAINTY_MEASURE_WITH_UNIT (LENGTH_MEASURE( 1.000000000000000082E-05 ), #217, 'distance_accuracy_value', 'NONE');
#151 =( LENGTH_UNIT ( ) NAMED_UNIT ( * ) SI_UNIT ( $, .METRE. ) );
#152 = PRESENTATION_STYLE_ASSIGNMENT (( #49 ) ) ;
#153 = PRESENTATION_STYLE_ASSIGNMENT (( #26 ) ) ;
#154 = COLOUR_RGB ( '',1.000000000000000000, 0.000000000000000000, 0.000000000000000000 ) ;
#155 = VERTEX_POINT ( 'NONE', #277 ) ;
#156 = PRESENTATION_LAYER_ASSIGNMENT (  '', '', ( #257 ) ) ;
#157 = CLOSED_SHELL ( 'NONE', ( #201, #164, #116, #27 ) ) ;
#158 = EDGE_LOOP ( 'NONE', ( #76, #308, #287, #114 ) ) ;
#159 =( NAMED_UNIT ( * ) SI_UNIT ( $, .STERADIAN. ) SOLID_ANGLE_UNIT ( ) );
#160 = PLANE ( 'NONE',  #215 ) ;
#161 = ADVANCED_BREP_SHAPE_REPRESENTATION ( '59271', ( #41, #52, #55 ), #206 ) ;
#162 = DIRECTION ( 'NONE',  ( -0.000000000000000000, -1.000000000000000000, -0.000000000000000000 ) ) ;
#163 = DIRECTION ( 'NONE',  ( 4.898587196589412459E-17, -1.000000000000000000, 0.000000000000000000 ) ) ;
#164 = ADVANCED_FACE ( 'NONE', ( #303 ), #256, .T. ) ;
#165 =( NAMED_UNIT ( * ) SI_UNIT ( $, .STERADIAN. ) SOLID_ANGLE_UNIT ( ) );
#166 = CIRCLE ( 'NONE', #174, 0.3125000000000001665 ) ;
#167 =( NAMED_UNIT ( * ) PLANE_ANGLE_UNIT ( ) SI_UNIT ( $, .RADIAN. ) );
#168 = PRESENTATION_STYLE_ASSIGNMENT (( #296 ) ) ;
#169 = LINE ( 'NONE', #70, #270 ) ;
#170 =( NAMED_UNIT ( * ) SI_UNIT ( $, .STERADIAN. ) SOLID_ANGLE_UNIT ( ) );
#171 = DIRECTION ( 'NONE',  ( -1.000000000000000000, 0.000000000000000000, 0.000000000000000000 ) ) ;
#172 = PRESENTATION_LAYER_ASSIGNMENT (  '', '', ( #133 ) ) ;
#173 = CARTESIAN_POINT ( 'NONE',  ( 0.000000000000000000, 0.000000000000000000, -0.3125000000000000000 ) ) ;
#174 = AXIS2_PLACEMENT_3D ( 'NONE', #286, #129, #130 ) ;
#175 = FILL_AREA_STYLE ('',( #28 ) ) ;
#176 = LINE ( 'NONE', #173, #242 ) ;
#177 = VERTEX_POINT ( 'NONE', #186 ) ;
#178 = AXIS2_PLACEMENT_3D ( 'NONE', #285, #18, #259 ) ;
#179 = EDGE_LOOP ( 'NONE', ( #241, #260 ) ) ;
#180 = VERTEX_POINT ( 'NONE', #211 ) ;
#181 = DIMENSIONAL_EXPONENTS ( 1.000000000000000000, 0.000000000000000000, 0.000000000000000000, 0.000000000000000000, 0.000000000000000000, 0.000000000000000000, 0.000000000000000000 ) ;
#182 = AXIS2_PLACEMENT_3D ( 'NONE', #198, #275, #44 ) ;
#183 = MECHANICAL_DESIGN_GEOMETRIC_PRESENTATION_REPRESENTATION (  '', ( #257 ), #111 ) ;
#184 = ADVANCED_FACE ( 'NONE', ( #284 ), #160, .F. ) ;
#185 = EDGE_LOOP ( 'NONE', ( #290, #239 ) ) ;
#186 = CARTESIAN_POINT ( 'NONE',  ( 3.827021247335478926E-17, 2.500000000000000000, 0.3125000000000000000 ) ) ;
#187 = PRODUCT ( '59271', '59271', '', ( #109 ) ) ;
#188 = CYLINDRICAL_SURFACE ( 'NONE', #68, 0.3125000000000000555 ) ;
#189 = SURFACE_SIDE_STYLE ('',( #40 ) ) ;
#190 = FILL_AREA_STYLE ('',( #98 ) ) ;
#191 =( NAMED_UNIT ( * ) PLANE_ANGLE_UNIT ( ) SI_UNIT ( $, .RADIAN. ) );
#192 = LENGTH_MEASURE_WITH_UNIT ( LENGTH_MEASURE( 0.02539999999999999897 ), #126 );
#193 = FILL_AREA_STYLE_COLOUR ( '', #202 ) ;
#194 = LINE ( 'NONE', #250, #258 ) ;
#195 = CIRCLE ( 'NONE', #66, 0.3125000000000000000 ) ;
#196 = PRESENTATION_STYLE_ASSIGNMENT (( #249 ) ) ;
#197 = ORIENTED_EDGE ( 'NONE', *, *, #139, .F. ) ;
#198 = CARTESIAN_POINT ( 'NONE',  ( 0.000000000000000000, 0.000000000000000000, 0.000000000000000000 ) ) ;
#199 = DIRECTION ( 'NONE',  ( 0.000000000000000000, 0.000000000000000000, -1.000000000000000000 ) ) ;
#200 = CYLINDRICAL_SURFACE ( 'NONE', #229, 0.3125000000000000000 ) ;
#201 = ADVANCED_FACE ( 'NONE', ( #288 ), #237, .T. ) ;
#202 = COLOUR_RGB ( '',0.7921568627450980005, 0.8196078431372548767, 0.9333333333333333481 ) ;
#203 = MECHANICAL_DESIGN_GEOMETRIC_PRESENTATION_REPRESENTATION (  '', ( #133 ), #300 ) ;
#204 = FACE_OUTER_BOUND ( 'NONE', #254, .T. ) ;
#205 = APPLICATION_PROTOCOL_DEFINITION ( 'draft international standard', 'automotive_design', 1998, #238 ) ;
#206 =( GEOMETRIC_REPRESENTATION_CONTEXT ( 3 ) GLOBAL_UNCERTAINTY_ASSIGNED_CONTEXT ( ( #150 ) ) GLOBAL_UNIT_ASSIGNED_CONTEXT ( ( #217, #191, #165 ) ) REPRESENTATION_CONTEXT ( 'NONE', 'WORKASPACE' ) );
#207 = ORIENTED_EDGE ( 'NONE', *, *, #81, .F. ) ;
#208 = DIRECTION ( 'NONE',  ( -4.898587196589412459E-17, 1.000000000000000000, 0.000000000000000000 ) ) ;
#209 = EDGE_CURVE ( 'NONE', #180, #236, #97, .T. ) ;
#210 = STYLED_ITEM ( 'NONE', ( #196 ), #52 ) ;
#211 = CARTESIAN_POINT ( 'NONE',  ( 0.3125000000000000000, 2.500000000000000000, 3.827021247335479543E-17 ) ) ;
#212 =( LENGTH_UNIT ( ) NAMED_UNIT ( * ) SI_UNIT ( $, .METRE. ) );
#213 = PLANE ( 'NONE',  #248 ) ;
#214 = CIRCLE ( 'NONE', #182, 0.3125000000000000000 ) ;
#215 = AXIS2_PLACEMENT_3D ( 'NONE', #84, #208, #61 ) ;
#216 =( NAMED_UNIT ( * ) SI_UNIT ( $, .STERADIAN. ) SOLID_ANGLE_UNIT ( ) );
#217 =( CONVERSION_BASED_UNIT ( 'INCH', #104 ) LENGTH_UNIT ( ) NAMED_UNIT ( #131 ) );
#218 = SURFACE_SIDE_STYLE ('',( #101 ) ) ;
#219 = FACE_OUTER_BOUND ( 'NONE', #83, .T. ) ;
#220 = ADVANCED_FACE ( 'NONE', ( #273 ), #213, .F. ) ;
#221 = FILL_AREA_STYLE_COLOUR ( '', #30 ) ;
#222 = SURFACE_SIDE_STYLE ('',( #141 ) ) ;
#223 = SURFACE_SIDE_STYLE ('',( #255 ) ) ;
#224 = DIRECTION ( 'NONE',  ( -1.000000000000000000, 0.000000000000000000, 0.000000000000000000 ) ) ;
#225 = EDGE_CURVE ( 'NONE', #177, #155, #297, .T. ) ;
#226 = DIRECTION ( 'NONE',  ( -4.898587196589413075E-17, 1.000000000000000000, -0.000000000000000000 ) ) ;
#227 = UNCERTAINTY_MEASURE_WITH_UNIT (LENGTH_MEASURE( 1.000000000000000082E-05 ), #271, 'distance_accuracy_value', 'NONE');
#228 = LENGTH_MEASURE_WITH_UNIT ( LENGTH_MEASURE( 0.02539999999999999897 ), #151 );
#229 = AXIS2_PLACEMENT_3D ( 'NONE', #95, #107, #199 ) ;
#230 = CIRCLE ( 'NONE', #54, 0.3125000000000001665 ) ;
#231 = ORIENTED_EDGE ( 'NONE', *, *, #137, .T. ) ;
#232 = DIMENSIONAL_EXPONENTS ( 1.000000000000000000, 0.000000000000000000, 0.000000000000000000, 0.000000000000000000, 0.000000000000000000, 0.000000000000000000, 0.000000000000000000 ) ;
#233 = ORIENTED_EDGE ( 'NONE', *, *, #81, .T. ) ;
#234 = CLOSED_SHELL ( 'NONE', ( #6, #184, #240, #220 ) ) ;
#235 =( GEOMETRIC_REPRESENTATION_CONTEXT ( 3 ) GLOBAL_UNCERTAINTY_ASSIGNED_CONTEXT ( ( #147 ) ) GLOBAL_UNIT_ASSIGNED_CONTEXT ( ( #11, #77, #159 ) ) REPRESENTATION_CONTEXT ( 'NONE', 'WORKASPACE' ) );
#236 = VERTEX_POINT ( 'NONE', #42 ) ;
#237 = CYLINDRICAL_SURFACE ( 'NONE', #91, 0.3125000000000000000 ) ;
#238 = APPLICATION_CONTEXT ( 'automotive_design' ) ;
#239 = ORIENTED_EDGE ( 'NONE', *, *, #139, .T. ) ;
#240 = ADVANCED_FACE ( 'NONE', ( #219 ), #244, .T. ) ;
#241 = ORIENTED_EDGE ( 'NONE', *, *, #102, .F. ) ;
#242 = VECTOR ( 'NONE', #306, 39.37007874015748143 ) ;
#243 = CARTESIAN_POINT ( 'NONE',  ( 0.000000000000000000, 2.500000000000000000, 0.000000000000000000 ) ) ;
#244 = CYLINDRICAL_SURFACE ( 'NONE', #5, 0.3125000000000000555 ) ;
#245 = AXIS2_PLACEMENT_3D ( 'NONE', #291, #294, #39 ) ;
#246 = CARTESIAN_POINT ( 'NONE',  ( 0.000000000000000000, 2.500000000000000000, 0.000000000000000000 ) ) ;
#247 = MECHANICAL_DESIGN_GEOMETRIC_PRESENTATION_REPRESENTATION (  '', ( #34 ), #110 ) ;
#248 = AXIS2_PLACEMENT_3D ( 'NONE', #69, #163, #92 ) ;
#249 = SURFACE_STYLE_USAGE ( .BOTH. , #222 ) ;
#250 = CARTESIAN_POINT ( 'NONE',  ( 3.827021247335478926E-17, 0.000000000000000000, 0.3125000000000000000 ) ) ;
#251 = EDGE_CURVE ( 'NONE', #155, #177, #279, .T. ) ;
#252 = UNCERTAINTY_MEASURE_WITH_UNIT (LENGTH_MEASURE( 1.000000000000000082E-05 ), #47, 'distance_accuracy_value', 'NONE');
#253 =( LENGTH_UNIT ( ) NAMED_UNIT ( * ) SI_UNIT ( $, .METRE. ) );
#254 = EDGE_LOOP ( 'NONE', ( #85, #14, #90, #197 ) ) ;
#255 = SURFACE_STYLE_FILL_AREA ( #43 ) ;
#256 = PLANE ( 'NONE',  #142 ) ;
#257 = STYLED_ITEM ( 'NONE', ( #145 ), #201 ) ;
#258 = VECTOR ( 'NONE', #19, 39.37007874015748143 ) ;
#259 = DIRECTION ( 'NONE',  ( 0.000000000000000000, 0.000000000000000000, -1.000000000000000000 ) ) ;
#260 = ORIENTED_EDGE ( 'NONE', *, *, #209, .F. ) ;
#261 = CIRCLE ( 'NONE', #48, 0.3125000000000000000 ) ;
#262 =( GEOMETRIC_REPRESENTATION_CONTEXT ( 3 ) GLOBAL_UNCERTAINTY_ASSIGNED_CONTEXT ( ( #227 ) ) GLOBAL_UNIT_ASSIGNED_CONTEXT ( ( #271, #24, #170 ) ) REPRESENTATION_CONTEXT ( 'NONE', 'WORKASPACE' ) );
#263 = FILL_AREA_STYLE ('',( #266 ) ) ;
#264 = ORIENTED_EDGE ( 'NONE', *, *, #251, .T. ) ;
#265 =( NAMED_UNIT ( * ) SI_UNIT ( $, .STERADIAN. ) SOLID_ANGLE_UNIT ( ) );
#266 = FILL_AREA_STYLE_COLOUR ( '', #73 ) ;
#267 = DIRECTION ( 'NONE',  ( -1.000000000000000000, 0.000000000000000000, 0.000000000000000000 ) ) ;
#268 =( NAMED_UNIT ( * ) SI_UNIT ( $, .STERADIAN. ) SOLID_ANGLE_UNIT ( ) );
#269 = APPLICATION_PROTOCOL_DEFINITION ( 'draft international standard', 'automotive_design', 1998, #304 ) ;
#270 = VECTOR ( 'NONE', #301, 39.37007874015748143 ) ;
#271 =( CONVERSION_BASED_UNIT ( 'INCH', #192 ) LENGTH_UNIT ( ) NAMED_UNIT ( #13 ) );
#272 = CARTESIAN_POINT ( 'NONE',  ( 3.827021247335478926E-17, 0.000000000000000000, 0.3125000000000000000 ) ) ;
#273 = FACE_OUTER_BOUND ( 'NONE', #59, .T. ) ;
#274 = UNCERTAINTY_MEASURE_WITH_UNIT (LENGTH_MEASURE( 1.000000000000000082E-05 ), #38, 'distance_accuracy_value', 'NONE');
#275 = DIRECTION ( 'NONE',  ( -0.000000000000000000, -1.000000000000000000, -0.000000000000000000 ) ) ;
#276 = MECHANICAL_DESIGN_GEOMETRIC_PRESENTATION_REPRESENTATION (  '', ( #210 ), #262 ) ;
#277 = CARTESIAN_POINT ( 'NONE',  ( 0.000000000000000000, 2.500000000000000000, -0.3125000000000000000 ) ) ;
#278 = MECHANICAL_DESIGN_GEOMETRIC_PRESENTATION_REPRESENTATION (  '', ( #118 ), #136 ) ;
#279 = CIRCLE ( 'NONE', #20, 0.3125000000000000000 ) ;
#280 = SURFACE_STYLE_FILL_AREA ( #175 ) ;
#281 = DIRECTION ( 'NONE',  ( 0.000000000000000000, 0.000000000000000000, 1.000000000000000000 ) ) ;
#282 =( NAMED_UNIT ( * ) SI_UNIT ( $, .STERADIAN. ) SOLID_ANGLE_UNIT ( ) );
#283 = PRODUCT_DEFINITION_CONTEXT ( 'detailed design', #238, 'design' ) ;
#284 = FACE_OUTER_BOUND ( 'NONE', #179, .T. ) ;
#285 = CARTESIAN_POINT ( 'NONE',  ( 0.000000000000000000, 0.000000000000000000, 0.000000000000000000 ) ) ;
#286 = CARTESIAN_POINT ( 'NONE',  ( -1.224646799147353207E-16, 5.000000000000000000, 0.000000000000000000 ) ) ;
#287 = ORIENTED_EDGE ( 'NONE', *, *, #146, .F. ) ;
#288 = FACE_OUTER_BOUND ( 'NONE', #115, .T. ) ;
#289 = DIMENSIONAL_EXPONENTS ( 1.000000000000000000, 0.000000000000000000, 0.000000000000000000, 0.000000000000000000, 0.000000000000000000, 0.000000000000000000, 0.000000000000000000 ) ;
#290 = ORIENTED_EDGE ( 'NONE', *, *, #56, .T. ) ;
#291 = CARTESIAN_POINT ( 'NONE',  ( 0.000000000000000000, 2.500000000000000000, 0.000000000000000000 ) ) ;
#292 =( LENGTH_UNIT ( ) NAMED_UNIT ( * ) SI_UNIT ( $, .METRE. ) );
#293 = CARTESIAN_POINT ( 'NONE',  ( 0.3124999999999999445, 5.000000000000000000, 3.827021247335479543E-17 ) ) ;
#294 = DIRECTION ( 'NONE',  ( -0.000000000000000000, -1.000000000000000000, -0.000000000000000000 ) ) ;
#295 = DIRECTION ( 'NONE',  ( 0.000000000000000000, 0.000000000000000000, -1.000000000000000000 ) ) ;
#296 = SURFACE_STYLE_USAGE ( .BOTH. , #218 ) ;
#297 = CIRCLE ( 'NONE', #245, 0.3125000000000000000 ) ;
#298 = LENGTH_MEASURE_WITH_UNIT ( LENGTH_MEASURE( 0.02539999999999999897 ), #253 );
#299 = FILL_AREA_STYLE_COLOUR ( '', #123 ) ;
#300 =( GEOMETRIC_REPRESENTATION_CONTEXT ( 3 ) GLOBAL_UNCERTAINTY_ASSIGNED_CONTEXT ( ( #274 ) ) GLOBAL_UNIT_ASSIGNED_CONTEXT ( ( #38, #32, #265 ) ) REPRESENTATION_CONTEXT ( 'NONE', 'WORKASPACE' ) );
#301 = DIRECTION ( 'NONE',  ( -4.898587196589412459E-17, 1.000000000000000000, -0.000000000000000000 ) ) ;
#302 = PRESENTATION_LAYER_ASSIGNMENT (  '', '', ( #1 ) ) ;
#303 = FACE_OUTER_BOUND ( 'NONE', #134, .T. ) ;
#304 = APPLICATION_CONTEXT ( 'automotive_design' ) ;
#305 = ORIENTED_EDGE ( 'NONE', *, *, #56, .F. ) ;
#306 = DIRECTION ( 'NONE',  ( -0.000000000000000000, -1.000000000000000000, -0.000000000000000000 ) ) ;
#307 = ORIENTED_EDGE ( 'NONE', *, *, #146, .T. ) ;
#308 = ORIENTED_EDGE ( 'NONE', *, *, #51, .T. ) ;
#309 = ORIENTED_EDGE ( 'NONE', *, *, #225, .F. ) ;
ENDSEC;
END-ISO-10303-21;
