ISO-10303-21;
HEADER;
FILE_DESCRIPTION (( 'STEP AP214' ),
    '1' );
FILE_NAME ('81317.STEP',
    '2023-06-30T22:22:19',
    ( '' ),
    ( '' ),
    'SwSTEP 2.0',
    'SolidWorks 2023',
    '' );
FILE_SCHEMA (( 'AUTOMOTIVE_DESIGN' ));
ENDSEC;

DATA;
#1 = PRODUCT_DEFINITION ( 'UNKNOWN', '', #69, #200 ) ;
#2 = FILL_AREA_STYLE_COLOUR ( '', #89 ) ;
#3 = PRESENTATION_STYLE_ASSIGNMENT (( #46 ) ) ;
#4 = CIRCLE ( 'NONE', #51, 0.06249999999999995143 ) ;
#5 = VERTEX_POINT ( 'NONE', #180 ) ;
#6 = AXIS2_PLACEMENT_3D ( 'NONE', #110, #333, #248 ) ;
#7 = DIRECTION ( 'NONE',  ( -0.000000000000000000, -1.000000000000000000, -0.000000000000000000 ) ) ;
#8 = ORIENTED_EDGE ( 'NONE', *, *, #360, .F. ) ;
#9 = CIRCLE ( 'NONE', #147, 0.06249999999999997918 ) ;
#10 = AXIS2_PLACEMENT_3D ( 'NONE', #278, #361, #306 ) ;
#11 = SURFACE_STYLE_USAGE ( .BOTH. , #359 ) ;
#12 = CARTESIAN_POINT ( 'NONE',  ( 0.06249999999999988204, 2.500000000000000000, 0.000000000000000000 ) ) ;
#13 = CARTESIAN_POINT ( 'NONE',  ( -7.654042494670957545E-18, 0.06250000000000001388, 0.000000000000000000 ) ) ;
#14 = EDGE_CURVE ( 'NONE', #5, #63, #21, .T. ) ;
#15 =( NAMED_UNIT ( * ) SI_UNIT ( $, .STERADIAN. ) SOLID_ANGLE_UNIT ( ) );
#16 = UNCERTAINTY_MEASURE_WITH_UNIT (LENGTH_MEASURE( 1.000000000000000082E-05 ), #370, 'distance_accuracy_value', 'NONE');
#17 = DIRECTION ( 'NONE',  ( -1.000000000000000000, 0.000000000000000000, 0.000000000000000000 ) ) ;
#18 = CIRCLE ( 'NONE', #225, 0.06249999999999963224 ) ;
#19 = CIRCLE ( 'NONE', #10, 0.06249999999999988204 ) ;
#20 =( NAMED_UNIT ( * ) SI_UNIT ( $, .STERADIAN. ) SOLID_ANGLE_UNIT ( ) );
#21 = CIRCLE ( 'NONE', #88, 0.06249999999999995143 ) ;
#22 = DIRECTION ( 'NONE',  ( -1.483672453417965792E-16, 1.000000000000000000, -0.000000000000000000 ) ) ;
#23 = LENGTH_MEASURE_WITH_UNIT ( LENGTH_MEASURE( 0.02539999999999999897 ), #329 );
#24 = UNCERTAINTY_MEASURE_WITH_UNIT (LENGTH_MEASURE( 1.000000000000000082E-05 ), #363, 'distance_accuracy_value', 'NONE');
#25 = SURFACE_SIDE_STYLE ('',( #221 ) ) ;
#26 = SURFACE_SIDE_STYLE ('',( #113 ) ) ;
#27 = ADVANCED_FACE ( 'NONE', ( #328 ), #220, .T. ) ;
#28 = FILL_AREA_STYLE ('',( #282 ) ) ;
#29 = DIRECTION ( 'NONE',  ( 0.000000000000000000, 0.000000000000000000, -1.000000000000000000 ) ) ;
#30 = SURFACE_SIDE_STYLE ('',( #117 ) ) ;
#31 = EDGE_CURVE ( 'NONE', #156, #233, #9, .T. ) ;
#32 = SURFACE_STYLE_FILL_AREA ( #227 ) ;
#33 = MECHANICAL_DESIGN_GEOMETRIC_PRESENTATION_REPRESENTATION (  '', ( #323 ), #108 ) ;
#34 = FILL_AREA_STYLE ('',( #2 ) ) ;
#35 =( LENGTH_UNIT ( ) NAMED_UNIT ( * ) SI_UNIT ( $, .METRE. ) );
#36 = ORIENTED_EDGE ( 'NONE', *, *, #52, .T. ) ;
#37 = DIMENSIONAL_EXPONENTS ( 1.000000000000000000, 0.000000000000000000, 0.000000000000000000, 0.000000000000000000, 0.000000000000000000, 0.000000000000000000, 0.000000000000000000 ) ;
#38 = EDGE_LOOP ( 'NONE', ( #92, #159, #326, #215 ) ) ;
#39 =( GEOMETRIC_REPRESENTATION_CONTEXT ( 3 ) GLOBAL_UNCERTAINTY_ASSIGNED_CONTEXT ( ( #81 ) ) GLOBAL_UNIT_ASSIGNED_CONTEXT ( ( #281, #336, #90 ) ) REPRESENTATION_CONTEXT ( 'NONE', 'WORKASPACE' ) );
#40 = ADVANCED_BREP_SHAPE_REPRESENTATION ( '81317', ( #112, #365, #191 ), #366 ) ;
#41 = ORIENTED_EDGE ( 'NONE', *, *, #272, .T. ) ;
#42 = PRESENTATION_LAYER_ASSIGNMENT (  '', '', ( #265 ) ) ;
#43 = ORIENTED_EDGE ( 'NONE', *, *, #145, .T. ) ;
#44 = CARTESIAN_POINT ( 'NONE',  ( -0.06249999999999886896, 0.7499999999999998890, 0.000000000000000000 ) ) ;
#45 = ORIENTED_EDGE ( 'NONE', *, *, #294, .F. ) ;
#46 = SURFACE_STYLE_USAGE ( .BOTH. , #102 ) ;
#47 = CARTESIAN_POINT ( 'NONE',  ( 7.654042494670951382E-18, 0.06250000000000001388, 0.06249999999999993755 ) ) ;
#48 =( LENGTH_UNIT ( ) NAMED_UNIT ( * ) SI_UNIT ( $, .METRE. ) );
#49 = FACE_OUTER_BOUND ( 'NONE', #65, .T. ) ;
#50 =( NAMED_UNIT ( * ) PLANE_ANGLE_UNIT ( ) SI_UNIT ( $, .RADIAN. ) );
#51 = AXIS2_PLACEMENT_3D ( 'NONE', #201, #299, #131 ) ;
#52 = EDGE_CURVE ( 'NONE', #95, #321, #245, .T. ) ;
#53 = CARTESIAN_POINT ( 'NONE',  ( -0.06249999999999938244, 2.500000000000000000, 0.000000000000000000 ) ) ;
#54 = CARTESIAN_POINT ( 'NONE',  ( -7.654042494670957545E-18, 0.06250000000000001388, 0.000000000000000000 ) ) ;
#55 = DIRECTION ( 'NONE',  ( -1.000000000000000000, 0.000000000000000000, 0.000000000000000000 ) ) ;
#56 =( GEOMETRIC_REPRESENTATION_CONTEXT ( 3 ) GLOBAL_UNCERTAINTY_ASSIGNED_CONTEXT ( ( #251 ) ) GLOBAL_UNIT_ASSIGNED_CONTEXT ( ( #198, #115, #192 ) ) REPRESENTATION_CONTEXT ( 'NONE', 'WORKASPACE' ) );
#57 = VECTOR ( 'NONE', #224, 39.37007874015748143 ) ;
#58 = EDGE_CURVE ( 'NONE', #321, #95, #18, .T. ) ;
#59 = FACE_OUTER_BOUND ( 'NONE', #126, .T. ) ;
#60 = CARTESIAN_POINT ( 'NONE',  ( 2.449293598294706907E-16, 2.500000000000000000, 0.000000000000000000 ) ) ;
#61 = PRESENTATION_LAYER_ASSIGNMENT (  '', '', ( #323 ) ) ;
#62 = CARTESIAN_POINT ( 'NONE',  ( 7.654042494670946760E-18, 0.000000000000000000, 0.06249999999999991673 ) ) ;
#63 = VERTEX_POINT ( 'NONE', #140 ) ;
#64 = DIMENSIONAL_EXPONENTS ( 1.000000000000000000, 0.000000000000000000, 0.000000000000000000, 0.000000000000000000, 0.000000000000000000, 0.000000000000000000, 0.000000000000000000 ) ;
#65 = EDGE_LOOP ( 'NONE', ( #262, #210, #351, #151, #45 ) ) ;
#66 =( NAMED_UNIT ( * ) PLANE_ANGLE_UNIT ( ) SI_UNIT ( $, .RADIAN. ) );
#67 = ORIENTED_EDGE ( 'NONE', *, *, #58, .T. ) ;
#68 = VECTOR ( 'NONE', #100, 39.37007874015748143 ) ;
#69 = PRODUCT_DEFINITION_FORMATION_WITH_SPECIFIED_SOURCE ( 'ANY', '', #253, .NOT_KNOWN. ) ;
#70 = ORIENTED_EDGE ( 'NONE', *, *, #52, .F. ) ;
#71 = PRESENTATION_LAYER_ASSIGNMENT (  '', '', ( #297 ) ) ;
#72 = CARTESIAN_POINT ( 'NONE',  ( -3.827021247335479543E-18, 3.414809992080329023E-17, 0.000000000000000000 ) ) ;
#73 = ORIENTED_EDGE ( 'NONE', *, *, #272, .F. ) ;
#74 = LINE ( 'NONE', #62, #218 ) ;
#75 = SURFACE_STYLE_FILL_AREA ( #78 ) ;
#76 = DIRECTION ( 'NONE',  ( 0.000000000000000000, 0.000000000000000000, -1.000000000000000000 ) ) ;
#77 = COLOUR_RGB ( '',1.000000000000000000, 0.000000000000000000, 0.000000000000000000 ) ;
#78 = FILL_AREA_STYLE ('',( #107 ) ) ;
#79 = CARTESIAN_POINT ( 'NONE',  ( 0.000000000000000000, 0.06250000000000001388, 0.000000000000000000 ) ) ;
#80 = DIRECTION ( 'NONE',  ( -1.483672453417965792E-16, 1.000000000000000000, 0.000000000000000000 ) ) ;
#81 = UNCERTAINTY_MEASURE_WITH_UNIT (LENGTH_MEASURE( 1.000000000000000082E-05 ), #281, 'distance_accuracy_value', 'NONE');
#82 = PRESENTATION_STYLE_ASSIGNMENT (( #142 ) ) ;
#83 = STYLED_ITEM ( 'NONE', ( #3 ), #209 ) ;
#84 = DIRECTION ( 'NONE',  ( 0.000000000000000000, -0.000000000000000000, 1.000000000000000000 ) ) ;
#85 = CARTESIAN_POINT ( 'NONE',  ( 0.000000000000000000, 0.7499999999999998890, -0.06249999999999988204 ) ) ;
#86 = EDGE_CURVE ( 'NONE', #5, #233, #335, .T. ) ;
#87 = SPHERICAL_SURFACE ( 'NONE', #313, 0.06249999999999997918 ) ;
#88 = AXIS2_PLACEMENT_3D ( 'NONE', #301, #250, #241 ) ;
#89 = COLOUR_RGB ( '',0.7921568627450980005, 0.8196078431372548767, 0.9333333333333333481 ) ;
#90 =( NAMED_UNIT ( * ) SI_UNIT ( $, .STERADIAN. ) SOLID_ANGLE_UNIT ( ) );
#91 = DIMENSIONAL_EXPONENTS ( 1.000000000000000000, 0.000000000000000000, 0.000000000000000000, 0.000000000000000000, 0.000000000000000000, 0.000000000000000000, 0.000000000000000000 ) ;
#92 = ORIENTED_EDGE ( 'NONE', *, *, #368, .T. ) ;
#93 = ORIENTED_EDGE ( 'NONE', *, *, #58, .F. ) ;
#94 = ADVANCED_FACE ( 'NONE', ( #111 ), #87, .T. ) ;
#95 = VERTEX_POINT ( 'NONE', #190 ) ;
#96 = DIRECTION ( 'NONE',  ( -0.000000000000000000, -1.000000000000000000, -0.000000000000000000 ) ) ;
#97 = AXIS2_PLACEMENT_3D ( 'NONE', #128, #179, #123 ) ;
#98 = MECHANICAL_DESIGN_GEOMETRIC_PRESENTATION_REPRESENTATION (  '', ( #213 ), #219 ) ;
#99 = EDGE_LOOP ( 'NONE', ( #67, #36 ) ) ;
#100 = DIRECTION ( 'NONE',  ( -1.483672453417965792E-16, 1.000000000000000000, -0.000000000000000000 ) ) ;
#101 = ORIENTED_EDGE ( 'NONE', *, *, #86, .F. ) ;
#102 = SURFACE_SIDE_STYLE ('',( #217 ) ) ;
#103 = LENGTH_MEASURE_WITH_UNIT ( LENGTH_MEASURE( 0.02539999999999999897 ), #48 );
#104 = ADVANCED_FACE ( 'NONE', ( #59 ), #118, .T. ) ;
#105 = DIRECTION ( 'NONE',  ( 0.000000000000000000, 0.000000000000000000, -1.000000000000000000 ) ) ;
#106 = COLOUR_RGB ( '',1.000000000000000000, 0.000000000000000000, 0.000000000000000000 ) ;
#107 = FILL_AREA_STYLE_COLOUR ( '', #290 ) ;
#108 =( GEOMETRIC_REPRESENTATION_CONTEXT ( 3 ) GLOBAL_UNCERTAINTY_ASSIGNED_CONTEXT ( ( #114 ) ) GLOBAL_UNIT_ASSIGNED_CONTEXT ( ( #369, #340, #15 ) ) REPRESENTATION_CONTEXT ( 'NONE', 'WORKASPACE' ) );
#109 = STYLED_ITEM ( 'NONE', ( #243 ), #27 ) ;
#110 = CARTESIAN_POINT ( 'NONE',  ( -7.654042494670957545E-18, 0.06250000000000001388, 0.000000000000000000 ) ) ;
#111 = FACE_OUTER_BOUND ( 'NONE', #130, .T. ) ;
#112 = MANIFOLD_SOLID_BREP ( 'Revolve - Cutting Edge', #315 ) ;
#113 = SURFACE_STYLE_FILL_AREA ( #28 ) ;
#114 = UNCERTAINTY_MEASURE_WITH_UNIT (LENGTH_MEASURE( 1.000000000000000082E-05 ), #369, 'distance_accuracy_value', 'NONE');
#115 =( NAMED_UNIT ( * ) PLANE_ANGLE_UNIT ( ) SI_UNIT ( $, .RADIAN. ) );
#116 = CIRCLE ( 'NONE', #119, 0.06249999999999995143 ) ;
#117 = SURFACE_STYLE_FILL_AREA ( #34 ) ;
#118 = CYLINDRICAL_SURFACE ( 'NONE', #153, 0.06249999999999950734 ) ;
#119 = AXIS2_PLACEMENT_3D ( 'NONE', #79, #231, #29 ) ;
#120 = STYLED_ITEM ( 'NONE', ( #121 ), #132 ) ;
#121 = PRESENTATION_STYLE_ASSIGNMENT (( #258 ) ) ;
#122 = APPLICATION_PROTOCOL_DEFINITION ( 'draft international standard', 'automotive_design', 1998, #349 ) ;
#123 = DIRECTION ( 'NONE',  ( -1.000000000000000000, 0.000000000000000000, 0.000000000000000000 ) ) ;
#124 =( CONVERSION_BASED_UNIT ( 'INCH', #273 ) LENGTH_UNIT ( ) NAMED_UNIT ( #91 ) );
#125 = ORIENTED_EDGE ( 'NONE', *, *, #14, .F. ) ;
#126 = EDGE_LOOP ( 'NONE', ( #182, #214, #93, #320 ) ) ;
#127 = EDGE_LOOP ( 'NONE', ( #185, #239 ) ) ;
#128 = CARTESIAN_POINT ( 'NONE',  ( 5.045720391776147351E-16, 0.7499999999999998890, 0.000000000000000000 ) ) ;
#129 = AXIS2_PLACEMENT_3D ( 'NONE', #172, #162, #270 ) ;
#130 = EDGE_LOOP ( 'NONE', ( #101, #152, #43, #300 ) ) ;
#131 = DIRECTION ( 'NONE',  ( 0.000000000000000000, 0.000000000000000000, -1.000000000000000000 ) ) ;
#132 = ADVANCED_FACE ( 'NONE', ( #287 ), #204, .T. ) ;
#133 = LINE ( 'NONE', #242, #161 ) ;
#134 = DIRECTION ( 'NONE',  ( -1.000000000000000000, 0.000000000000000000, 0.000000000000000000 ) ) ;
#135 = DIRECTION ( 'NONE',  ( -1.483672453417965792E-16, 1.000000000000000000, -0.000000000000000000 ) ) ;
#136 = DIRECTION ( 'NONE',  ( -1.000000000000000000, 0.000000000000000000, 0.000000000000000000 ) ) ;
#137 = AXIS2_PLACEMENT_3D ( 'NONE', #271, #348, #76 ) ;
#138 = CARTESIAN_POINT ( 'NONE',  ( 2.449293598294706907E-16, 2.500000000000000000, 0.000000000000000000 ) ) ;
#139 = UNCERTAINTY_MEASURE_WITH_UNIT (LENGTH_MEASURE( 1.000000000000000082E-05 ), #347, 'distance_accuracy_value', 'NONE');
#140 = CARTESIAN_POINT ( 'NONE',  ( 0.000000000000000000, 0.06250000000000001388, -0.06249999999999995143 ) ) ;
#141 = CARTESIAN_POINT ( 'NONE',  ( 5.045720391776147351E-16, 0.7499999999999998890, 0.000000000000000000 ) ) ;
#142 = SURFACE_STYLE_USAGE ( .BOTH. , #25 ) ;
#143 = APPLICATION_CONTEXT ( 'automotive_design' ) ;
#144 = SURFACE_STYLE_USAGE ( .BOTH. , #26 ) ;
#145 = EDGE_CURVE ( 'NONE', #63, #156, #4, .T. ) ;
#146 = PRESENTATION_STYLE_ASSIGNMENT (( #311 ) ) ;
#147 = AXIS2_PLACEMENT_3D ( 'NONE', #13, #274, #17 ) ;
#148 = COLOUR_RGB ( '',0.7921568627450980005, 0.8196078431372548767, 0.9333333333333333481 ) ;
#149 = SHAPE_DEFINITION_REPRESENTATION ( #226, #40 ) ;
#150 =( LENGTH_UNIT ( ) NAMED_UNIT ( * ) SI_UNIT ( $, .METRE. ) );
#151 = ORIENTED_EDGE ( 'NONE', *, *, #145, .F. ) ;
#152 = ORIENTED_EDGE ( 'NONE', *, *, #14, .T. ) ;
#153 = AXIS2_PLACEMENT_3D ( 'NONE', #60, #229, #343 ) ;
#154 = AXIS2_PLACEMENT_3D ( 'NONE', #337, #331, #84 ) ;
#155 = DIMENSIONAL_EXPONENTS ( 1.000000000000000000, 0.000000000000000000, 0.000000000000000000, 0.000000000000000000, 0.000000000000000000, 0.000000000000000000, 0.000000000000000000 ) ;
#156 = VERTEX_POINT ( 'NONE', #216 ) ;
#157 = VERTEX_POINT ( 'NONE', #47 ) ;
#158 = PLANE ( 'NONE',  #154 ) ;
#159 = ORIENTED_EDGE ( 'NONE', *, *, #86, .T. ) ;
#160 = FILL_AREA_STYLE ('',( #237 ) ) ;
#161 = VECTOR ( 'NONE', #346, 39.37007874015748143 ) ;
#162 = DIRECTION ( 'NONE',  ( -0.000000000000000000, -1.000000000000000000, -0.000000000000000000 ) ) ;
#163 = CARTESIAN_POINT ( 'NONE',  ( 0.000000000000000000, 0.06250000000000001388, 0.000000000000000000 ) ) ;
#164 = UNCERTAINTY_MEASURE_WITH_UNIT (LENGTH_MEASURE( 1.000000000000000082E-05 ), #277, 'distance_accuracy_value', 'NONE');
#165 =( NAMED_UNIT ( * ) SI_UNIT ( $, .STERADIAN. ) SOLID_ANGLE_UNIT ( ) );
#166 = EDGE_CURVE ( 'NONE', #266, #157, #74, .T. ) ;
#167 = CIRCLE ( 'NONE', #372, 0.06249999999999995143 ) ;
#168 = SURFACE_STYLE_USAGE ( .BOTH. , #305 ) ;
#169 = MECHANICAL_DESIGN_GEOMETRIC_PRESENTATION_REPRESENTATION (  '', ( #83 ), #342 ) ;
#170 = EDGE_CURVE ( 'NONE', #208, #321, #303, .T. ) ;
#171 =( LENGTH_UNIT ( ) NAMED_UNIT ( * ) SI_UNIT ( $, .METRE. ) );
#172 = CARTESIAN_POINT ( 'NONE',  ( 0.000000000000000000, 0.000000000000000000, 0.000000000000000000 ) ) ;
#173 = DIRECTION ( 'NONE',  ( -0.000000000000000000, -1.000000000000000000, -0.000000000000000000 ) ) ;
#174 = FACE_OUTER_BOUND ( 'NONE', #268, .T. ) ;
#175 = LENGTH_MEASURE_WITH_UNIT ( LENGTH_MEASURE( 0.02539999999999999897 ), #338 );
#176 = DIRECTION ( 'NONE',  ( -1.000000000000000000, 0.000000000000000000, 0.000000000000000000 ) ) ;
#177 = DIRECTION ( 'NONE',  ( 0.000000000000000000, 0.000000000000000000, 1.000000000000000000 ) ) ;
#178 = PRESENTATION_LAYER_ASSIGNMENT (  '', '', ( #109 ) ) ;
#179 = DIRECTION ( 'NONE',  ( -1.483672453417965792E-16, 1.000000000000000000, -0.000000000000000000 ) ) ;
#180 = CARTESIAN_POINT ( 'NONE',  ( -0.06249999999999996531, 0.06250000000000001388, 7.654042494670952923E-18 ) ) ;
#181 = ORIENTED_EDGE ( 'NONE', *, *, #166, .F. ) ;
#182 = ORIENTED_EDGE ( 'NONE', *, *, #291, .T. ) ;
#183 = COLOUR_RGB ( '',1.000000000000000000, 0.000000000000000000, 0.000000000000000000 ) ;
#184 = AXIS2_PLACEMENT_3D ( 'NONE', #364, #173, #199 ) ;
#185 = ORIENTED_EDGE ( 'NONE', *, *, #291, .F. ) ;
#186 = FACE_OUTER_BOUND ( 'NONE', #353, .T. ) ;
#187 = VERTEX_POINT ( 'NONE', #304 ) ;
#188 = ADVANCED_FACE ( 'NONE', ( #189 ), #193, .F. ) ;
#189 = FACE_OUTER_BOUND ( 'NONE', #99, .T. ) ;
#190 = CARTESIAN_POINT ( 'NONE',  ( 0.06249999999999988204, 2.500000000000000000, 7.654042494670905160E-18 ) ) ;
#191 = AXIS2_PLACEMENT_3D ( 'NONE', #259, #285, #288 ) ;
#192 =( NAMED_UNIT ( * ) SI_UNIT ( $, .STERADIAN. ) SOLID_ANGLE_UNIT ( ) );
#193 = PLANE ( 'NONE',  #322 ) ;
#194 = EDGE_CURVE ( 'NONE', #156, #157, #167, .T. ) ;
#195 = PRESENTATION_STYLE_ASSIGNMENT (( #144 ) ) ;
#196 =( LENGTH_UNIT ( ) NAMED_UNIT ( * ) SI_UNIT ( $, .METRE. ) );
#197 =( NAMED_UNIT ( * ) PLANE_ANGLE_UNIT ( ) SI_UNIT ( $, .RADIAN. ) );
#198 =( CONVERSION_BASED_UNIT ( 'INCH', #252 ) LENGTH_UNIT ( ) NAMED_UNIT ( #319 ) );
#199 = DIRECTION ( 'NONE',  ( 0.000000000000000000, 0.000000000000000000, -1.000000000000000000 ) ) ;
#200 = PRODUCT_DEFINITION_CONTEXT ( 'detailed design', #143, 'design' ) ;
#201 = CARTESIAN_POINT ( 'NONE',  ( 0.000000000000000000, 0.06250000000000001388, 0.000000000000000000 ) ) ;
#202 = EDGE_CURVE ( 'NONE', #187, #208, #256, .T. ) ;
#203 = DIRECTION ( 'NONE',  ( 1.000000000000000000, 0.000000000000000000, 0.000000000000000000 ) ) ;
#204 = SPHERICAL_SURFACE ( 'NONE', #307, 0.06249999999999997918 ) ;
#205 = DIRECTION ( 'NONE',  ( 0.000000000000000000, 0.000000000000000000, 1.000000000000000000 ) ) ;
#206 = LENGTH_MEASURE_WITH_UNIT ( LENGTH_MEASURE( 0.02539999999999999897 ), #35 );
#207 = PRESENTATION_LAYER_ASSIGNMENT (  '', '', ( #213 ) ) ;
#208 = VERTEX_POINT ( 'NONE', #44 ) ;
#209 = ADVANCED_FACE ( 'NONE', ( #49 ), #357, .T. ) ;
#210 = ORIENTED_EDGE ( 'NONE', *, *, #166, .T. ) ;
#211 = ORIENTED_EDGE ( 'NONE', *, *, #368, .F. ) ;
#212 = AXIS2_PLACEMENT_3D ( 'NONE', #279, #358, #136 ) ;
#213 = STYLED_ITEM ( 'NONE', ( #240 ), #238 ) ;
#214 = ORIENTED_EDGE ( 'NONE', *, *, #228, .T. ) ;
#215 = ORIENTED_EDGE ( 'NONE', *, *, #194, .T. ) ;
#216 = CARTESIAN_POINT ( 'NONE',  ( 0.06249999999999996531, 0.06250000000000001388, 0.000000000000000000 ) ) ;
#217 = SURFACE_STYLE_FILL_AREA ( #261 ) ;
#218 = VECTOR ( 'NONE', #96, 39.37007874015748143 ) ;
#219 =( GEOMETRIC_REPRESENTATION_CONTEXT ( 3 ) GLOBAL_UNCERTAINTY_ASSIGNED_CONTEXT ( ( #24 ) ) GLOBAL_UNIT_ASSIGNED_CONTEXT ( ( #363, #197, #20 ) ) REPRESENTATION_CONTEXT ( 'NONE', 'WORKASPACE' ) );
#220 = CYLINDRICAL_SURFACE ( 'NONE', #129, 0.06249999999999991673 ) ;
#221 = SURFACE_STYLE_FILL_AREA ( #362 ) ;
#222 = CYLINDRICAL_SURFACE ( 'NONE', #296, 0.06249999999999950734 ) ;
#223 = FILL_AREA_STYLE_COLOUR ( '', #106 ) ;
#224 = DIRECTION ( 'NONE',  ( -0.000000000000000000, -1.000000000000000000, -0.000000000000000000 ) ) ;
#225 = AXIS2_PLACEMENT_3D ( 'NONE', #330, #22, #134 ) ;
#226 = PRODUCT_DEFINITION_SHAPE ( 'NONE', 'NONE',  #1 ) ;
#227 = FILL_AREA_STYLE ('',( #289 ) ) ;
#228 = EDGE_CURVE ( 'NONE', #187, #95, #133, .T. ) ;
#229 = DIRECTION ( 'NONE',  ( -1.483672453417965792E-16, 1.000000000000000000, -0.000000000000000000 ) ) ;
#230 =( NAMED_UNIT ( * ) PLANE_ANGLE_UNIT ( ) SI_UNIT ( $, .RADIAN. ) );
#231 = DIRECTION ( 'NONE',  ( -0.000000000000000000, -1.000000000000000000, -0.000000000000000000 ) ) ;
#232 = DIMENSIONAL_EXPONENTS ( 1.000000000000000000, 0.000000000000000000, 0.000000000000000000, 0.000000000000000000, 0.000000000000000000, 0.000000000000000000, 0.000000000000000000 ) ;
#233 = VERTEX_POINT ( 'NONE', #72 ) ;
#234 = DIMENSIONAL_EXPONENTS ( 1.000000000000000000, 0.000000000000000000, 0.000000000000000000, 0.000000000000000000, 0.000000000000000000, 0.000000000000000000, 0.000000000000000000 ) ;
#235 = EDGE_LOOP ( 'NONE', ( #181, #41, #352, #125, #211 ) ) ;
#236 = MECHANICAL_DESIGN_GEOMETRIC_PRESENTATION_REPRESENTATION (  '', ( #297 ), #39 ) ;
#237 = FILL_AREA_STYLE_COLOUR ( '', #77 ) ;
#238 = ADVANCED_FACE ( 'NONE', ( #186 ), #158, .T. ) ;
#239 = ORIENTED_EDGE ( 'NONE', *, *, #202, .F. ) ;
#240 = PRESENTATION_STYLE_ASSIGNMENT (( #11 ) ) ;
#241 = DIRECTION ( 'NONE',  ( 0.000000000000000000, 0.000000000000000000, -1.000000000000000000 ) ) ;
#242 = CARTESIAN_POINT ( 'NONE',  ( 0.06249999999999975020, 2.500000000000000000, 7.654042494670897456E-18 ) ) ;
#243 = PRESENTATION_STYLE_ASSIGNMENT (( #168 ) ) ;
#244 = DIRECTION ( 'NONE',  ( -1.000000000000000000, -1.483672453417965792E-16, 0.000000000000000000 ) ) ;
#245 = CIRCLE ( 'NONE', #212, 0.06249999999999963224 ) ;
#246 = CIRCLE ( 'NONE', #314, 0.06249999999999937550 ) ;
#247 = MECHANICAL_DESIGN_GEOMETRIC_PRESENTATION_REPRESENTATION (  '', ( #265 ), #56 ) ;
#248 = DIRECTION ( 'NONE',  ( 1.000000000000000000, 0.000000000000000000, -1.224646799147353454E-16 ) ) ;
#249 = FACE_OUTER_BOUND ( 'NONE', #127, .T. ) ;
#250 = DIRECTION ( 'NONE',  ( -0.000000000000000000, -1.000000000000000000, -0.000000000000000000 ) ) ;
#251 = UNCERTAINTY_MEASURE_WITH_UNIT (LENGTH_MEASURE( 1.000000000000000082E-05 ), #198, 'distance_accuracy_value', 'NONE');
#252 = LENGTH_MEASURE_WITH_UNIT ( LENGTH_MEASURE( 0.02539999999999999897 ), #196 );
#253 = PRODUCT ( '81317', '81317', '', ( #317 ) ) ;
#254 = LENGTH_MEASURE_WITH_UNIT ( LENGTH_MEASURE( 0.02539999999999999897 ), #171 );
#255 = LENGTH_MEASURE_WITH_UNIT ( LENGTH_MEASURE( 0.02539999999999999897 ), #316 );
#256 = CIRCLE ( 'NONE', #97, 0.06249999999999937550 ) ;
#257 =( NAMED_UNIT ( * ) SI_UNIT ( $, .STERADIAN. ) SOLID_ANGLE_UNIT ( ) );
#258 = SURFACE_STYLE_USAGE ( .BOTH. , #373 ) ;
#259 = CARTESIAN_POINT ( 'NONE',  ( 0.000000000000000000, 0.000000000000000000, 0.000000000000000000 ) ) ;
#260 = DIMENSIONAL_EXPONENTS ( 1.000000000000000000, 0.000000000000000000, 0.000000000000000000, 0.000000000000000000, 0.000000000000000000, 0.000000000000000000, 0.000000000000000000 ) ;
#261 = FILL_AREA_STYLE ('',( #292 ) ) ;
#262 = ORIENTED_EDGE ( 'NONE', *, *, #360, .T. ) ;
#263 = VERTEX_POINT ( 'NONE', #85 ) ;
#264 =( GEOMETRIC_REPRESENTATION_CONTEXT ( 3 ) GLOBAL_UNCERTAINTY_ASSIGNED_CONTEXT ( ( #164 ) ) GLOBAL_UNIT_ASSIGNED_CONTEXT ( ( #277, #50, #165 ) ) REPRESENTATION_CONTEXT ( 'NONE', 'WORKASPACE' ) );
#265 = STYLED_ITEM ( 'NONE', ( #82 ), #94 ) ;
#266 = VERTEX_POINT ( 'NONE', #310 ) ;
#267 = DIRECTION ( 'NONE',  ( 1.483672453417965792E-16, -1.000000000000000000, 0.000000000000000000 ) ) ;
#268 = EDGE_LOOP ( 'NONE', ( #356, #293, #298, #70 ) ) ;
#269 = SURFACE_STYLE_FILL_AREA ( #160 ) ;
#270 = DIRECTION ( 'NONE',  ( 0.000000000000000000, 0.000000000000000000, -1.000000000000000000 ) ) ;
#271 = CARTESIAN_POINT ( 'NONE',  ( 0.000000000000000000, 0.000000000000000000, 0.000000000000000000 ) ) ;
#272 = EDGE_CURVE ( 'NONE', #266, #263, #302, .T. ) ;
#273 = LENGTH_MEASURE_WITH_UNIT ( LENGTH_MEASURE( 0.02539999999999999897 ), #150 );
#274 = DIRECTION ( 'NONE',  ( 0.000000000000000000, 0.000000000000000000, -1.000000000000000000 ) ) ;
#275 = CARTESIAN_POINT ( 'NONE',  ( 0.000000000000000000, 0.000000000000000000, -0.06249999999999991673 ) ) ;
#276 = MECHANICAL_DESIGN_GEOMETRIC_PRESENTATION_REPRESENTATION (  '', ( #109 ), #264 ) ;
#277 =( CONVERSION_BASED_UNIT ( 'INCH', #103 ) LENGTH_UNIT ( ) NAMED_UNIT ( #232 ) );
#278 = CARTESIAN_POINT ( 'NONE',  ( 0.000000000000000000, 0.7499999999999998890, 0.000000000000000000 ) ) ;
#279 = CARTESIAN_POINT ( 'NONE',  ( 2.449293598294706907E-16, 2.500000000000000000, 0.000000000000000000 ) ) ;
#280 = PLANE ( 'NONE',  #350 ) ;
#281 =( CONVERSION_BASED_UNIT ( 'INCH', #255 ) LENGTH_UNIT ( ) NAMED_UNIT ( #155 ) );
#282 = FILL_AREA_STYLE_COLOUR ( '', #148 ) ;
#283 = PRESENTATION_LAYER_ASSIGNMENT (  '', '', ( #83 ) ) ;
#284 = DIRECTION ( 'NONE',  ( 1.000000000000000000, 0.000000000000000000, 0.000000000000000000 ) ) ;
#285 = DIRECTION ( 'NONE',  ( 0.000000000000000000, 0.000000000000000000, 1.000000000000000000 ) ) ;
#286 = CARTESIAN_POINT ( 'NONE',  ( -7.654042494670957545E-18, 0.06250000000000001388, 0.000000000000000000 ) ) ;
#287 = FACE_OUTER_BOUND ( 'NONE', #38, .T. ) ;
#288 = DIRECTION ( 'NONE',  ( 1.000000000000000000, 0.000000000000000000, 0.000000000000000000 ) ) ;
#289 = FILL_AREA_STYLE_COLOUR ( '', #183 ) ;
#290 = COLOUR_RGB ( '',1.000000000000000000, 0.000000000000000000, 0.000000000000000000 ) ;
#291 = EDGE_CURVE ( 'NONE', #208, #187, #246, .T. ) ;
#292 = FILL_AREA_STYLE_COLOUR ( '', #354 ) ;
#293 = ORIENTED_EDGE ( 'NONE', *, *, #202, .T. ) ;
#294 = EDGE_CURVE ( 'NONE', #263, #63, #309, .T. ) ;
#295 = PRESENTATION_LAYER_ASSIGNMENT (  '', '', ( #120 ) ) ;
#296 = AXIS2_PLACEMENT_3D ( 'NONE', #138, #135, #176 ) ;
#297 = STYLED_ITEM ( 'NONE', ( #146 ), #112 ) ;
#298 = ORIENTED_EDGE ( 'NONE', *, *, #170, .T. ) ;
#299 = DIRECTION ( 'NONE',  ( -0.000000000000000000, -1.000000000000000000, -0.000000000000000000 ) ) ;
#300 = ORIENTED_EDGE ( 'NONE', *, *, #31, .T. ) ;
#301 = CARTESIAN_POINT ( 'NONE',  ( 0.000000000000000000, 0.06250000000000001388, 0.000000000000000000 ) ) ;
#302 = CIRCLE ( 'NONE', #184, 0.06249999999999988204 ) ;
#303 = LINE ( 'NONE', #327, #68 ) ;
#304 = CARTESIAN_POINT ( 'NONE',  ( 0.06249999999999988204, 0.7499999999999998890, 7.654042494670905160E-18 ) ) ;
#305 = SURFACE_SIDE_STYLE ('',( #75 ) ) ;
#306 = DIRECTION ( 'NONE',  ( 0.000000000000000000, 0.000000000000000000, -1.000000000000000000 ) ) ;
#307 = AXIS2_PLACEMENT_3D ( 'NONE', #54, #177, #284 ) ;
#308 = UNCERTAINTY_MEASURE_WITH_UNIT (LENGTH_MEASURE( 1.000000000000000082E-05 ), #124, 'distance_accuracy_value', 'NONE');
#309 = LINE ( 'NONE', #275, #57 ) ;
#310 = CARTESIAN_POINT ( 'NONE',  ( 7.654042494670945219E-18, 0.7499999999999998890, 0.06249999999999988204 ) ) ;
#311 = SURFACE_STYLE_USAGE ( .BOTH. , #30 ) ;
#312 = DIRECTION ( 'NONE',  ( -1.483672453417965792E-16, 1.000000000000000000, -0.000000000000000000 ) ) ;
#313 = AXIS2_PLACEMENT_3D ( 'NONE', #286, #205, #203 ) ;
#314 = AXIS2_PLACEMENT_3D ( 'NONE', #334, #312, #55 ) ;
#315 = CLOSED_SHELL ( 'NONE', ( #132, #209, #238, #27, #94 ) ) ;
#316 =( LENGTH_UNIT ( ) NAMED_UNIT ( * ) SI_UNIT ( $, .METRE. ) );
#317 = PRODUCT_CONTEXT ( 'NONE', #349, 'mechanical' ) ;
#318 =( NAMED_UNIT ( * ) SI_UNIT ( $, .STERADIAN. ) SOLID_ANGLE_UNIT ( ) );
#319 = DIMENSIONAL_EXPONENTS ( 1.000000000000000000, 0.000000000000000000, 0.000000000000000000, 0.000000000000000000, 0.000000000000000000, 0.000000000000000000, 0.000000000000000000 ) ;
#320 = ORIENTED_EDGE ( 'NONE', *, *, #170, .F. ) ;
#321 = VERTEX_POINT ( 'NONE', #53 ) ;
#322 = AXIS2_PLACEMENT_3D ( 'NONE', #12, #267, #325 ) ;
#323 = STYLED_ITEM ( 'NONE', ( #195 ), #365 ) ;
#324 = MECHANICAL_DESIGN_GEOMETRIC_PRESENTATION_REPRESENTATION (  '', ( #120 ), #341 ) ;
#325 = DIRECTION ( 'NONE',  ( 1.000000000000000000, 1.483672453417965792E-16, 0.000000000000000000 ) ) ;
#326 = ORIENTED_EDGE ( 'NONE', *, *, #31, .F. ) ;
#327 = CARTESIAN_POINT ( 'NONE',  ( -0.06249999999999925754, 2.500000000000000000, 0.000000000000000000 ) ) ;
#328 = FACE_OUTER_BOUND ( 'NONE', #235, .T. ) ;
#329 =( LENGTH_UNIT ( ) NAMED_UNIT ( * ) SI_UNIT ( $, .METRE. ) );
#330 = CARTESIAN_POINT ( 'NONE',  ( 2.449293598294706907E-16, 2.500000000000000000, 0.000000000000000000 ) ) ;
#331 = DIRECTION ( 'NONE',  ( 0.000000000000000000, 1.000000000000000000, 0.000000000000000000 ) ) ;
#332 = PRODUCT_RELATED_PRODUCT_CATEGORY ( 'part', '', ( #253 ) ) ;
#333 = DIRECTION ( 'NONE',  ( 1.224646799147353207E-16, -0.000000000000000000, 1.000000000000000000 ) ) ;
#334 = CARTESIAN_POINT ( 'NONE',  ( 5.045720391776147351E-16, 0.7499999999999998890, 0.000000000000000000 ) ) ;
#335 = CIRCLE ( 'NONE', #6, 0.06249999999999997918 ) ;
#336 =( NAMED_UNIT ( * ) PLANE_ANGLE_UNIT ( ) SI_UNIT ( $, .RADIAN. ) );
#337 = CARTESIAN_POINT ( 'NONE',  ( 0.000000000000000000, 0.7499999999999998890, 0.000000000000000000 ) ) ;
#338 =( LENGTH_UNIT ( ) NAMED_UNIT ( * ) SI_UNIT ( $, .METRE. ) );
#339 = ADVANCED_FACE ( 'NONE', ( #174 ), #222, .T. ) ;
#340 =( NAMED_UNIT ( * ) PLANE_ANGLE_UNIT ( ) SI_UNIT ( $, .RADIAN. ) );
#341 =( GEOMETRIC_REPRESENTATION_CONTEXT ( 3 ) GLOBAL_UNCERTAINTY_ASSIGNED_CONTEXT ( ( #16 ) ) GLOBAL_UNIT_ASSIGNED_CONTEXT ( ( #370, #230, #367 ) ) REPRESENTATION_CONTEXT ( 'NONE', 'WORKASPACE' ) );
#342 =( GEOMETRIC_REPRESENTATION_CONTEXT ( 3 ) GLOBAL_UNCERTAINTY_ASSIGNED_CONTEXT ( ( #308 ) ) GLOBAL_UNIT_ASSIGNED_CONTEXT ( ( #124, #355, #318 ) ) REPRESENTATION_CONTEXT ( 'NONE', 'WORKASPACE' ) );
#343 = DIRECTION ( 'NONE',  ( -1.000000000000000000, 0.000000000000000000, 0.000000000000000000 ) ) ;
#344 = CLOSED_SHELL ( 'NONE', ( #104, #345, #339, #188 ) ) ;
#345 = ADVANCED_FACE ( 'NONE', ( #249 ), #280, .F. ) ;
#346 = DIRECTION ( 'NONE',  ( -1.483672453417965792E-16, 1.000000000000000000, -0.000000000000000000 ) ) ;
#347 =( CONVERSION_BASED_UNIT ( 'INCH', #206 ) LENGTH_UNIT ( ) NAMED_UNIT ( #260 ) );
#348 = DIRECTION ( 'NONE',  ( -0.000000000000000000, -1.000000000000000000, -0.000000000000000000 ) ) ;
#349 = APPLICATION_CONTEXT ( 'automotive_design' ) ;
#350 = AXIS2_PLACEMENT_3D ( 'NONE', #141, #80, #244 ) ;
#351 = ORIENTED_EDGE ( 'NONE', *, *, #194, .F. ) ;
#352 = ORIENTED_EDGE ( 'NONE', *, *, #294, .T. ) ;
#353 = EDGE_LOOP ( 'NONE', ( #8, #73 ) ) ;
#354 = COLOUR_RGB ( '',1.000000000000000000, 0.000000000000000000, 0.000000000000000000 ) ;
#355 =( NAMED_UNIT ( * ) PLANE_ANGLE_UNIT ( ) SI_UNIT ( $, .RADIAN. ) );
#356 = ORIENTED_EDGE ( 'NONE', *, *, #228, .F. ) ;
#357 = CYLINDRICAL_SURFACE ( 'NONE', #137, 0.06249999999999991673 ) ;
#358 = DIRECTION ( 'NONE',  ( -1.483672453417965792E-16, 1.000000000000000000, -0.000000000000000000 ) ) ;
#359 = SURFACE_SIDE_STYLE ('',( #269 ) ) ;
#360 = EDGE_CURVE ( 'NONE', #263, #266, #19, .T. ) ;
#361 = DIRECTION ( 'NONE',  ( -0.000000000000000000, -1.000000000000000000, -0.000000000000000000 ) ) ;
#362 = FILL_AREA_STYLE ('',( #223 ) ) ;
#363 =( CONVERSION_BASED_UNIT ( 'INCH', #23 ) LENGTH_UNIT ( ) NAMED_UNIT ( #234 ) );
#364 = CARTESIAN_POINT ( 'NONE',  ( 0.000000000000000000, 0.7499999999999998890, 0.000000000000000000 ) ) ;
#365 = MANIFOLD_SOLID_BREP ( 'Revolve - Tool Body (Straight Shanked)', #344 ) ;
#366 =( GEOMETRIC_REPRESENTATION_CONTEXT ( 3 ) GLOBAL_UNCERTAINTY_ASSIGNED_CONTEXT ( ( #139 ) ) GLOBAL_UNIT_ASSIGNED_CONTEXT ( ( #347, #66, #257 ) ) REPRESENTATION_CONTEXT ( 'NONE', 'WORKASPACE' ) );
#367 =( NAMED_UNIT ( * ) SI_UNIT ( $, .STERADIAN. ) SOLID_ANGLE_UNIT ( ) );
#368 = EDGE_CURVE ( 'NONE', #157, #5, #116, .T. ) ;
#369 =( CONVERSION_BASED_UNIT ( 'INCH', #254 ) LENGTH_UNIT ( ) NAMED_UNIT ( #64 ) );
#370 =( CONVERSION_BASED_UNIT ( 'INCH', #175 ) LENGTH_UNIT ( ) NAMED_UNIT ( #37 ) );
#371 = APPLICATION_PROTOCOL_DEFINITION ( 'draft international standard', 'automotive_design', 1998, #143 ) ;
#372 = AXIS2_PLACEMENT_3D ( 'NONE', #163, #7, #105 ) ;
#373 = SURFACE_SIDE_STYLE ('',( #32 ) ) ;
ENDSEC;
END-ISO-10303-21;
