ISO-10303-21;
HEADER;
FILE_DESCRIPTION (( 'STEP AP214' ),
    '1' );
FILE_NAME ('30587.STEP',
    '2023-06-22T18:45:10',
    ( '' ),
    ( '' ),
    'SwSTEP 2.0',
    'SolidWorks 2023',
    '' );
FILE_SCHEMA (( 'AUTOMOTIVE_DESIGN' ));
ENDSEC;

DATA;
#1 = DIRECTION ( 'NONE',  ( -1.000000000000000000, 0.000000000000000000, 0.000000000000000000 ) ) ;
#2 = ORIENTED_EDGE ( 'NONE', *, *, #138, .T. ) ;
#3 = ADVANCED_FACE ( 'NONE', ( #299 ), #164, .T. ) ;
#4 = FACE_OUTER_BOUND ( 'NONE', #84, .T. ) ;
#5 = LINE ( 'NONE', #104, #81 ) ;
#6 = ORIENTED_EDGE ( 'NONE', *, *, #102, .F. ) ;
#7 =( GEOMETRIC_REPRESENTATION_CONTEXT ( 3 ) GLOBAL_UNCERTAINTY_ASSIGNED_CONTEXT ( ( #178 ) ) GLOBAL_UNIT_ASSIGNED_CONTEXT ( ( #21, #280, #179 ) ) REPRESENTATION_CONTEXT ( 'NONE', 'WORKASPACE' ) );
#8 =( NAMED_UNIT ( * ) PLANE_ANGLE_UNIT ( ) SI_UNIT ( $, .RADIAN. ) );
#9 = ORIENTED_EDGE ( 'NONE', *, *, #294, .T. ) ;
#10 = CARTESIAN_POINT ( 'NONE',  ( 7.582401355855259480E-33, 1.625000000000000000, 0.000000000000000000 ) ) ;
#11 = COLOUR_RGB ( '',0.7921568627450980005, 0.8196078431372548767, 0.9333333333333333481 ) ;
#12 = FACE_OUTER_BOUND ( 'NONE', #78, .T. ) ;
#13 = SURFACE_SIDE_STYLE ('',( #169 ) ) ;
#14 = UNCERTAINTY_MEASURE_WITH_UNIT (LENGTH_MEASURE( 1.000000000000000082E-05 ), #116, 'distance_accuracy_value', 'NONE');
#15 = DIRECTION ( 'NONE',  ( -3.265724797726272713E-17, 1.000000000000000000, -0.000000000000000000 ) ) ;
#16 = FILL_AREA_STYLE_COLOUR ( '', #48 ) ;
#17 = VERTEX_POINT ( 'NONE', #61 ) ;
#18 = DIRECTION ( 'NONE',  ( 0.000000000000000000, 0.000000000000000000, -1.000000000000000000 ) ) ;
#19 = DIRECTION ( 'NONE',  ( 1.000000000000000000, 3.265724797726272713E-17, 0.000000000000000000 ) ) ;
#20 = PRODUCT_CONTEXT ( 'NONE', #231, 'mechanical' ) ;
#21 =( CONVERSION_BASED_UNIT ( 'INCH', #172 ) LENGTH_UNIT ( ) NAMED_UNIT ( #103 ) );
#22 = PRODUCT_RELATED_PRODUCT_CATEGORY ( 'part', '', ( #124 ) ) ;
#23 = DIRECTION ( 'NONE',  ( -1.000000000000000000, 0.000000000000000000, 0.000000000000000000 ) ) ;
#24 = ADVANCED_FACE ( 'NONE', ( #12 ), #238, .T. ) ;
#25 =( GEOMETRIC_REPRESENTATION_CONTEXT ( 3 ) GLOBAL_UNCERTAINTY_ASSIGNED_CONTEXT ( ( #151 ) ) GLOBAL_UNIT_ASSIGNED_CONTEXT ( ( #282, #71, #72 ) ) REPRESENTATION_CONTEXT ( 'NONE', 'WORKASPACE' ) );
#26 = VERTEX_POINT ( 'NONE', #190 ) ;
#27 = DIRECTION ( 'NONE',  ( -3.265724797726272713E-17, 1.000000000000000000, -0.000000000000000000 ) ) ;
#28 = EDGE_LOOP ( 'NONE', ( #254, #101 ) ) ;
#29 =( NAMED_UNIT ( * ) PLANE_ANGLE_UNIT ( ) SI_UNIT ( $, .RADIAN. ) );
#30 = CARTESIAN_POINT ( 'NONE',  ( -6.123233995736759873E-17, 3.500000000000000000, 0.000000000000000000 ) ) ;
#31 =( LENGTH_UNIT ( ) NAMED_UNIT ( * ) SI_UNIT ( $, .METRE. ) );
#32 = ORIENTED_EDGE ( 'NONE', *, *, #278, .T. ) ;
#33 = CARTESIAN_POINT ( 'NONE',  ( 0.000000000000000000, 1.625000000000000000, 0.000000000000000000 ) ) ;
#34 = ADVANCED_BREP_SHAPE_REPRESENTATION ( '30587', ( #300, #95, #140 ), #146 ) ;
#35 = FILL_AREA_STYLE ('',( #16 ) ) ;
#36 = EDGE_CURVE ( 'NONE', #185, #26, #202, .T. ) ;
#37 = DIRECTION ( 'NONE',  ( -1.000000000000000000, 0.000000000000000000, 0.000000000000000000 ) ) ;
#38 = AXIS2_PLACEMENT_3D ( 'NONE', #182, #50, #156 ) ;
#39 = LENGTH_MEASURE_WITH_UNIT ( LENGTH_MEASURE( 0.02539999999999999897 ), #272 );
#40 = CARTESIAN_POINT ( 'NONE',  ( 1.666399758513172697E-34, 1.625000000000000000, 0.000000000000000000 ) ) ;
#41 = DIRECTION ( 'NONE',  ( -0.000000000000000000, -1.000000000000000000, -0.000000000000000000 ) ) ;
#42 =( NAMED_UNIT ( * ) SI_UNIT ( $, .STERADIAN. ) SOLID_ANGLE_UNIT ( ) );
#43 = FILL_AREA_STYLE ('',( #170 ) ) ;
#44 = VECTOR ( 'NONE', #123, 39.37007874015748143 ) ;
#45 = FACE_OUTER_BOUND ( 'NONE', #107, .T. ) ;
#46 = EDGE_CURVE ( 'NONE', #183, #286, #69, .T. ) ;
#47 = LINE ( 'NONE', #125, #87 ) ;
#48 = COLOUR_RGB ( '',0.7921568627450980005, 0.8196078431372548767, 0.9333333333333333481 ) ;
#49 =( LENGTH_UNIT ( ) NAMED_UNIT ( * ) SI_UNIT ( $, .METRE. ) );
#50 = DIRECTION ( 'NONE',  ( 0.000000000000000000, -1.000000000000000000, -0.000000000000000000 ) ) ;
#51 = COLOUR_RGB ( '',1.000000000000000000, 0.000000000000000000, 0.000000000000000000 ) ;
#52 = ORIENTED_EDGE ( 'NONE', *, *, #257, .F. ) ;
#53 = FACE_OUTER_BOUND ( 'NONE', #132, .T. ) ;
#54 = EDGE_LOOP ( 'NONE', ( #6, #242, #2, #289 ) ) ;
#55 = ORIENTED_EDGE ( 'NONE', *, *, #214, .F. ) ;
#56 = SURFACE_STYLE_USAGE ( .BOTH. , #209 ) ;
#57 = CIRCLE ( 'NONE', #309, 0.3125000000000000000 ) ;
#58 =( CONVERSION_BASED_UNIT ( 'INCH', #39 ) LENGTH_UNIT ( ) NAMED_UNIT ( #290 ) );
#59 = DIMENSIONAL_EXPONENTS ( 1.000000000000000000, 0.000000000000000000, 0.000000000000000000, 0.000000000000000000, 0.000000000000000000, 0.000000000000000000, 0.000000000000000000 ) ;
#60 = CARTESIAN_POINT ( 'NONE',  ( -6.123233995736759873E-17, 3.500000000000000000, 0.000000000000000000 ) ) ;
#61 = CARTESIAN_POINT ( 'NONE',  ( -0.3125000000000000000, 1.625000000000000000, 0.000000000000000000 ) ) ;
#62 = APPLICATION_PROTOCOL_DEFINITION ( 'draft international standard', 'automotive_design', 1998, #231 ) ;
#63 = UNCERTAINTY_MEASURE_WITH_UNIT (LENGTH_MEASURE( 1.000000000000000082E-05 ), #75, 'distance_accuracy_value', 'NONE');
#64 = DIRECTION ( 'NONE',  ( -0.000000000000000000, -1.000000000000000000, -0.000000000000000000 ) ) ;
#65 = STYLED_ITEM ( 'NONE', ( #235 ), #24 ) ;
#66 = DIRECTION ( 'NONE',  ( -0.000000000000000000, -1.000000000000000000, -0.000000000000000000 ) ) ;
#67 = DIRECTION ( 'NONE',  ( -1.000000000000000000, 0.000000000000000000, 0.000000000000000000 ) ) ;
#68 = CARTESIAN_POINT ( 'NONE',  ( -0.3125000000000000555, 3.500000000000000000, 0.000000000000000000 ) ) ;
#69 = CIRCLE ( 'NONE', #184, 0.3125000000000000000 ) ;
#70 = ADVANCED_FACE ( 'NONE', ( #91 ), #136, .F. ) ;
#71 =( NAMED_UNIT ( * ) PLANE_ANGLE_UNIT ( ) SI_UNIT ( $, .RADIAN. ) );
#72 =( NAMED_UNIT ( * ) SI_UNIT ( $, .STERADIAN. ) SOLID_ANGLE_UNIT ( ) );
#73 =( GEOMETRIC_REPRESENTATION_CONTEXT ( 3 ) GLOBAL_UNCERTAINTY_ASSIGNED_CONTEXT ( ( #90 ) ) GLOBAL_UNIT_ASSIGNED_CONTEXT ( ( #193, #219, #249 ) ) REPRESENTATION_CONTEXT ( 'NONE', 'WORKASPACE' ) );
#74 = DIRECTION ( 'NONE',  ( 3.265724797726272713E-17, -1.000000000000000000, 0.000000000000000000 ) ) ;
#75 =( CONVERSION_BASED_UNIT ( 'INCH', #285 ) LENGTH_UNIT ( ) NAMED_UNIT ( #79 ) );
#76 = EDGE_CURVE ( 'NONE', #17, #265, #57, .T. ) ;
#77 = PLANE ( 'NONE',  #38 ) ;
#78 = EDGE_LOOP ( 'NONE', ( #226, #245, #143, #247 ) ) ;
#79 = DIMENSIONAL_EXPONENTS ( 1.000000000000000000, 0.000000000000000000, 0.000000000000000000, 0.000000000000000000, 0.000000000000000000, 0.000000000000000000, 0.000000000000000000 ) ;
#80 = EDGE_CURVE ( 'NONE', #286, #183, #204, .T. ) ;
#81 = VECTOR ( 'NONE', #27, 39.37007874015748143 ) ;
#82 = DIMENSIONAL_EXPONENTS ( 1.000000000000000000, 0.000000000000000000, 0.000000000000000000, 0.000000000000000000, 0.000000000000000000, 0.000000000000000000, 0.000000000000000000 ) ;
#83 =( CONVERSION_BASED_UNIT ( 'INCH', #241 ) LENGTH_UNIT ( ) NAMED_UNIT ( #181 ) );
#84 = EDGE_LOOP ( 'NONE', ( #86, #189, #287, #130 ) ) ;
#85 = FILL_AREA_STYLE ('',( #260 ) ) ;
#86 = ORIENTED_EDGE ( 'NONE', *, *, #76, .T. ) ;
#87 = VECTOR ( 'NONE', #153, 39.37007874015748143 ) ;
#88 = LINE ( 'NONE', #303, #44 ) ;
#89 = CIRCLE ( 'NONE', #208, 0.3125000000000000000 ) ;
#90 = UNCERTAINTY_MEASURE_WITH_UNIT (LENGTH_MEASURE( 1.000000000000000082E-05 ), #193, 'distance_accuracy_value', 'NONE');
#91 = FACE_OUTER_BOUND ( 'NONE', #135, .T. ) ;
#92 = CARTESIAN_POINT ( 'NONE',  ( -0.3125000000000001665, 3.500000000000000000, 0.000000000000000000 ) ) ;
#93 = MECHANICAL_DESIGN_GEOMETRIC_PRESENTATION_REPRESENTATION (  '', ( #134 ), #305 ) ;
#94 = SHAPE_DEFINITION_REPRESENTATION ( #224, #34 ) ;
#95 = MANIFOLD_SOLID_BREP ( 'Revolve - Tool Body (Straight Shanked)', #263 ) ;
#96 = PLANE ( 'NONE',  #154 ) ;
#97 = CARTESIAN_POINT ( 'NONE',  ( 0.000000000000000000, 1.625000000000000000, 0.000000000000000000 ) ) ;
#98 = CIRCLE ( 'NONE', #269, 0.3125000000000000555 ) ;
#99 = DIRECTION ( 'NONE',  ( -0.000000000000000000, -1.000000000000000000, -0.000000000000000000 ) ) ;
#100 = PRESENTATION_STYLE_ASSIGNMENT (( #187 ) ) ;
#101 = ORIENTED_EDGE ( 'NONE', *, *, #155, .T. ) ;
#102 = EDGE_CURVE ( 'NONE', #286, #229, #88, .T. ) ;
#103 = DIMENSIONAL_EXPONENTS ( 1.000000000000000000, 0.000000000000000000, 0.000000000000000000, 0.000000000000000000, 0.000000000000000000, 0.000000000000000000, 0.000000000000000000 ) ;
#104 = CARTESIAN_POINT ( 'NONE',  ( 0.3124999999999999445, 3.500000000000000000, 3.827021247335478926E-17 ) ) ;
#105 = PRODUCT_DEFINITION ( 'UNKNOWN', '', #174, #259 ) ;
#106 = CARTESIAN_POINT ( 'NONE',  ( 0.3125000000000000000, 1.625000000000000000, 3.827021247335478926E-17 ) ) ;
#107 = EDGE_LOOP ( 'NONE', ( #267, #159 ) ) ;
#108 = DIRECTION ( 'NONE',  ( -1.000000000000000000, 0.000000000000000000, 0.000000000000000000 ) ) ;
#109 = ORIENTED_EDGE ( 'NONE', *, *, #214, .T. ) ;
#110 = DIRECTION ( 'NONE',  ( -0.000000000000000000, -1.000000000000000000, -0.000000000000000000 ) ) ;
#111 = CARTESIAN_POINT ( 'NONE',  ( 0.000000000000000000, 1.625000000000000000, 0.000000000000000000 ) ) ;
#112 = PRESENTATION_LAYER_ASSIGNMENT (  '', '', ( #161 ) ) ;
#113 = PRESENTATION_STYLE_ASSIGNMENT (( #270 ) ) ;
#114 = SURFACE_STYLE_USAGE ( .BOTH. , #251 ) ;
#115 = DIRECTION ( 'NONE',  ( -3.265724797726272713E-17, 1.000000000000000000, 0.000000000000000000 ) ) ;
#116 =( CONVERSION_BASED_UNIT ( 'INCH', #137 ) LENGTH_UNIT ( ) NAMED_UNIT ( #129 ) );
#117 = UNCERTAINTY_MEASURE_WITH_UNIT (LENGTH_MEASURE( 1.000000000000000082E-05 ), #58, 'distance_accuracy_value', 'NONE');
#118 = MECHANICAL_DESIGN_GEOMETRIC_PRESENTATION_REPRESENTATION (  '', ( #261 ), #163 ) ;
#119 = LENGTH_MEASURE_WITH_UNIT ( LENGTH_MEASURE( 0.02539999999999999897 ), #276 );
#120 = CARTESIAN_POINT ( 'NONE',  ( 0.000000000000000000, 1.625000000000000000, -0.3125000000000000000 ) ) ;
#121 = DIRECTION ( 'NONE',  ( -3.265724797726272713E-17, 1.000000000000000000, -0.000000000000000000 ) ) ;
#122 = COLOUR_RGB ( '',1.000000000000000000, 0.000000000000000000, 0.000000000000000000 ) ;
#123 = DIRECTION ( 'NONE',  ( -0.000000000000000000, -1.000000000000000000, -0.000000000000000000 ) ) ;
#124 = PRODUCT ( '30587', '30587', '', ( #20 ) ) ;
#125 = CARTESIAN_POINT ( 'NONE',  ( 0.000000000000000000, 0.000000000000000000, -0.3125000000000000000 ) ) ;
#126 = DIRECTION ( 'NONE',  ( -3.265724797726272713E-17, 1.000000000000000000, -0.000000000000000000 ) ) ;
#127 = COLOUR_RGB ( '',1.000000000000000000, 0.000000000000000000, 0.000000000000000000 ) ;
#128 =( NAMED_UNIT ( * ) SI_UNIT ( $, .STERADIAN. ) SOLID_ANGLE_UNIT ( ) );
#129 = DIMENSIONAL_EXPONENTS ( 1.000000000000000000, 0.000000000000000000, 0.000000000000000000, 0.000000000000000000, 0.000000000000000000, 0.000000000000000000, 0.000000000000000000 ) ;
#130 = ORIENTED_EDGE ( 'NONE', *, *, #165, .F. ) ;
#131 = PRESENTATION_STYLE_ASSIGNMENT (( #56 ) ) ;
#132 = EDGE_LOOP ( 'NONE', ( #9, #32 ) ) ;
#133 = DIRECTION ( 'NONE',  ( -3.265724797726272713E-17, 1.000000000000000000, -0.000000000000000000 ) ) ;
#134 = STYLED_ITEM ( 'NONE', ( #131 ), #227 ) ;
#135 = EDGE_LOOP ( 'NONE', ( #207, #55 ) ) ;
#136 = PLANE ( 'NONE',  #145 ) ;
#137 = LENGTH_MEASURE_WITH_UNIT ( LENGTH_MEASURE( 0.02539999999999999897 ), #215 );
#138 = EDGE_CURVE ( 'NONE', #183, #171, #47, .T. ) ;
#139 = AXIS2_PLACEMENT_3D ( 'NONE', #256, #74, #19 ) ;
#140 = AXIS2_PLACEMENT_3D ( 'NONE', #258, #195, #301 ) ;
#141 = ADVANCED_FACE ( 'NONE', ( #175 ), #222, .F. ) ;
#142 =( NAMED_UNIT ( * ) PLANE_ANGLE_UNIT ( ) SI_UNIT ( $, .RADIAN. ) );
#143 = ORIENTED_EDGE ( 'NONE', *, *, #294, .F. ) ;
#144 = PRESENTATION_LAYER_ASSIGNMENT (  '', '', ( #65 ) ) ;
#145 = AXIS2_PLACEMENT_3D ( 'NONE', #40, #115, #232 ) ;
#146 =( GEOMETRIC_REPRESENTATION_CONTEXT ( 3 ) GLOBAL_UNCERTAINTY_ASSIGNED_CONTEXT ( ( #117 ) ) GLOBAL_UNIT_ASSIGNED_CONTEXT ( ( #58, #142, #212 ) ) REPRESENTATION_CONTEXT ( 'NONE', 'WORKASPACE' ) );
#147 = SURFACE_STYLE_FILL_AREA ( #262 ) ;
#148 = SURFACE_SIDE_STYLE ('',( #147 ) ) ;
#149 = CLOSED_SHELL ( 'NONE', ( #24, #198, #210, #227 ) ) ;
#150 = AXIS2_PLACEMENT_3D ( 'NONE', #246, #99, #228 ) ;
#151 = UNCERTAINTY_MEASURE_WITH_UNIT (LENGTH_MEASURE( 1.000000000000000082E-05 ), #282, 'distance_accuracy_value', 'NONE');
#152 = LINE ( 'NONE', #68, #275 ) ;
#153 = DIRECTION ( 'NONE',  ( -0.000000000000000000, -1.000000000000000000, -0.000000000000000000 ) ) ;
#154 = AXIS2_PLACEMENT_3D ( 'NONE', #97, #200, #196 ) ;
#155 = EDGE_CURVE ( 'NONE', #26, #185, #98, .T. ) ;
#156 = DIRECTION ( 'NONE',  ( 0.000000000000000000, 0.000000000000000000, -1.000000000000000000 ) ) ;
#157 = FILL_AREA_STYLE ('',( #211 ) ) ;
#158 = SURFACE_STYLE_FILL_AREA ( #85 ) ;
#159 = ORIENTED_EDGE ( 'NONE', *, *, #80, .F. ) ;
#160 = AXIS2_PLACEMENT_3D ( 'NONE', #60, #274, #302 ) ;
#161 = STYLED_ITEM ( 'NONE', ( #197 ), #198 ) ;
#162 = EDGE_LOOP ( 'NONE', ( #52, #109, #291, #186 ) ) ;
#163 =( GEOMETRIC_REPRESENTATION_CONTEXT ( 3 ) GLOBAL_UNCERTAINTY_ASSIGNED_CONTEXT ( ( #14 ) ) GLOBAL_UNIT_ASSIGNED_CONTEXT ( ( #116, #252, #42 ) ) REPRESENTATION_CONTEXT ( 'NONE', 'WORKASPACE' ) );
#164 = CYLINDRICAL_SURFACE ( 'NONE', #236, 0.3125000000000000000 ) ;
#165 = EDGE_CURVE ( 'NONE', #17, #185, #152, .T. ) ;
#166 = SURFACE_STYLE_FILL_AREA ( #218 ) ;
#167 = PRESENTATION_STYLE_ASSIGNMENT (( #114 ) ) ;
#168 = AXIS2_PLACEMENT_3D ( 'NONE', #264, #266, #1 ) ;
#169 = SURFACE_STYLE_FILL_AREA ( #35 ) ;
#170 = FILL_AREA_STYLE_COLOUR ( '', #304 ) ;
#171 = VERTEX_POINT ( 'NONE', #223 ) ;
#172 = LENGTH_MEASURE_WITH_UNIT ( LENGTH_MEASURE( 0.02539999999999999897 ), #49 );
#173 = PRESENTATION_LAYER_ASSIGNMENT (  '', '', ( #279 ) ) ;
#174 = PRODUCT_DEFINITION_FORMATION_WITH_SPECIFIED_SOURCE ( 'ANY', '', #124, .NOT_KNOWN. ) ;
#175 = FACE_OUTER_BOUND ( 'NONE', #28, .T. ) ;
#176 = FACE_OUTER_BOUND ( 'NONE', #54, .T. ) ;
#177 = AXIS2_PLACEMENT_3D ( 'NONE', #296, #110, #298 ) ;
#178 = UNCERTAINTY_MEASURE_WITH_UNIT (LENGTH_MEASURE( 1.000000000000000082E-05 ), #21, 'distance_accuracy_value', 'NONE');
#179 =( NAMED_UNIT ( * ) SI_UNIT ( $, .STERADIAN. ) SOLID_ANGLE_UNIT ( ) );
#180 =( NAMED_UNIT ( * ) SI_UNIT ( $, .STERADIAN. ) SOLID_ANGLE_UNIT ( ) );
#181 = DIMENSIONAL_EXPONENTS ( 1.000000000000000000, 0.000000000000000000, 0.000000000000000000, 0.000000000000000000, 0.000000000000000000, 0.000000000000000000, 0.000000000000000000 ) ;
#182 = CARTESIAN_POINT ( 'NONE',  ( 0.000000000000000000, 0.000000000000000000, 0.000000000000000000 ) ) ;
#183 = VERTEX_POINT ( 'NONE', #120 ) ;
#184 = AXIS2_PLACEMENT_3D ( 'NONE', #33, #64, #216 ) ;
#185 = VERTEX_POINT ( 'NONE', #92 ) ;
#186 = ORIENTED_EDGE ( 'NONE', *, *, #155, .F. ) ;
#187 = SURFACE_STYLE_USAGE ( .BOTH. , #206 ) ;
#188 = MECHANICAL_DESIGN_GEOMETRIC_PRESENTATION_REPRESENTATION (  '', ( #65 ), #73 ) ;
#189 = ORIENTED_EDGE ( 'NONE', *, *, #257, .T. ) ;
#190 = CARTESIAN_POINT ( 'NONE',  ( 0.3125000000000000000, 3.500000000000000000, 3.827021247335478926E-17 ) ) ;
#191 = UNCERTAINTY_MEASURE_WITH_UNIT (LENGTH_MEASURE( 1.000000000000000082E-05 ), #83, 'distance_accuracy_value', 'NONE');
#192 = DIRECTION ( 'NONE',  ( -3.265724797726272713E-17, 1.000000000000000000, -0.000000000000000000 ) ) ;
#193 =( CONVERSION_BASED_UNIT ( 'INCH', #119 ) LENGTH_UNIT ( ) NAMED_UNIT ( #82 ) );
#194 = CIRCLE ( 'NONE', #177, 0.3125000000000000000 ) ;
#195 = DIRECTION ( 'NONE',  ( 0.000000000000000000, 0.000000000000000000, 1.000000000000000000 ) ) ;
#196 = DIRECTION ( 'NONE',  ( 0.000000000000000000, -0.000000000000000000, 1.000000000000000000 ) ) ;
#197 = PRESENTATION_STYLE_ASSIGNMENT (( #307 ) ) ;
#198 = ADVANCED_FACE ( 'NONE', ( #45 ), #96, .T. ) ;
#199 = LENGTH_MEASURE_WITH_UNIT ( LENGTH_MEASURE( 0.02539999999999999897 ), #201 );
#200 = DIRECTION ( 'NONE',  ( 0.000000000000000000, 1.000000000000000000, 0.000000000000000000 ) ) ;
#201 =( LENGTH_UNIT ( ) NAMED_UNIT ( * ) SI_UNIT ( $, .METRE. ) );
#202 = CIRCLE ( 'NONE', #160, 0.3125000000000000555 ) ;
#203 = CIRCLE ( 'NONE', #168, 0.3125000000000000000 ) ;
#204 = CIRCLE ( 'NONE', #225, 0.3125000000000000000 ) ;
#205 = CYLINDRICAL_SURFACE ( 'NONE', #243, 0.3125000000000000000 ) ;
#206 = SURFACE_SIDE_STYLE ('',( #158 ) ) ;
#207 = ORIENTED_EDGE ( 'NONE', *, *, #76, .F. ) ;
#208 = AXIS2_PLACEMENT_3D ( 'NONE', #217, #66, #234 ) ;
#209 = SURFACE_SIDE_STYLE ('',( #268 ) ) ;
#210 = ADVANCED_FACE ( 'NONE', ( #176 ), #281, .T. ) ;
#211 = FILL_AREA_STYLE_COLOUR ( '', #51 ) ;
#212 =( NAMED_UNIT ( * ) SI_UNIT ( $, .STERADIAN. ) SOLID_ANGLE_UNIT ( ) );
#213 = DIRECTION ( 'NONE',  ( -0.000000000000000000, -1.000000000000000000, -0.000000000000000000 ) ) ;
#214 = EDGE_CURVE ( 'NONE', #265, #17, #203, .T. ) ;
#215 =( LENGTH_UNIT ( ) NAMED_UNIT ( * ) SI_UNIT ( $, .METRE. ) );
#216 = DIRECTION ( 'NONE',  ( 0.000000000000000000, 0.000000000000000000, -1.000000000000000000 ) ) ;
#217 = CARTESIAN_POINT ( 'NONE',  ( 0.000000000000000000, 0.000000000000000000, 0.000000000000000000 ) ) ;
#218 = FILL_AREA_STYLE ('',( #273 ) ) ;
#219 =( NAMED_UNIT ( * ) PLANE_ANGLE_UNIT ( ) SI_UNIT ( $, .RADIAN. ) );
#220 = MECHANICAL_DESIGN_GEOMETRIC_PRESENTATION_REPRESENTATION (  '', ( #279 ), #288 ) ;
#221 = ADVANCED_FACE ( 'NONE', ( #4 ), #205, .T. ) ;
#222 = PLANE ( 'NONE',  #139 ) ;
#223 = CARTESIAN_POINT ( 'NONE',  ( 0.000000000000000000, 0.000000000000000000, -0.3125000000000000000 ) ) ;
#224 = PRODUCT_DEFINITION_SHAPE ( 'NONE', 'NONE',  #105 ) ;
#225 = AXIS2_PLACEMENT_3D ( 'NONE', #111, #213, #293 ) ;
#226 = ORIENTED_EDGE ( 'NONE', *, *, #46, .T. ) ;
#227 = ADVANCED_FACE ( 'NONE', ( #53 ), #77, .T. ) ;
#228 = DIRECTION ( 'NONE',  ( 0.000000000000000000, 0.000000000000000000, -1.000000000000000000 ) ) ;
#229 = VERTEX_POINT ( 'NONE', #244 ) ;
#230 =( LENGTH_UNIT ( ) NAMED_UNIT ( * ) SI_UNIT ( $, .METRE. ) );
#231 = APPLICATION_CONTEXT ( 'automotive_design' ) ;
#232 = DIRECTION ( 'NONE',  ( -1.000000000000000000, -3.265724797726272713E-17, 0.000000000000000000 ) ) ;
#233 = PRESENTATION_LAYER_ASSIGNMENT (  '', '', ( #134 ) ) ;
#234 = DIRECTION ( 'NONE',  ( 0.000000000000000000, 0.000000000000000000, -1.000000000000000000 ) ) ;
#235 = PRESENTATION_STYLE_ASSIGNMENT (( #295 ) ) ;
#236 = AXIS2_PLACEMENT_3D ( 'NONE', #271, #192, #67 ) ;
#237 = MECHANICAL_DESIGN_GEOMETRIC_PRESENTATION_REPRESENTATION (  '', ( #284 ), #7 ) ;
#238 = CYLINDRICAL_SURFACE ( 'NONE', #283, 0.3125000000000000000 ) ;
#239 = APPLICATION_PROTOCOL_DEFINITION ( 'draft international standard', 'automotive_design', 1998, #240 ) ;
#240 = APPLICATION_CONTEXT ( 'automotive_design' ) ;
#241 = LENGTH_MEASURE_WITH_UNIT ( LENGTH_MEASURE( 0.02539999999999999897 ), #230 );
#242 = ORIENTED_EDGE ( 'NONE', *, *, #80, .T. ) ;
#243 = AXIS2_PLACEMENT_3D ( 'NONE', #30, #133, #108 ) ;
#244 = CARTESIAN_POINT ( 'NONE',  ( 3.827021247335478926E-17, 0.000000000000000000, 0.3125000000000000000 ) ) ;
#245 = ORIENTED_EDGE ( 'NONE', *, *, #102, .T. ) ;
#246 = CARTESIAN_POINT ( 'NONE',  ( 0.000000000000000000, 0.000000000000000000, 0.000000000000000000 ) ) ;
#247 = ORIENTED_EDGE ( 'NONE', *, *, #138, .F. ) ;
#248 = PRESENTATION_LAYER_ASSIGNMENT (  '', '', ( #261 ) ) ;
#249 =( NAMED_UNIT ( * ) SI_UNIT ( $, .STERADIAN. ) SOLID_ANGLE_UNIT ( ) );
#250 = CARTESIAN_POINT ( 'NONE',  ( 3.827021247335478926E-17, 1.625000000000000000, 0.3125000000000000000 ) ) ;
#251 = SURFACE_SIDE_STYLE ('',( #166 ) ) ;
#252 =( NAMED_UNIT ( * ) PLANE_ANGLE_UNIT ( ) SI_UNIT ( $, .RADIAN. ) );
#253 = PRESENTATION_LAYER_ASSIGNMENT (  '', '', ( #284 ) ) ;
#254 = ORIENTED_EDGE ( 'NONE', *, *, #36, .T. ) ;
#255 = CARTESIAN_POINT ( 'NONE',  ( 0.000000000000000000, 0.000000000000000000, 0.000000000000000000 ) ) ;
#256 = CARTESIAN_POINT ( 'NONE',  ( 0.3125000000000000000, 3.500000000000000000, 0.000000000000000000 ) ) ;
#257 = EDGE_CURVE ( 'NONE', #265, #26, #5, .T. ) ;
#258 = CARTESIAN_POINT ( 'NONE',  ( 0.000000000000000000, 0.000000000000000000, 0.000000000000000000 ) ) ;
#259 = PRODUCT_DEFINITION_CONTEXT ( 'detailed design', #240, 'design' ) ;
#260 = FILL_AREA_STYLE_COLOUR ( '', #122 ) ;
#261 = STYLED_ITEM ( 'NONE', ( #113 ), #300 ) ;
#262 = FILL_AREA_STYLE ('',( #308 ) ) ;
#263 = CLOSED_SHELL ( 'NONE', ( #221, #70, #3, #141 ) ) ;
#264 = CARTESIAN_POINT ( 'NONE',  ( 7.582401355855259480E-33, 1.625000000000000000, 0.000000000000000000 ) ) ;
#265 = VERTEX_POINT ( 'NONE', #106 ) ;
#266 = DIRECTION ( 'NONE',  ( -3.265724797726272713E-17, 1.000000000000000000, -0.000000000000000000 ) ) ;
#267 = ORIENTED_EDGE ( 'NONE', *, *, #46, .F. ) ;
#268 = SURFACE_STYLE_FILL_AREA ( #157 ) ;
#269 = AXIS2_PLACEMENT_3D ( 'NONE', #306, #121, #23 ) ;
#270 = SURFACE_STYLE_USAGE ( .BOTH. , #13 ) ;
#271 = CARTESIAN_POINT ( 'NONE',  ( -6.123233995736759873E-17, 3.500000000000000000, 0.000000000000000000 ) ) ;
#272 =( LENGTH_UNIT ( ) NAMED_UNIT ( * ) SI_UNIT ( $, .METRE. ) );
#273 = FILL_AREA_STYLE_COLOUR ( '', #11 ) ;
#274 = DIRECTION ( 'NONE',  ( -3.265724797726272713E-17, 1.000000000000000000, -0.000000000000000000 ) ) ;
#275 = VECTOR ( 'NONE', #126, 39.37007874015748143 ) ;
#276 =( LENGTH_UNIT ( ) NAMED_UNIT ( * ) SI_UNIT ( $, .METRE. ) );
#277 = SURFACE_SIDE_STYLE ('',( #297 ) ) ;
#278 = EDGE_CURVE ( 'NONE', #229, #171, #89, .T. ) ;
#279 = STYLED_ITEM ( 'NONE', ( #100 ), #210 ) ;
#280 =( NAMED_UNIT ( * ) PLANE_ANGLE_UNIT ( ) SI_UNIT ( $, .RADIAN. ) );
#281 = CYLINDRICAL_SURFACE ( 'NONE', #150, 0.3125000000000000000 ) ;
#282 =( CONVERSION_BASED_UNIT ( 'INCH', #199 ) LENGTH_UNIT ( ) NAMED_UNIT ( #59 ) );
#283 = AXIS2_PLACEMENT_3D ( 'NONE', #255, #41, #18 ) ;
#284 = STYLED_ITEM ( 'NONE', ( #167 ), #95 ) ;
#285 = LENGTH_MEASURE_WITH_UNIT ( LENGTH_MEASURE( 0.02539999999999999897 ), #31 );
#286 = VERTEX_POINT ( 'NONE', #250 ) ;
#287 = ORIENTED_EDGE ( 'NONE', *, *, #36, .F. ) ;
#288 =( GEOMETRIC_REPRESENTATION_CONTEXT ( 3 ) GLOBAL_UNCERTAINTY_ASSIGNED_CONTEXT ( ( #191 ) ) GLOBAL_UNIT_ASSIGNED_CONTEXT ( ( #83, #8, #180 ) ) REPRESENTATION_CONTEXT ( 'NONE', 'WORKASPACE' ) );
#289 = ORIENTED_EDGE ( 'NONE', *, *, #278, .F. ) ;
#290 = DIMENSIONAL_EXPONENTS ( 1.000000000000000000, 0.000000000000000000, 0.000000000000000000, 0.000000000000000000, 0.000000000000000000, 0.000000000000000000, 0.000000000000000000 ) ;
#291 = ORIENTED_EDGE ( 'NONE', *, *, #165, .T. ) ;
#292 = MECHANICAL_DESIGN_GEOMETRIC_PRESENTATION_REPRESENTATION (  '', ( #161 ), #25 ) ;
#293 = DIRECTION ( 'NONE',  ( 0.000000000000000000, 0.000000000000000000, -1.000000000000000000 ) ) ;
#294 = EDGE_CURVE ( 'NONE', #171, #229, #194, .T. ) ;
#295 = SURFACE_STYLE_USAGE ( .BOTH. , #277 ) ;
#296 = CARTESIAN_POINT ( 'NONE',  ( 0.000000000000000000, 0.000000000000000000, 0.000000000000000000 ) ) ;
#297 = SURFACE_STYLE_FILL_AREA ( #43 ) ;
#298 = DIRECTION ( 'NONE',  ( 0.000000000000000000, 0.000000000000000000, -1.000000000000000000 ) ) ;
#299 = FACE_OUTER_BOUND ( 'NONE', #162, .T. ) ;
#300 = MANIFOLD_SOLID_BREP ( 'Revolve - Cutting Edge', #149 ) ;
#301 = DIRECTION ( 'NONE',  ( 1.000000000000000000, 0.000000000000000000, 0.000000000000000000 ) ) ;
#302 = DIRECTION ( 'NONE',  ( -1.000000000000000000, 0.000000000000000000, 0.000000000000000000 ) ) ;
#303 = CARTESIAN_POINT ( 'NONE',  ( 3.827021247335478926E-17, 0.000000000000000000, 0.3125000000000000000 ) ) ;
#304 = COLOUR_RGB ( '',1.000000000000000000, 0.000000000000000000, 0.000000000000000000 ) ;
#305 =( GEOMETRIC_REPRESENTATION_CONTEXT ( 3 ) GLOBAL_UNCERTAINTY_ASSIGNED_CONTEXT ( ( #63 ) ) GLOBAL_UNIT_ASSIGNED_CONTEXT ( ( #75, #29, #128 ) ) REPRESENTATION_CONTEXT ( 'NONE', 'WORKASPACE' ) );
#306 = CARTESIAN_POINT ( 'NONE',  ( -6.123233995736759873E-17, 3.500000000000000000, 0.000000000000000000 ) ) ;
#307 = SURFACE_STYLE_USAGE ( .BOTH. , #148 ) ;
#308 = FILL_AREA_STYLE_COLOUR ( '', #127 ) ;
#309 = AXIS2_PLACEMENT_3D ( 'NONE', #10, #15, #37 ) ;
ENDSEC;
END-ISO-10303-21;
