ISO-10303-21;
HEADER;
FILE_DESCRIPTION (( 'STEP AP214' ),
    '1' );
FILE_NAME ('17155.STEP',
    '2023-06-30T21:52:40',
    ( '' ),
    ( '' ),
    'SwSTEP 2.0',
    'SolidWorks 2023',
    '' );
FILE_SCHEMA (( 'AUTOMOTIVE_DESIGN' ));
ENDSEC;

DATA;
#1 = CARTESIAN_POINT ( 'NONE',  ( -1.530808498934191509E-17, 0.1250000000000000000, 0.000000000000000000 ) ) ;
#2 = SURFACE_SIDE_STYLE ('',( #73 ) ) ;
#3 = CIRCLE ( 'NONE', #208, 0.1250000000000000000 ) ;
#4 = DIRECTION ( 'NONE',  ( -1.224646799147352961E-16, 1.000000000000000000, -0.000000000000000000 ) ) ;
#5 =( LENGTH_UNIT ( ) NAMED_UNIT ( * ) SI_UNIT ( $, .METRE. ) );
#6 = DIRECTION ( 'NONE',  ( -1.224646799147352961E-16, 1.000000000000000000, -0.000000000000000000 ) ) ;
#7 = DIMENSIONAL_EXPONENTS ( 1.000000000000000000, 0.000000000000000000, 0.000000000000000000, 0.000000000000000000, 0.000000000000000000, 0.000000000000000000, 0.000000000000000000 ) ;
#8 = DIRECTION ( 'NONE',  ( -1.224646799147352961E-16, 1.000000000000000000, -0.000000000000000000 ) ) ;
#9 = PRESENTATION_STYLE_ASSIGNMENT (( #262 ) ) ;
#10 = MECHANICAL_DESIGN_GEOMETRIC_PRESENTATION_REPRESENTATION (  '', ( #367 ), #271 ) ;
#11 = ADVANCED_FACE ( 'NONE', ( #92 ), #218, .F. ) ;
#12 = SPHERICAL_SURFACE ( 'NONE', #24, 0.1250000000000000000 ) ;
#13 = DIRECTION ( 'NONE',  ( 0.000000000000000000, 0.000000000000000000, -1.000000000000000000 ) ) ;
#14 = EDGE_CURVE ( 'NONE', #18, #273, #131, .T. ) ;
#15 = CARTESIAN_POINT ( 'NONE',  ( -0.1250000000000000555, 2.500000000000000000, 0.000000000000000000 ) ) ;
#16 =( LENGTH_UNIT ( ) NAMED_UNIT ( * ) SI_UNIT ( $, .METRE. ) );
#17 = FACE_OUTER_BOUND ( 'NONE', #124, .T. ) ;
#18 = VERTEX_POINT ( 'NONE', #219 ) ;
#19 = COLOUR_RGB ( '',0.7921568627450980005, 0.8196078431372548767, 0.9333333333333333481 ) ;
#20 = VERTEX_POINT ( 'NONE', #163 ) ;
#21 = ORIENTED_EDGE ( 'NONE', *, *, #85, .F. ) ;
#22 = EDGE_LOOP ( 'NONE', ( #159, #212, #183, #63, #128 ) ) ;
#23 =( GEOMETRIC_REPRESENTATION_CONTEXT ( 3 ) GLOBAL_UNCERTAINTY_ASSIGNED_CONTEXT ( ( #269 ) ) GLOBAL_UNIT_ASSIGNED_CONTEXT ( ( #198, #232, #347 ) ) REPRESENTATION_CONTEXT ( 'NONE', 'WORKASPACE' ) );
#24 = AXIS2_PLACEMENT_3D ( 'NONE', #155, #355, #91 ) ;
#25 = ORIENTED_EDGE ( 'NONE', *, *, #94, .T. ) ;
#26 = AXIS2_PLACEMENT_3D ( 'NONE', #290, #6, #237 ) ;
#27 = DIRECTION ( 'NONE',  ( -0.000000000000000000, -1.000000000000000000, -0.000000000000000000 ) ) ;
#28 = EDGE_CURVE ( 'NONE', #304, #187, #93, .T. ) ;
#29 = CARTESIAN_POINT ( 'NONE',  ( 1.836970198721029194E-16, 0.5000000000000001110, 0.000000000000000000 ) ) ;
#30 = CYLINDRICAL_SURFACE ( 'NONE', #32, 0.1249999999999999584 ) ;
#31 = MECHANICAL_DESIGN_GEOMETRIC_PRESENTATION_REPRESENTATION (  '', ( #350 ), #315 ) ;
#32 = AXIS2_PLACEMENT_3D ( 'NONE', #109, #348, #74 ) ;
#33 = FACE_OUTER_BOUND ( 'NONE', #22, .T. ) ;
#34 = DIRECTION ( 'NONE',  ( -0.000000000000000000, -1.000000000000000000, -0.000000000000000000 ) ) ;
#35 = FACE_OUTER_BOUND ( 'NONE', #310, .T. ) ;
#36 =( NAMED_UNIT ( * ) SI_UNIT ( $, .STERADIAN. ) SOLID_ANGLE_UNIT ( ) );
#37 = PRODUCT_DEFINITION_CONTEXT ( 'detailed design', #101, 'design' ) ;
#38 = AXIS2_PLACEMENT_3D ( 'NONE', #177, #362, #210 ) ;
#39 = CARTESIAN_POINT ( 'NONE',  ( -0.1250000000000000000, 0.1250000000000000278, 1.530808498934191201E-17 ) ) ;
#40 = CARTESIAN_POINT ( 'NONE',  ( 1.836970198721029194E-16, 0.5000000000000001110, 0.000000000000000000 ) ) ;
#41 = ADVANCED_FACE ( 'NONE', ( #227 ), #75, .T. ) ;
#42 = EDGE_LOOP ( 'NONE', ( #368, #90 ) ) ;
#43 =( GEOMETRIC_REPRESENTATION_CONTEXT ( 3 ) GLOBAL_UNCERTAINTY_ASSIGNED_CONTEXT ( ( #343 ) ) GLOBAL_UNIT_ASSIGNED_CONTEXT ( ( #48, #248, #220 ) ) REPRESENTATION_CONTEXT ( 'NONE', 'WORKASPACE' ) );
#44 =( GEOMETRIC_REPRESENTATION_CONTEXT ( 3 ) GLOBAL_UNCERTAINTY_ASSIGNED_CONTEXT ( ( #236 ) ) GLOBAL_UNIT_ASSIGNED_CONTEXT ( ( #257, #366, #308 ) ) REPRESENTATION_CONTEXT ( 'NONE', 'WORKASPACE' ) );
#45 = ORIENTED_EDGE ( 'NONE', *, *, #226, .T. ) ;
#46 = VERTEX_POINT ( 'NONE', #39 ) ;
#47 = EDGE_CURVE ( 'NONE', #20, #162, #339, .T. ) ;
#48 =( CONVERSION_BASED_UNIT ( 'INCH', #191 ) LENGTH_UNIT ( ) NAMED_UNIT ( #264 ) );
#49 = CARTESIAN_POINT ( 'NONE',  ( 1.530808498934191201E-17, 0.000000000000000000, 0.1249999999999999584 ) ) ;
#50 = PRESENTATION_LAYER_ASSIGNMENT (  '', '', ( #367 ) ) ;
#51 = CARTESIAN_POINT ( 'NONE',  ( 0.000000000000000000, 0.1250000000000000278, 0.000000000000000000 ) ) ;
#52 = DIRECTION ( 'NONE',  ( 0.000000000000000000, 0.000000000000000000, -1.000000000000000000 ) ) ;
#53 = VECTOR ( 'NONE', #34, 39.37007874015748143 ) ;
#54 = STYLED_ITEM ( 'NONE', ( #9 ), #335 ) ;
#55 = DIRECTION ( 'NONE',  ( -0.000000000000000000, -1.000000000000000000, -0.000000000000000000 ) ) ;
#56 = LENGTH_MEASURE_WITH_UNIT ( LENGTH_MEASURE( 0.02539999999999999897 ), #324 );
#57 = DIRECTION ( 'NONE',  ( 1.000000000000000000, 1.224646799147352961E-16, 0.000000000000000000 ) ) ;
#58 = SURFACE_SIDE_STYLE ('',( #114 ) ) ;
#59 = DIRECTION ( 'NONE',  ( -1.224646799147352961E-16, 1.000000000000000000, -0.000000000000000000 ) ) ;
#60 = CARTESIAN_POINT ( 'NONE',  ( -7.654042494670957545E-18, 0.000000000000000000, 0.000000000000000000 ) ) ;
#61 = ORIENTED_EDGE ( 'NONE', *, *, #226, .F. ) ;
#62 = UNCERTAINTY_MEASURE_WITH_UNIT (LENGTH_MEASURE( 1.000000000000000082E-05 ), #213, 'distance_accuracy_value', 'NONE');
#63 = ORIENTED_EDGE ( 'NONE', *, *, #275, .F. ) ;
#64 =( NAMED_UNIT ( * ) PLANE_ANGLE_UNIT ( ) SI_UNIT ( $, .RADIAN. ) );
#65 = ORIENTED_EDGE ( 'NONE', *, *, #47, .T. ) ;
#66 = AXIS2_PLACEMENT_3D ( 'NONE', #179, #88, #145 ) ;
#67 = PRODUCT_DEFINITION_SHAPE ( 'NONE', 'NONE',  #233 ) ;
#68 = EDGE_CURVE ( 'NONE', #249, #20, #265, .T. ) ;
#69 = ORIENTED_EDGE ( 'NONE', *, *, #71, .T. ) ;
#70 = DIRECTION ( 'NONE',  ( -1.000000000000000000, -1.224646799147352961E-16, 0.000000000000000000 ) ) ;
#71 = EDGE_CURVE ( 'NONE', #249, #18, #280, .T. ) ;
#72 = AXIS2_PLACEMENT_3D ( 'NONE', #206, #154, #204 ) ;
#73 = SURFACE_STYLE_FILL_AREA ( #108 ) ;
#74 = DIRECTION ( 'NONE',  ( 0.000000000000000000, 0.000000000000000000, -1.000000000000000000 ) ) ;
#75 = CYLINDRICAL_SURFACE ( 'NONE', #150, 0.1249999999999999584 ) ;
#76 = FACE_OUTER_BOUND ( 'NONE', #122, .T. ) ;
#77 = ADVANCED_FACE ( 'NONE', ( #267 ), #353, .F. ) ;
#78 = SURFACE_STYLE_FILL_AREA ( #287 ) ;
#79 = CYLINDRICAL_SURFACE ( 'NONE', #328, 0.1249999999999998612 ) ;
#80 = CARTESIAN_POINT ( 'NONE',  ( -6.123233995736766036E-17, 2.500000000000000000, 0.000000000000000000 ) ) ;
#81 = CARTESIAN_POINT ( 'NONE',  ( 0.1250000000000000000, 0.1250000000000000278, 0.000000000000000000 ) ) ;
#82 = COLOUR_RGB ( '',1.000000000000000000, 0.000000000000000000, 0.000000000000000000 ) ;
#83 =( GEOMETRIC_REPRESENTATION_CONTEXT ( 3 ) GLOBAL_UNCERTAINTY_ASSIGNED_CONTEXT ( ( #62 ) ) GLOBAL_UNIT_ASSIGNED_CONTEXT ( ( #213, #305, #332 ) ) REPRESENTATION_CONTEXT ( 'NONE', 'WORKASPACE' ) );
#84 = SPHERICAL_SURFACE ( 'NONE', #72, 0.1250000000000000000 ) ;
#85 = EDGE_CURVE ( 'NONE', #187, #309, #116, .T. ) ;
#86 = UNCERTAINTY_MEASURE_WITH_UNIT (LENGTH_MEASURE( 1.000000000000000082E-05 ), #372, 'distance_accuracy_value', 'NONE');
#87 =( LENGTH_UNIT ( ) NAMED_UNIT ( * ) SI_UNIT ( $, .METRE. ) );
#88 = DIRECTION ( 'NONE',  ( -0.000000000000000000, -1.000000000000000000, -0.000000000000000000 ) ) ;
#89 = PRESENTATION_LAYER_ASSIGNMENT (  '', '', ( #350 ) ) ;
#90 = ORIENTED_EDGE ( 'NONE', *, *, #28, .F. ) ;
#91 = DIRECTION ( 'NONE',  ( 1.000000000000000000, 0.000000000000000000, 0.000000000000000000 ) ) ;
#92 = FACE_OUTER_BOUND ( 'NONE', #42, .T. ) ;
#93 = CIRCLE ( 'NONE', #142, 0.1249999999999997641 ) ;
#94 = EDGE_CURVE ( 'NONE', #187, #304, #223, .T. ) ;
#95 = ORIENTED_EDGE ( 'NONE', *, *, #303, .T. ) ;
#96 = PRESENTATION_STYLE_ASSIGNMENT (( #369 ) ) ;
#97 = SURFACE_STYLE_FILL_AREA ( #323 ) ;
#98 = COLOUR_RGB ( '',0.7921568627450980005, 0.8196078431372548767, 0.9333333333333333481 ) ;
#99 = CARTESIAN_POINT ( 'NONE',  ( 0.000000000000000000, 0.5000000000000000000, 0.000000000000000000 ) ) ;
#100 = MECHANICAL_DESIGN_GEOMETRIC_PRESENTATION_REPRESENTATION (  '', ( #119 ), #186 ) ;
#101 = APPLICATION_CONTEXT ( 'automotive_design' ) ;
#102 = CARTESIAN_POINT ( 'NONE',  ( 1.530808498934191509E-17, 0.1250000000000000278, 0.1250000000000000000 ) ) ;
#103 = FILL_AREA_STYLE_COLOUR ( '', #98 ) ;
#104 = FILL_AREA_STYLE ('',( #255 ) ) ;
#105 = DIMENSIONAL_EXPONENTS ( 1.000000000000000000, 0.000000000000000000, 0.000000000000000000, 0.000000000000000000, 0.000000000000000000, 0.000000000000000000, 0.000000000000000000 ) ;
#106 = CIRCLE ( 'NONE', #164, 0.1250000000000000000 ) ;
#107 = DIRECTION ( 'NONE',  ( -0.000000000000000000, -1.000000000000000000, -0.000000000000000000 ) ) ;
#108 = FILL_AREA_STYLE ('',( #103 ) ) ;
#109 = CARTESIAN_POINT ( 'NONE',  ( 0.000000000000000000, 0.000000000000000000, 0.000000000000000000 ) ) ;
#110 = DIRECTION ( 'NONE',  ( -1.224646799147352961E-16, 1.000000000000000000, -0.000000000000000000 ) ) ;
#111 = FILL_AREA_STYLE ('',( #146 ) ) ;
#112 = CARTESIAN_POINT ( 'NONE',  ( -6.123233995736766036E-17, 2.500000000000000000, 0.000000000000000000 ) ) ;
#113 = VECTOR ( 'NONE', #8, 39.37007874015748143 ) ;
#114 = SURFACE_STYLE_FILL_AREA ( #152 ) ;
#115 =( NAMED_UNIT ( * ) SI_UNIT ( $, .STERADIAN. ) SOLID_ANGLE_UNIT ( ) );
#116 = LINE ( 'NONE', #291, #113 ) ;
#117 = FACE_OUTER_BOUND ( 'NONE', #244, .T. ) ;
#118 = APPLICATION_PROTOCOL_DEFINITION ( 'draft international standard', 'automotive_design', 1998, #325 ) ;
#119 = STYLED_ITEM ( 'NONE', ( #171 ), #276 ) ;
#120 = ORIENTED_EDGE ( 'NONE', *, *, #71, .F. ) ;
#121 = LENGTH_MEASURE_WITH_UNIT ( LENGTH_MEASURE( 0.02539999999999999897 ), #337 );
#122 = EDGE_LOOP ( 'NONE', ( #120, #274 ) ) ;
#123 = PRODUCT_CONTEXT ( 'NONE', #325, 'mechanical' ) ;
#124 = EDGE_LOOP ( 'NONE', ( #216, #363, #242, #45 ) ) ;
#125 = DIRECTION ( 'NONE',  ( -0.000000000000000000, -1.000000000000000000, -0.000000000000000000 ) ) ;
#126 = STYLED_ITEM ( 'NONE', ( #96 ), #195 ) ;
#127 =( NAMED_UNIT ( * ) SI_UNIT ( $, .STERADIAN. ) SOLID_ANGLE_UNIT ( ) );
#128 = ORIENTED_EDGE ( 'NONE', *, *, #261, .F. ) ;
#129 = DIRECTION ( 'NONE',  ( -1.224646799147352961E-16, 1.000000000000000000, -0.000000000000000000 ) ) ;
#130 = PRODUCT_RELATED_PRODUCT_CATEGORY ( 'part', '', ( #199 ) ) ;
#131 = LINE ( 'NONE', #49, #157 ) ;
#132 = CARTESIAN_POINT ( 'NONE',  ( 0.000000000000000000, 0.5000000000000000000, -0.1249999999999999306 ) ) ;
#133 = AXIS2_PLACEMENT_3D ( 'NONE', #40, #110, #349 ) ;
#134 = DIRECTION ( 'NONE',  ( 1.000000000000000000, 0.000000000000000000, -1.224646799147353207E-16 ) ) ;
#135 = SURFACE_SIDE_STYLE ('',( #78 ) ) ;
#136 = UNCERTAINTY_MEASURE_WITH_UNIT (LENGTH_MEASURE( 1.000000000000000082E-05 ), #211, 'distance_accuracy_value', 'NONE');
#137 = CARTESIAN_POINT ( 'NONE',  ( 0.1249999999999999167, 2.500000000000000000, 1.530808498934190585E-17 ) ) ;
#138 = DIMENSIONAL_EXPONENTS ( 1.000000000000000000, 0.000000000000000000, 0.000000000000000000, 0.000000000000000000, 0.000000000000000000, 0.000000000000000000, 0.000000000000000000 ) ;
#139 = ADVANCED_BREP_SHAPE_REPRESENTATION ( '17155', ( #172, #176, #329 ), #83 ) ;
#140 = DIRECTION ( 'NONE',  ( 0.000000000000000000, 0.000000000000000000, -1.000000000000000000 ) ) ;
#141 = LENGTH_MEASURE_WITH_UNIT ( LENGTH_MEASURE( 0.02539999999999999897 ), #87 );
#142 = AXIS2_PLACEMENT_3D ( 'NONE', #29, #129, #253 ) ;
#143 = CIRCLE ( 'NONE', #192, 0.1250000000000000000 ) ;
#144 = UNCERTAINTY_MEASURE_WITH_UNIT (LENGTH_MEASURE( 1.000000000000000082E-05 ), #364, 'distance_accuracy_value', 'NONE');
#145 = DIRECTION ( 'NONE',  ( 0.000000000000000000, 0.000000000000000000, -1.000000000000000000 ) ) ;
#146 = FILL_AREA_STYLE_COLOUR ( '', #215 ) ;
#147 = DIRECTION ( 'NONE',  ( -0.000000000000000000, -1.000000000000000000, -0.000000000000000000 ) ) ;
#148 = DIMENSIONAL_EXPONENTS ( 1.000000000000000000, 0.000000000000000000, 0.000000000000000000, 0.000000000000000000, 0.000000000000000000, 0.000000000000000000, 0.000000000000000000 ) ;
#149 = LENGTH_MEASURE_WITH_UNIT ( LENGTH_MEASURE( 0.02539999999999999897 ), #5 );
#150 = AXIS2_PLACEMENT_3D ( 'NONE', #321, #147, #13 ) ;
#151 = AXIS2_PLACEMENT_3D ( 'NONE', #1, #327, #318 ) ;
#152 = FILL_AREA_STYLE ('',( #182 ) ) ;
#153 = CARTESIAN_POINT ( 'NONE',  ( 0.000000000000000000, 0.1250000000000000278, 0.000000000000000000 ) ) ;
#154 = DIRECTION ( 'NONE',  ( 0.000000000000000000, 0.000000000000000000, 1.000000000000000000 ) ) ;
#155 = CARTESIAN_POINT ( 'NONE',  ( -1.530808498934191509E-17, 0.1250000000000000000, 0.000000000000000000 ) ) ;
#156 = ORIENTED_EDGE ( 'NONE', *, *, #14, .T. ) ;
#157 = VECTOR ( 'NONE', #125, 39.37007874015748143 ) ;
#158 = EDGE_LOOP ( 'NONE', ( #161, #184 ) ) ;
#159 = ORIENTED_EDGE ( 'NONE', *, *, #14, .F. ) ;
#160 = SHAPE_DEFINITION_REPRESENTATION ( #67, #139 ) ;
#161 = ORIENTED_EDGE ( 'NONE', *, *, #344, .T. ) ;
#162 = VERTEX_POINT ( 'NONE', #81 ) ;
#163 = CARTESIAN_POINT ( 'NONE',  ( 0.000000000000000000, 0.1250000000000000278, -0.1250000000000000000 ) ) ;
#164 = AXIS2_PLACEMENT_3D ( 'NONE', #51, #107, #168 ) ;
#165 = DIRECTION ( 'NONE',  ( 1.224646799147353207E-16, -0.000000000000000000, 1.000000000000000000 ) ) ;
#166 = EDGE_CURVE ( 'NONE', #277, #309, #169, .T. ) ;
#167 =( NAMED_UNIT ( * ) SI_UNIT ( $, .STERADIAN. ) SOLID_ANGLE_UNIT ( ) );
#168 = DIRECTION ( 'NONE',  ( 0.000000000000000000, 0.000000000000000000, -1.000000000000000000 ) ) ;
#169 = CIRCLE ( 'NONE', #239, 0.1250000000000000000 ) ;
#170 = SURFACE_STYLE_USAGE ( .BOTH. , #345 ) ;
#171 = PRESENTATION_STYLE_ASSIGNMENT (( #256 ) ) ;
#172 = MANIFOLD_SOLID_BREP ( 'Revolve - Cutting Edge', #359 ) ;
#173 = AXIS2_PLACEMENT_3D ( 'NONE', #326, #294, #57 ) ;
#174 = STYLED_ITEM ( 'NONE', ( #205 ), #299 ) ;
#175 =( CONVERSION_BASED_UNIT ( 'INCH', #56 ) LENGTH_UNIT ( ) NAMED_UNIT ( #178 ) );
#176 = MANIFOLD_SOLID_BREP ( 'Revolve - Tool Body (Straight Shanked)', #235 ) ;
#177 = CARTESIAN_POINT ( 'NONE',  ( -6.123233995736766036E-17, 2.500000000000000000, 0.000000000000000000 ) ) ;
#178 = DIMENSIONAL_EXPONENTS ( 1.000000000000000000, 0.000000000000000000, 0.000000000000000000, 0.000000000000000000, 0.000000000000000000, 0.000000000000000000, 0.000000000000000000 ) ;
#179 = CARTESIAN_POINT ( 'NONE',  ( 0.000000000000000000, 0.5000000000000000000, 0.000000000000000000 ) ) ;
#180 = EDGE_CURVE ( 'NONE', #46, #333, #250, .T. ) ;
#181 = CARTESIAN_POINT ( 'NONE',  ( 0.000000000000000000, 0.000000000000000000, -0.1249999999999999584 ) ) ;
#182 = FILL_AREA_STYLE_COLOUR ( '', #193 ) ;
#183 = ORIENTED_EDGE ( 'NONE', *, *, #68, .T. ) ;
#184 = ORIENTED_EDGE ( 'NONE', *, *, #166, .T. ) ;
#185 = COLOUR_RGB ( '',1.000000000000000000, 0.000000000000000000, 0.000000000000000000 ) ;
#186 =( GEOMETRIC_REPRESENTATION_CONTEXT ( 3 ) GLOBAL_UNCERTAINTY_ASSIGNED_CONTEXT ( ( #86 ) ) GLOBAL_UNIT_ASSIGNED_CONTEXT ( ( #372, #229, #167 ) ) REPRESENTATION_CONTEXT ( 'NONE', 'WORKASPACE' ) );
#187 = VERTEX_POINT ( 'NONE', #373 ) ;
#188 =( LENGTH_UNIT ( ) NAMED_UNIT ( * ) SI_UNIT ( $, .METRE. ) );
#189 = ORIENTED_EDGE ( 'NONE', *, *, #344, .F. ) ;
#190 = LENGTH_MEASURE_WITH_UNIT ( LENGTH_MEASURE( 0.02539999999999999897 ), #16 );
#191 = LENGTH_MEASURE_WITH_UNIT ( LENGTH_MEASURE( 0.02539999999999999897 ), #188 );
#192 = AXIS2_PLACEMENT_3D ( 'NONE', #259, #231, #140 ) ;
#193 = COLOUR_RGB ( '',1.000000000000000000, 0.000000000000000000, 0.000000000000000000 ) ;
#194 = PRESENTATION_LAYER_ASSIGNMENT (  '', '', ( #174 ) ) ;
#195 = ADVANCED_FACE ( 'NONE', ( #76 ), #279, .T. ) ;
#196 = PRESENTATION_LAYER_ASSIGNMENT (  '', '', ( #54 ) ) ;
#197 = LENGTH_MEASURE_WITH_UNIT ( LENGTH_MEASURE( 0.02539999999999999897 ), #283 );
#198 =( CONVERSION_BASED_UNIT ( 'INCH', #225 ) LENGTH_UNIT ( ) NAMED_UNIT ( #7 ) );
#199 = PRODUCT ( '17155', '17155', '', ( #123 ) ) ;
#200 = FACE_OUTER_BOUND ( 'NONE', #307, .T. ) ;
#201 = MECHANICAL_DESIGN_GEOMETRIC_PRESENTATION_REPRESENTATION (  '', ( #263 ), #43 ) ;
#202 =( GEOMETRIC_REPRESENTATION_CONTEXT ( 3 ) GLOBAL_UNCERTAINTY_ASSIGNED_CONTEXT ( ( #297 ) ) GLOBAL_UNIT_ASSIGNED_CONTEXT ( ( #175, #295, #115 ) ) REPRESENTATION_CONTEXT ( 'NONE', 'WORKASPACE' ) );
#203 = DIRECTION ( 'NONE',  ( 0.000000000000000000, 0.000000000000000000, -1.000000000000000000 ) ) ;
#204 = DIRECTION ( 'NONE',  ( 1.000000000000000000, 0.000000000000000000, 0.000000000000000000 ) ) ;
#205 = PRESENTATION_STYLE_ASSIGNMENT (( #266 ) ) ;
#206 = CARTESIAN_POINT ( 'NONE',  ( -1.530808498934191509E-17, 0.1250000000000000000, 0.000000000000000000 ) ) ;
#207 = CARTESIAN_POINT ( 'NONE',  ( 0.000000000000000000, 0.000000000000000000, 0.000000000000000000 ) ) ;
#208 = AXIS2_PLACEMENT_3D ( 'NONE', #281, #27, #52 ) ;
#209 = ORIENTED_EDGE ( 'NONE', *, *, #180, .F. ) ;
#210 = DIRECTION ( 'NONE',  ( -1.000000000000000000, 0.000000000000000000, 0.000000000000000000 ) ) ;
#211 =( CONVERSION_BASED_UNIT ( 'INCH', #149 ) LENGTH_UNIT ( ) NAMED_UNIT ( #105 ) );
#212 = ORIENTED_EDGE ( 'NONE', *, *, #317, .T. ) ;
#213 =( CONVERSION_BASED_UNIT ( 'INCH', #190 ) LENGTH_UNIT ( ) NAMED_UNIT ( #148 ) );
#214 = ORIENTED_EDGE ( 'NONE', *, *, #275, .T. ) ;
#215 = COLOUR_RGB ( '',1.000000000000000000, 0.000000000000000000, 0.000000000000000000 ) ;
#216 = ORIENTED_EDGE ( 'NONE', *, *, #261, .T. ) ;
#217 = DIRECTION ( 'NONE',  ( 0.000000000000000000, 0.000000000000000000, 1.000000000000000000 ) ) ;
#218 = PLANE ( 'NONE',  #288 ) ;
#219 = CARTESIAN_POINT ( 'NONE',  ( 1.530808498934190893E-17, 0.5000000000000000000, 0.1249999999999999306 ) ) ;
#220 =( NAMED_UNIT ( * ) SI_UNIT ( $, .STERADIAN. ) SOLID_ANGLE_UNIT ( ) );
#221 = SURFACE_SIDE_STYLE ('',( #251 ) ) ;
#222 = PRESENTATION_STYLE_ASSIGNMENT (( #278 ) ) ;
#223 = CIRCLE ( 'NONE', #133, 0.1249999999999997641 ) ;
#224 = CIRCLE ( 'NONE', #360, 0.1249999999999999306 ) ;
#225 = LENGTH_MEASURE_WITH_UNIT ( LENGTH_MEASURE( 0.02539999999999999897 ), #371 );
#226 = EDGE_CURVE ( 'NONE', #162, #273, #143, .T. ) ;
#227 = FACE_OUTER_BOUND ( 'NONE', #302, .T. ) ;
#228 = DIMENSIONAL_EXPONENTS ( 1.000000000000000000, 0.000000000000000000, 0.000000000000000000, 0.000000000000000000, 0.000000000000000000, 0.000000000000000000, 0.000000000000000000 ) ;
#229 =( NAMED_UNIT ( * ) PLANE_ANGLE_UNIT ( ) SI_UNIT ( $, .RADIAN. ) );
#230 = SURFACE_STYLE_FILL_AREA ( #104 ) ;
#231 = DIRECTION ( 'NONE',  ( -0.000000000000000000, -1.000000000000000000, -0.000000000000000000 ) ) ;
#232 =( NAMED_UNIT ( * ) PLANE_ANGLE_UNIT ( ) SI_UNIT ( $, .RADIAN. ) );
#233 = PRODUCT_DEFINITION ( 'UNKNOWN', '', #282, #37 ) ;
#234 = SURFACE_STYLE_FILL_AREA ( #111 ) ;
#235 = CLOSED_SHELL ( 'NONE', ( #245, #11, #314, #77 ) ) ;
#236 = UNCERTAINTY_MEASURE_WITH_UNIT (LENGTH_MEASURE( 1.000000000000000082E-05 ), #257, 'distance_accuracy_value', 'NONE');
#237 = DIRECTION ( 'NONE',  ( -1.000000000000000000, 0.000000000000000000, 0.000000000000000000 ) ) ;
#238 = APPLICATION_PROTOCOL_DEFINITION ( 'draft international standard', 'automotive_design', 1998, #101 ) ;
#239 = AXIS2_PLACEMENT_3D ( 'NONE', #112, #59, #300 ) ;
#240 = VECTOR ( 'NONE', #268, 39.37007874015748143 ) ;
#241 = CYLINDRICAL_SURFACE ( 'NONE', #26, 0.1249999999999998612 ) ;
#242 = ORIENTED_EDGE ( 'NONE', *, *, #292, .F. ) ;
#243 = ORIENTED_EDGE ( 'NONE', *, *, #68, .F. ) ;
#244 = EDGE_LOOP ( 'NONE', ( #334, #365, #270, #331 ) ) ;
#245 = ADVANCED_FACE ( 'NONE', ( #200 ), #79, .T. ) ;
#246 = SURFACE_SIDE_STYLE ('',( #97 ) ) ;
#247 = CARTESIAN_POINT ( 'NONE',  ( 1.836970198721029441E-16, 0.5000000000000000000, 0.000000000000000000 ) ) ;
#248 =( NAMED_UNIT ( * ) PLANE_ANGLE_UNIT ( ) SI_UNIT ( $, .RADIAN. ) );
#249 = VERTEX_POINT ( 'NONE', #132 ) ;
#250 = CIRCLE ( 'NONE', #296, 0.1250000000000000000 ) ;
#251 = SURFACE_STYLE_FILL_AREA ( #342 ) ;
#252 = PRESENTATION_STYLE_ASSIGNMENT (( #286 ) ) ;
#253 = DIRECTION ( 'NONE',  ( -1.000000000000000000, 0.000000000000000000, 0.000000000000000000 ) ) ;
#254 = CARTESIAN_POINT ( 'NONE',  ( -1.530808498934191509E-17, 0.1250000000000000000, 0.000000000000000000 ) ) ;
#255 = FILL_AREA_STYLE_COLOUR ( '', #185 ) ;
#256 = SURFACE_STYLE_USAGE ( .BOTH. , #135 ) ;
#257 =( CONVERSION_BASED_UNIT ( 'INCH', #141 ) LENGTH_UNIT ( ) NAMED_UNIT ( #322 ) );
#258 = COLOUR_RGB ( '',1.000000000000000000, 0.000000000000000000, 0.000000000000000000 ) ;
#259 = CARTESIAN_POINT ( 'NONE',  ( 0.000000000000000000, 0.1250000000000000278, 0.000000000000000000 ) ) ;
#260 = CARTESIAN_POINT ( 'NONE',  ( 0.1249999999999999445, 0.5000000000000001110, 1.530808498934190893E-17 ) ) ;
#261 = EDGE_CURVE ( 'NONE', #273, #46, #106, .T. ) ;
#262 = SURFACE_STYLE_USAGE ( .BOTH. , #293 ) ;
#263 = STYLED_ITEM ( 'NONE', ( #252 ), #176 ) ;
#264 = DIMENSIONAL_EXPONENTS ( 1.000000000000000000, 0.000000000000000000, 0.000000000000000000, 0.000000000000000000, 0.000000000000000000, 0.000000000000000000, 0.000000000000000000 ) ;
#265 = LINE ( 'NONE', #181, #53 ) ;
#266 = SURFACE_STYLE_USAGE ( .BOTH. , #58 ) ;
#267 = FACE_OUTER_BOUND ( 'NONE', #158, .T. ) ;
#268 = DIRECTION ( 'NONE',  ( -1.224646799147352961E-16, 1.000000000000000000, -0.000000000000000000 ) ) ;
#269 = UNCERTAINTY_MEASURE_WITH_UNIT (LENGTH_MEASURE( 1.000000000000000082E-05 ), #198, 'distance_accuracy_value', 'NONE');
#270 = ORIENTED_EDGE ( 'NONE', *, *, #85, .T. ) ;
#271 =( GEOMETRIC_REPRESENTATION_CONTEXT ( 3 ) GLOBAL_UNCERTAINTY_ASSIGNED_CONTEXT ( ( #144 ) ) GLOBAL_UNIT_ASSIGNED_CONTEXT ( ( #364, #64, #127 ) ) REPRESENTATION_CONTEXT ( 'NONE', 'WORKASPACE' ) );
#272 = MECHANICAL_DESIGN_GEOMETRIC_PRESENTATION_REPRESENTATION (  '', ( #54 ), #44 ) ;
#273 = VERTEX_POINT ( 'NONE', #102 ) ;
#274 = ORIENTED_EDGE ( 'NONE', *, *, #317, .F. ) ;
#275 = EDGE_CURVE ( 'NONE', #46, #20, #3, .T. ) ;
#276 = ADVANCED_FACE ( 'NONE', ( #33 ), #30, .T. ) ;
#277 = VERTEX_POINT ( 'NONE', #137 ) ;
#278 = SURFACE_STYLE_USAGE ( .BOTH. , #246 ) ;
#279 = PLANE ( 'NONE',  #306 ) ;
#280 = CIRCLE ( 'NONE', #66, 0.1249999999999999306 ) ;
#281 = CARTESIAN_POINT ( 'NONE',  ( 0.000000000000000000, 0.1250000000000000278, 0.000000000000000000 ) ) ;
#282 = PRODUCT_DEFINITION_FORMATION_WITH_SPECIFIED_SOURCE ( 'ANY', '', #199, .NOT_KNOWN. ) ;
#283 =( LENGTH_UNIT ( ) NAMED_UNIT ( * ) SI_UNIT ( $, .METRE. ) );
#284 = FILL_AREA_STYLE_COLOUR ( '', #82 ) ;
#285 = PRESENTATION_STYLE_ASSIGNMENT (( #170 ) ) ;
#286 = SURFACE_STYLE_USAGE ( .BOTH. , #2 ) ;
#287 = FILL_AREA_STYLE ('',( #341 ) ) ;
#288 = AXIS2_PLACEMENT_3D ( 'NONE', #247, #338, #70 ) ;
#289 = DIRECTION ( 'NONE',  ( -0.000000000000000000, -1.000000000000000000, -0.000000000000000000 ) ) ;
#290 = CARTESIAN_POINT ( 'NONE',  ( -6.123233995736766036E-17, 2.500000000000000000, 0.000000000000000000 ) ) ;
#291 = CARTESIAN_POINT ( 'NONE',  ( -0.1249999999999999306, 2.500000000000000000, 0.000000000000000000 ) ) ;
#292 = EDGE_CURVE ( 'NONE', #162, #333, #340, .T. ) ;
#293 = SURFACE_SIDE_STYLE ('',( #234 ) ) ;
#294 = DIRECTION ( 'NONE',  ( 1.224646799147352961E-16, -1.000000000000000000, 0.000000000000000000 ) ) ;
#295 =( NAMED_UNIT ( * ) PLANE_ANGLE_UNIT ( ) SI_UNIT ( $, .RADIAN. ) );
#296 = AXIS2_PLACEMENT_3D ( 'NONE', #254, #165, #134 ) ;
#297 = UNCERTAINTY_MEASURE_WITH_UNIT (LENGTH_MEASURE( 1.000000000000000082E-05 ), #175, 'distance_accuracy_value', 'NONE');
#298 = DIRECTION ( 'NONE',  ( 1.000000000000000000, 0.000000000000000000, 0.000000000000000000 ) ) ;
#299 = ADVANCED_FACE ( 'NONE', ( #17 ), #84, .T. ) ;
#300 = DIRECTION ( 'NONE',  ( -1.000000000000000000, 0.000000000000000000, 0.000000000000000000 ) ) ;
#301 = CARTESIAN_POINT ( 'NONE',  ( 0.1249999999999997918, 2.500000000000000000, 1.530808498934189660E-17 ) ) ;
#302 = EDGE_LOOP ( 'NONE', ( #69, #156, #61, #336, #243 ) ) ;
#303 = EDGE_CURVE ( 'NONE', #304, #277, #354, .T. ) ;
#304 = VERTEX_POINT ( 'NONE', #260 ) ;
#305 =( NAMED_UNIT ( * ) PLANE_ANGLE_UNIT ( ) SI_UNIT ( $, .RADIAN. ) );
#306 = AXIS2_PLACEMENT_3D ( 'NONE', #99, #312, #313 ) ;
#307 = EDGE_LOOP ( 'NONE', ( #25, #95, #189, #21 ) ) ;
#308 =( NAMED_UNIT ( * ) SI_UNIT ( $, .STERADIAN. ) SOLID_ANGLE_UNIT ( ) );
#309 = VERTEX_POINT ( 'NONE', #15 ) ;
#310 = EDGE_LOOP ( 'NONE', ( #209, #214, #65, #361 ) ) ;
#311 = MECHANICAL_DESIGN_GEOMETRIC_PRESENTATION_REPRESENTATION (  '', ( #126 ), #23 ) ;
#312 = DIRECTION ( 'NONE',  ( 0.000000000000000000, 1.000000000000000000, 0.000000000000000000 ) ) ;
#313 = DIRECTION ( 'NONE',  ( 0.000000000000000000, -0.000000000000000000, 1.000000000000000000 ) ) ;
#314 = ADVANCED_FACE ( 'NONE', ( #117 ), #241, .T. ) ;
#315 =( GEOMETRIC_REPRESENTATION_CONTEXT ( 3 ) GLOBAL_UNCERTAINTY_ASSIGNED_CONTEXT ( ( #136 ) ) GLOBAL_UNIT_ASSIGNED_CONTEXT ( ( #211, #356, #36 ) ) REPRESENTATION_CONTEXT ( 'NONE', 'WORKASPACE' ) );
#316 = PRESENTATION_LAYER_ASSIGNMENT (  '', '', ( #119 ) ) ;
#317 = EDGE_CURVE ( 'NONE', #18, #249, #224, .T. ) ;
#318 = DIRECTION ( 'NONE',  ( -1.000000000000000000, 0.000000000000000000, 0.000000000000000000 ) ) ;
#319 = PRESENTATION_LAYER_ASSIGNMENT (  '', '', ( #263 ) ) ;
#320 = MECHANICAL_DESIGN_GEOMETRIC_PRESENTATION_REPRESENTATION (  '', ( #174 ), #202 ) ;
#321 = CARTESIAN_POINT ( 'NONE',  ( 0.000000000000000000, 0.000000000000000000, 0.000000000000000000 ) ) ;
#322 = DIMENSIONAL_EXPONENTS ( 1.000000000000000000, 0.000000000000000000, 0.000000000000000000, 0.000000000000000000, 0.000000000000000000, 0.000000000000000000, 0.000000000000000000 ) ;
#323 = FILL_AREA_STYLE ('',( #352 ) ) ;
#324 =( LENGTH_UNIT ( ) NAMED_UNIT ( * ) SI_UNIT ( $, .METRE. ) );
#325 = APPLICATION_CONTEXT ( 'automotive_design' ) ;
#326 = CARTESIAN_POINT ( 'NONE',  ( 0.1249999999999999306, 2.500000000000000000, 0.000000000000000000 ) ) ;
#327 = DIRECTION ( 'NONE',  ( 0.000000000000000000, 0.000000000000000000, -1.000000000000000000 ) ) ;
#328 = AXIS2_PLACEMENT_3D ( 'NONE', #80, #4, #346 ) ;
#329 = AXIS2_PLACEMENT_3D ( 'NONE', #207, #217, #298 ) ;
#330 = DIRECTION ( 'NONE',  ( 0.000000000000000000, 0.000000000000000000, -1.000000000000000000 ) ) ;
#331 = ORIENTED_EDGE ( 'NONE', *, *, #166, .F. ) ;
#332 =( NAMED_UNIT ( * ) SI_UNIT ( $, .STERADIAN. ) SOLID_ANGLE_UNIT ( ) );
#333 = VERTEX_POINT ( 'NONE', #60 ) ;
#334 = ORIENTED_EDGE ( 'NONE', *, *, #303, .F. ) ;
#335 = ADVANCED_FACE ( 'NONE', ( #35 ), #12, .T. ) ;
#336 = ORIENTED_EDGE ( 'NONE', *, *, #47, .F. ) ;
#337 =( LENGTH_UNIT ( ) NAMED_UNIT ( * ) SI_UNIT ( $, .METRE. ) );
#338 = DIRECTION ( 'NONE',  ( -1.224646799147352961E-16, 1.000000000000000000, 0.000000000000000000 ) ) ;
#339 = CIRCLE ( 'NONE', #370, 0.1250000000000000000 ) ;
#340 = CIRCLE ( 'NONE', #151, 0.1250000000000000000 ) ;
#341 = FILL_AREA_STYLE_COLOUR ( '', #258 ) ;
#342 = FILL_AREA_STYLE ('',( #284 ) ) ;
#343 = UNCERTAINTY_MEASURE_WITH_UNIT (LENGTH_MEASURE( 1.000000000000000082E-05 ), #48, 'distance_accuracy_value', 'NONE');
#344 = EDGE_CURVE ( 'NONE', #309, #277, #351, .T. ) ;
#345 = SURFACE_SIDE_STYLE ('',( #230 ) ) ;
#346 = DIRECTION ( 'NONE',  ( -1.000000000000000000, 0.000000000000000000, 0.000000000000000000 ) ) ;
#347 =( NAMED_UNIT ( * ) SI_UNIT ( $, .STERADIAN. ) SOLID_ANGLE_UNIT ( ) );
#348 = DIRECTION ( 'NONE',  ( -0.000000000000000000, -1.000000000000000000, -0.000000000000000000 ) ) ;
#349 = DIRECTION ( 'NONE',  ( -1.000000000000000000, 0.000000000000000000, 0.000000000000000000 ) ) ;
#350 = STYLED_ITEM ( 'NONE', ( #285 ), #41 ) ;
#351 = CIRCLE ( 'NONE', #38, 0.1250000000000000000 ) ;
#352 = FILL_AREA_STYLE_COLOUR ( '', #19 ) ;
#353 = PLANE ( 'NONE',  #173 ) ;
#354 = LINE ( 'NONE', #301, #240 ) ;
#355 = DIRECTION ( 'NONE',  ( 0.000000000000000000, 0.000000000000000000, 1.000000000000000000 ) ) ;
#356 =( NAMED_UNIT ( * ) PLANE_ANGLE_UNIT ( ) SI_UNIT ( $, .RADIAN. ) );
#357 = CARTESIAN_POINT ( 'NONE',  ( 0.000000000000000000, 0.5000000000000000000, 0.000000000000000000 ) ) ;
#358 = PRESENTATION_LAYER_ASSIGNMENT (  '', '', ( #126 ) ) ;
#359 = CLOSED_SHELL ( 'NONE', ( #299, #41, #195, #276, #335 ) ) ;
#360 = AXIS2_PLACEMENT_3D ( 'NONE', #357, #55, #330 ) ;
#361 = ORIENTED_EDGE ( 'NONE', *, *, #292, .T. ) ;
#362 = DIRECTION ( 'NONE',  ( -1.224646799147352961E-16, 1.000000000000000000, -0.000000000000000000 ) ) ;
#363 = ORIENTED_EDGE ( 'NONE', *, *, #180, .T. ) ;
#364 =( CONVERSION_BASED_UNIT ( 'INCH', #121 ) LENGTH_UNIT ( ) NAMED_UNIT ( #228 ) );
#365 = ORIENTED_EDGE ( 'NONE', *, *, #28, .T. ) ;
#366 =( NAMED_UNIT ( * ) PLANE_ANGLE_UNIT ( ) SI_UNIT ( $, .RADIAN. ) );
#367 = STYLED_ITEM ( 'NONE', ( #222 ), #172 ) ;
#368 = ORIENTED_EDGE ( 'NONE', *, *, #94, .F. ) ;
#369 = SURFACE_STYLE_USAGE ( .BOTH. , #221 ) ;
#370 = AXIS2_PLACEMENT_3D ( 'NONE', #153, #289, #203 ) ;
#371 =( LENGTH_UNIT ( ) NAMED_UNIT ( * ) SI_UNIT ( $, .METRE. ) );
#372 =( CONVERSION_BASED_UNIT ( 'INCH', #197 ) LENGTH_UNIT ( ) NAMED_UNIT ( #138 ) );
#373 = CARTESIAN_POINT ( 'NONE',  ( -0.1249999999999995698, 0.5000000000000001110, 0.000000000000000000 ) ) ;
ENDSEC;
END-ISO-10303-21;
