ISO-10303-21;
HEADER;
FILE_DESCRIPTION (( 'STEP AP214' ),
    '1' );
FILE_NAME ('Micro_BEMM-040-2X.STEP',
    '2021-09-03T13:23:46',
    ( '' ),
    ( '' ),
    'SwSTEP 2.0',
    'SolidWorks 2020',
    '' );
FILE_SCHEMA (( 'AUTOMOTIVE_DESIGN' ));
ENDSEC;

DATA;
#1 = AXIS2_PLACEMENT_3D ( 'NONE', #222, #189, #154 ) ;
#2 =( NAMED_UNIT ( * ) PLANE_ANGLE_UNIT ( ) SI_UNIT ( $, .RADIAN. ) );
#3 = DIRECTION ( 'NONE',  ( -1.000000000000000000, 0.0000000000000000000, 1.224646799147352961E-16 ) ) ;
#4 =( LENGTH_UNIT ( ) NAMED_UNIT ( * ) SI_UNIT ( $, .METRE. ) );
#5 = CARTESIAN_POINT ( 'NONE',  ( 0.0000000000000000000, 0.0000000000000000000, 0.0000000000000000000 ) ) ;
#6 = VECTOR ( 'NONE', #158, 39.37007874015748143 ) ;
#7 = AXIS2_PLACEMENT_3D ( 'NONE', #106, #50, #221 ) ;
#8 = CARTESIAN_POINT ( 'NONE',  ( 0.06374000000000018540, 8.724383797125754882E-18, 1.968503999999999809 ) ) ;
#9 = LENGTH_MEASURE_WITH_UNIT ( LENGTH_MEASURE( 0.02539999999999999897 ), #4 );
#10 = UNCERTAINTY_MEASURE_WITH_UNIT (LENGTH_MEASURE( 1.000000000000000082E-05 ), #134, 'distance_accuracy_value', 'NONE');
#11 = DIRECTION ( 'NONE',  ( 1.000000000000000000, 0.0000000000000000000, 0.0000000000000000000 ) ) ;
#12 = DIRECTION ( 'NONE',  ( -1.224646799147353207E-16, -0.0000000000000000000, -1.000000000000000000 ) ) ;
#13 = VERTEX_POINT ( 'NONE', #179 ) ;
#14 = AXIS2_PLACEMENT_3D ( 'NONE', #220, #318, #80 ) ;
#15 = MECHANICAL_DESIGN_GEOMETRIC_PRESENTATION_REPRESENTATION (  '', ( #187 ), #84 ) ;
#16 = DIRECTION ( 'NONE',  ( 0.0000000000000000000, 0.0000000000000000000, 1.000000000000000000 ) ) ;
#17 = SURFACE_STYLE_USAGE ( .BOTH. , #174 ) ;
#18 = ORIENTED_EDGE ( 'NONE', *, *, #164, .F. ) ;
#19 = ORIENTED_EDGE ( 'NONE', *, *, #102, .F. ) ;
#20 = ORIENTED_EDGE ( 'NONE', *, *, #35, .F. ) ;
#21 = MECHANICAL_DESIGN_GEOMETRIC_PRESENTATION_REPRESENTATION (  '', ( #49 ), #279 ) ;
#22 = ORIENTED_EDGE ( 'NONE', *, *, #261, .F. ) ;
#23 = ORIENTED_EDGE ( 'NONE', *, *, #30, .F. ) ;
#24 = DIMENSIONAL_EXPONENTS ( 1.000000000000000000, 0.0000000000000000000, 0.0000000000000000000, 0.0000000000000000000, 0.0000000000000000000, 0.0000000000000000000, 0.0000000000000000000 ) ;
#25 = DIRECTION ( 'NONE',  ( 0.0000000000000000000, 0.0000000000000000000, -1.000000000000000000 ) ) ;
#26 = DIRECTION ( 'NONE',  ( -1.224646799147353207E-16, -0.0000000000000000000, -1.000000000000000000 ) ) ;
#27 = VECTOR ( 'NONE', #231, 39.37007874015748854 ) ;
#28 = LINE ( 'NONE', #294, #27 ) ;
#29 = CARTESIAN_POINT ( 'NONE',  ( -0.07874000000000000443, 0.0000000000000000000, 1.968503999999999809 ) ) ;
#30 = EDGE_CURVE ( 'NONE', #238, #240, #226, .T. ) ;
#31 = DIRECTION ( 'NONE',  ( 0.0000000000000000000, 0.0000000000000000000, -1.000000000000000000 ) ) ;
#32 = PRESENTATION_STYLE_ASSIGNMENT (( #325 ) ) ;
#33 = CARTESIAN_POINT ( 'NONE',  ( 8.678594253305624695E-17, 0.0000000000000000000, 0.7086609999999999854 ) ) ;
#34 = CARTESIAN_POINT ( 'NONE',  ( 0.0000000000000000000, 0.0000000000000000000, 1.968503999999999809 ) ) ;
#35 = EDGE_CURVE ( 'NONE', #264, #293, #233, .T. ) ;
#36 = DIRECTION ( 'NONE',  ( 1.000000000000000000, 0.0000000000000000000, 0.0000000000000000000 ) ) ;
#37 = DIRECTION ( 'NONE',  ( 1.000000000000000000, 0.0000000000000000000, 0.0000000000000000000 ) ) ;
#38 =( NAMED_UNIT ( * ) SI_UNIT ( $, .STERADIAN. ) SOLID_ANGLE_UNIT ( ) );
#39 = AXIS2_PLACEMENT_3D ( 'NONE', #5, #209, #3 ) ;
#40 = FACE_OUTER_BOUND ( 'NONE', #262, .T. ) ;
#41 = DIRECTION ( 'NONE',  ( 0.0000000000000000000, 0.0000000000000000000, 1.000000000000000000 ) ) ;
#42 = EDGE_LOOP ( 'NONE', ( #143, #271, #152, #45 ) ) ;
#43 = FILL_AREA_STYLE_COLOUR ( '', #299 ) ;
#44 = AXIS2_PLACEMENT_3D ( 'NONE', #254, #90, #117 ) ;
#45 = ORIENTED_EDGE ( 'NONE', *, *, #185, .F. ) ;
#46 = ADVANCED_FACE ( 'NONE', ( #60 ), #230, .T. ) ;
#47 = ORIENTED_EDGE ( 'NONE', *, *, #107, .T. ) ;
#48 = ORIENTED_EDGE ( 'NONE', *, *, #320, .F. ) ;
#49 = STYLED_ITEM ( 'NONE', ( #72 ), #110 ) ;
#50 = DIRECTION ( 'NONE',  ( 0.0000000000000000000, 0.0000000000000000000, -1.000000000000000000 ) ) ;
#51 = EDGE_LOOP ( 'NONE', ( #20, #68, #288, #19 ) ) ;
#52 =( NAMED_UNIT ( * ) SI_UNIT ( $, .STERADIAN. ) SOLID_ANGLE_UNIT ( ) );
#53 = CIRCLE ( 'NONE', #44, 0.07874000000000000443 ) ;
#54 = DIRECTION ( 'NONE',  ( -1.224646799147353207E-16, -0.0000000000000000000, -1.000000000000000000 ) ) ;
#55 = APPLICATION_CONTEXT ( 'automotive_design' ) ;
#56 = ORIENTED_EDGE ( 'NONE', *, *, #317, .T. ) ;
#57 = PRODUCT_DEFINITION ( 'UNKNOWN', '', #270, #265 ) ;
#58 =( LENGTH_UNIT ( ) NAMED_UNIT ( * ) SI_UNIT ( $, .METRE. ) );
#59 = CARTESIAN_POINT ( 'NONE',  ( 0.0000000000000000000, 0.0000000000000000000, 1.968503999999999809 ) ) ;
#60 = FACE_OUTER_BOUND ( 'NONE', #145, .T. ) ;
#61 = AXIS2_PLACEMENT_3D ( 'NONE', #69, #71, #94 ) ;
#62 = DIRECTION ( 'NONE',  ( 0.0000000000000000000, 1.000000000000000000, 0.0000000000000000000 ) ) ;
#63 =( NAMED_UNIT ( * ) PLANE_ANGLE_UNIT ( ) SI_UNIT ( $, .RADIAN. ) );
#64 = EDGE_CURVE ( 'NONE', #76, #281, #129, .T. ) ;
#65 = CARTESIAN_POINT ( 'NONE',  ( -0.07874000000000000443, 0.0000000000000000000, 1.953504000000000129 ) ) ;
#66 =( GEOMETRIC_REPRESENTATION_CONTEXT ( 3 ) GLOBAL_UNCERTAINTY_ASSIGNED_CONTEXT ( ( #213 ) ) GLOBAL_UNIT_ASSIGNED_CONTEXT ( ( #255, #63, #38 ) ) REPRESENTATION_CONTEXT ( 'NONE', 'WORKASPACE' ) );
#67 = SURFACE_STYLE_FILL_AREA ( #92 ) ;
#68 = ORIENTED_EDGE ( 'NONE', *, *, #202, .T. ) ;
#69 = CARTESIAN_POINT ( 'NONE',  ( 0.0000000000000000000, 0.0000000000000000000, 1.968503999999999809 ) ) ;
#70 = ORIENTED_EDGE ( 'NONE', *, *, #224, .F. ) ;
#71 = DIRECTION ( 'NONE',  ( 0.0000000000000000000, 0.0000000000000000000, -1.000000000000000000 ) ) ;
#72 = PRESENTATION_STYLE_ASSIGNMENT (( #17 ) ) ;
#73 = ORIENTED_EDGE ( 'NONE', *, *, #64, .F. ) ;
#74 = AXIS2_PLACEMENT_3D ( 'NONE', #258, #239, #201 ) ;
#75 = AXIS2_PLACEMENT_3D ( 'NONE', #259, #137, #214 ) ;
#76 = VERTEX_POINT ( 'NONE', #8 ) ;
#77 = APPLICATION_PROTOCOL_DEFINITION ( 'draft international standard', 'automotive_design', 1998, #55 ) ;
#78 = AXIS2_PLACEMENT_3D ( 'NONE', #275, #101, #292 ) ;
#79 = CLOSED_SHELL ( 'NONE', ( #323, #196, #277, #97, #291, #251, #282, #181, #82, #312, #46 ) ) ;
#80 = DIRECTION ( 'NONE',  ( -1.000000000000000000, 1.224646799147352961E-16, 0.0000000000000000000 ) ) ;
#81 = CARTESIAN_POINT ( 'NONE',  ( -0.07866125999999989959, 9.633226027589770864E-18, 0.7086609999999999854 ) ) ;
#82 = ADVANCED_FACE ( 'NONE', ( #40 ), #83, .T. ) ;
#83 = CONICAL_SURFACE ( 'NONE', #74, 0.07866125999999999674, 0.1745329251994338637 ) ;
#84 =( GEOMETRIC_REPRESENTATION_CONTEXT ( 3 ) GLOBAL_UNCERTAINTY_ASSIGNED_CONTEXT ( ( #10 ) ) GLOBAL_UNIT_ASSIGNED_CONTEXT ( ( #134, #2, #52 ) ) REPRESENTATION_CONTEXT ( 'NONE', 'WORKASPACE' ) );
#85 = CYLINDRICAL_SURFACE ( 'NONE', #135, 0.07866125999999999674 ) ;
#86 = DIRECTION ( 'NONE',  ( 0.0000000000000000000, 0.0000000000000000000, 1.000000000000000000 ) ) ;
#87 = CARTESIAN_POINT ( 'NONE',  ( 8.678594253305624695E-17, 0.0000000000000000000, 0.7086609999999999854 ) ) ;
#88 = DIRECTION ( 'NONE',  ( -0.0000000000000000000, -0.0000000000000000000, -1.000000000000000000 ) ) ;
#89 = FACE_OUTER_BOUND ( 'NONE', #286, .T. ) ;
#90 = DIRECTION ( 'NONE',  ( -1.224646799147353207E-16, -0.0000000000000000000, -1.000000000000000000 ) ) ;
#91 = AXIS2_PLACEMENT_3D ( 'NONE', #33, #236, #11 ) ;
#92 = FILL_AREA_STYLE ('',( #43 ) ) ;
#93 = ORIENTED_EDGE ( 'NONE', *, *, #192, .F. ) ;
#94 = DIRECTION ( 'NONE',  ( -1.000000000000000000, 0.0000000000000000000, 0.0000000000000000000 ) ) ;
#95 = APPLICATION_PROTOCOL_DEFINITION ( 'draft international standard', 'automotive_design', 1998, #247 ) ;
#96 = ORIENTED_EDGE ( 'NONE', *, *, #107, .F. ) ;
#97 = ADVANCED_FACE ( 'NONE', ( #285 ), #250, .T. ) ;
#98 = ORIENTED_EDGE ( 'NONE', *, *, #113, .T. ) ;
#99 = PRODUCT_CONTEXT ( 'NONE', #247, 'mechanical' ) ;
#100 = EDGE_LOOP ( 'NONE', ( #73, #47, #125, #155 ) ) ;
#101 = DIRECTION ( 'NONE',  ( 0.0000000000000000000, 0.0000000000000000000, -1.000000000000000000 ) ) ;
#102 = EDGE_CURVE ( 'NONE', #293, #173, #260, .T. ) ;
#103 = LINE ( 'NONE', #206, #203 ) ;
#104 = CARTESIAN_POINT ( 'NONE',  ( 1.444983904138465630E-17, 0.0000000000000000000, 0.0000000000000000000 ) ) ;
#105 = AXIS2_PLACEMENT_3D ( 'NONE', #87, #115, #190 ) ;
#106 = CARTESIAN_POINT ( 'NONE',  ( 0.0000000000000000000, 0.0000000000000000000, 1.968503999999999809 ) ) ;
#107 = EDGE_CURVE ( 'NONE', #76, #218, #28, .T. ) ;
#108 = FACE_OUTER_BOUND ( 'NONE', #121, .T. ) ;
#109 = CARTESIAN_POINT ( 'NONE',  ( 9.633226027589770864E-18, 0.0000000000000000000, 0.07866125999999999674 ) ) ;
#110 = ADVANCED_BREP_SHAPE_REPRESENTATION ( 'Micro_BEMM-040-2X', ( #199, #197 ), #66 ) ;
#111 = CARTESIAN_POINT ( 'NONE',  ( -0.06374000000000018540, 0.0000000000000000000, 1.968503999999999809 ) ) ;
#112 = CARTESIAN_POINT ( 'NONE',  ( 0.0000000000000000000, 0.0000000000000000000, 1.968503999999999809 ) ) ;
#113 = EDGE_CURVE ( 'NONE', #248, #218, #273, .T. ) ;
#114 = AXIS2_PLACEMENT_3D ( 'NONE', #266, #25, #297 ) ;
#115 = DIRECTION ( 'NONE',  ( -1.224646799147353207E-16, -0.0000000000000000000, -1.000000000000000000 ) ) ;
#116 = FACE_OUTER_BOUND ( 'NONE', #151, .T. ) ;
#117 = DIRECTION ( 'NONE',  ( 1.000000000000000000, 0.0000000000000000000, 0.0000000000000000000 ) ) ;
#118 =( NAMED_UNIT ( * ) PLANE_ANGLE_UNIT ( ) SI_UNIT ( $, .RADIAN. ) );
#119 = ORIENTED_EDGE ( 'NONE', *, *, #192, .T. ) ;
#120 = DIRECTION ( 'NONE',  ( 1.000000000000000000, 0.0000000000000000000, 0.0000000000000000000 ) ) ;
#121 = EDGE_LOOP ( 'NONE', ( #132, #119, #284, #22 ) ) ;
#122 = ORIENTED_EDGE ( 'NONE', *, *, #224, .T. ) ;
#123 = CIRCLE ( 'NONE', #1, 0.07866125999999999674 ) ;
#124 = ORIENTED_EDGE ( 'NONE', *, *, #164, .T. ) ;
#125 = ORIENTED_EDGE ( 'NONE', *, *, #113, .F. ) ;
#126 = DIRECTION ( 'NONE',  ( -1.000000000000000000, 0.0000000000000000000, 2.170579261049422102E-16 ) ) ;
#127 = ORIENTED_EDGE ( 'NONE', *, *, #202, .F. ) ;
#128 = DIRECTION ( 'NONE',  ( -0.1736481776669311639, 2.126576849575783008E-17, 0.9848077530122080203 ) ) ;
#129 = CIRCLE ( 'NONE', #244, 0.06374000000000018540 ) ;
#130 = EDGE_CURVE ( 'NONE', #281, #76, #287, .T. ) ;
#131 = CARTESIAN_POINT ( 'NONE',  ( 9.633226027589770864E-18, 0.0000000000000000000, 0.07866125999999999674 ) ) ;
#132 = ORIENTED_EDGE ( 'NONE', *, *, #305, .F. ) ;
#133 = DIRECTION ( 'NONE',  ( -1.224646799147353207E-16, -0.0000000000000000000, -1.000000000000000000 ) ) ;
#134 =( CONVERSION_BASED_UNIT ( 'INCH', #183 ) LENGTH_UNIT ( ) NAMED_UNIT ( #316 ) );
#135 = AXIS2_PLACEMENT_3D ( 'NONE', #272, #54, #208 ) ;
#136 = FACE_OUTER_BOUND ( 'NONE', #267, .T. ) ;
#137 = DIRECTION ( 'NONE',  ( -0.0000000000000000000, -0.0000000000000000000, -1.000000000000000000 ) ) ;
#138 = CARTESIAN_POINT ( 'NONE',  ( 8.678594253305624695E-17, 0.0000000000000000000, 0.7086609999999999854 ) ) ;
#139 = PRODUCT_RELATED_PRODUCT_CATEGORY ( 'part', '', ( #296 ) ) ;
#140 = VECTOR ( 'NONE', #253, 39.37007874015748143 ) ;
#141 = LINE ( 'NONE', #163, #140 ) ;
#142 =( NAMED_UNIT ( * ) SI_UNIT ( $, .STERADIAN. ) SOLID_ANGLE_UNIT ( ) );
#143 = ORIENTED_EDGE ( 'NONE', *, *, #35, .T. ) ;
#144 = EDGE_CURVE ( 'NONE', #248, #148, #300, .T. ) ;
#145 = EDGE_LOOP ( 'NONE', ( #23, #122, #18 ) ) ;
#146 = CIRCLE ( 'NONE', #78, 0.07874000000000000443 ) ;
#147 =( CONVERSION_BASED_UNIT ( 'INCH', #217 ) LENGTH_UNIT ( ) NAMED_UNIT ( #24 ) );
#148 = VERTEX_POINT ( 'NONE', #324 ) ;
#149 = ORIENTED_EDGE ( 'NONE', *, *, #320, .T. ) ;
#150 = AXIS2_PLACEMENT_3D ( 'NONE', #109, #194, #37 ) ;
#151 = EDGE_LOOP ( 'NONE', ( #171, #223 ) ) ;
#152 = ORIENTED_EDGE ( 'NONE', *, *, #170, .T. ) ;
#153 = LINE ( 'NONE', #322, #269 ) ;
#154 = DIRECTION ( 'NONE',  ( -1.000000000000000000, 0.0000000000000000000, 2.170579261049422102E-16 ) ) ;
#155 = ORIENTED_EDGE ( 'NONE', *, *, #317, .F. ) ;
#156 = VECTOR ( 'NONE', #227, 39.37007874015748143 ) ;
#157 = FACE_OUTER_BOUND ( 'NONE', #289, .T. ) ;
#158 = DIRECTION ( 'NONE',  ( 0.1736481776669313581, 0.0000000000000000000, 0.9848077530122077983 ) ) ;
#159 = PRODUCT_DEFINITION_SHAPE ( 'NONE', 'NONE',  #57 ) ;
#160 = CARTESIAN_POINT ( 'NONE',  ( 0.07866126000000008001, 0.0000000000000000000, 0.7086609999999999854 ) ) ;
#161 = CIRCLE ( 'NONE', #105, 0.07866125999999999674 ) ;
#162 = DIRECTION ( 'NONE',  ( -0.7071067811865502373, 0.0000000000000000000, -0.7071067811865446862 ) ) ;
#163 = CARTESIAN_POINT ( 'NONE',  ( 0.07874000000000000443, 9.642868896486258509E-18, 1.968503999999999809 ) ) ;
#164 = EDGE_CURVE ( 'NONE', #240, #13, #186, .T. ) ;
#165 = FACE_OUTER_BOUND ( 'NONE', #177, .T. ) ;
#166 = AXIS2_PLACEMENT_3D ( 'NONE', #276, #41, #212 ) ;
#167 = CYLINDRICAL_SURFACE ( 'NONE', #75, 0.07874000000000000443 ) ;
#168 = CONICAL_SURFACE ( 'NONE', #7, 0.06374000000000018540, 0.7853981633974522758 ) ;
#169 = DIRECTION ( 'NONE',  ( -1.000000000000000000, 0.0000000000000000000, 0.0000000000000000000 ) ) ;
#170 = EDGE_CURVE ( 'NONE', #13, #240, #123, .T. ) ;
#171 = ORIENTED_EDGE ( 'NONE', *, *, #130, .T. ) ;
#172 = CARTESIAN_POINT ( 'NONE',  ( 0.07866126000000008001, 0.0000000000000000000, 0.7086609999999999854 ) ) ;
#173 = VERTEX_POINT ( 'NONE', #205 ) ;
#174 = SURFACE_SIDE_STYLE ('',( #67 ) ) ;
#175 = ORIENTED_EDGE ( 'NONE', *, *, #261, .T. ) ;
#176 = PRESENTATION_LAYER_ASSIGNMENT (  '', '', ( #49 ) ) ;
#177 = EDGE_LOOP ( 'NONE', ( #70, #313, #311 ) ) ;
#178 = SHAPE_DEFINITION_REPRESENTATION ( #159, #110 ) ;
#179 = CARTESIAN_POINT ( 'NONE',  ( 0.07866126000000001062, 9.633226027589770864E-18, 0.07866125999999996898 ) ) ;
#180 = AXIS2_PLACEMENT_3D ( 'NONE', #306, #62, #308 ) ;
#181 = ADVANCED_FACE ( 'NONE', ( #157 ), #168, .T. ) ;
#182 = LINE ( 'NONE', #81, #210 ) ;
#183 = LENGTH_MEASURE_WITH_UNIT ( LENGTH_MEASURE( 0.02539999999999999897 ), #58 );
#184 = CARTESIAN_POINT ( 'NONE',  ( 0.07874000000000000443, 9.642868896486258509E-18, 1.953504000000000129 ) ) ;
#185 = EDGE_CURVE ( 'NONE', #264, #240, #153, .T. ) ;
#186 = CIRCLE ( 'NONE', #256, 0.07866125999999999674 ) ;
#187 = STYLED_ITEM ( 'NONE', ( #32 ), #199 ) ;
#188 = DIRECTION ( 'NONE',  ( 1.000000000000000000, 0.0000000000000000000, 0.0000000000000000000 ) ) ;
#189 = DIRECTION ( 'NONE',  ( 1.224646799147353207E-16, 0.0000000000000000000, 1.000000000000000000 ) ) ;
#190 = DIRECTION ( 'NONE',  ( -1.000000000000000000, 0.0000000000000000000, 0.0000000000000000000 ) ) ;
#191 = AXIS2_PLACEMENT_3D ( 'NONE', #34, #88, #232 ) ;
#192 = EDGE_CURVE ( 'NONE', #218, #248, #146, .T. ) ;
#193 = DIRECTION ( 'NONE',  ( -1.224646799147353207E-16, -0.0000000000000000000, -1.000000000000000000 ) ) ;
#194 = DIRECTION ( 'NONE',  ( 0.0000000000000000000, 1.000000000000000000, 0.0000000000000000000 ) ) ;
#195 = CYLINDRICAL_SURFACE ( 'NONE', #39, 0.07866125999999999674 ) ;
#196 = ADVANCED_FACE ( 'NONE', ( #295 ), #85, .T. ) ;
#197 = AXIS2_PLACEMENT_3D ( 'NONE', #263, #16, #120 ) ;
#198 = PLANE ( 'NONE',  #166 ) ;
#199 = MANIFOLD_SOLID_BREP ( 'Fillet1', #79 ) ;
#200 = ORIENTED_EDGE ( 'NONE', *, *, #185, .T. ) ;
#201 = DIRECTION ( 'NONE',  ( 1.000000000000000000, 0.0000000000000000000, 0.0000000000000000000 ) ) ;
#202 = EDGE_CURVE ( 'NONE', #264, #148, #182, .T. ) ;
#203 = VECTOR ( 'NONE', #133, 39.37007874015748143 ) ;
#204 = VECTOR ( 'NONE', #162, 39.37007874015748854 ) ;
#205 = CARTESIAN_POINT ( 'NONE',  ( 0.07874000000000008770, 9.642868896486269294E-18, 0.7091075567304767624 ) ) ;
#206 = CARTESIAN_POINT ( 'NONE',  ( 0.07866125999999999674, 9.633226027589770864E-18, -9.633226027589770864E-18 ) ) ;
#207 = ORIENTED_EDGE ( 'NONE', *, *, #229, .F. ) ;
#208 = DIRECTION ( 'NONE',  ( -1.000000000000000000, 0.0000000000000000000, 1.224646799147352961E-16 ) ) ;
#209 = DIRECTION ( 'NONE',  ( -1.224646799147353207E-16, -0.0000000000000000000, -1.000000000000000000 ) ) ;
#210 = VECTOR ( 'NONE', #128, 39.37007874015747433 ) ;
#211 = SPHERICAL_SURFACE ( 'NONE', #180, 0.07866125999999999674 ) ;
#212 = DIRECTION ( 'NONE',  ( 1.000000000000000000, 0.0000000000000000000, -0.0000000000000000000 ) ) ;
#213 = UNCERTAINTY_MEASURE_WITH_UNIT (LENGTH_MEASURE( 1.000000000000000082E-05 ), #255, 'distance_accuracy_value', 'NONE');
#214 = DIRECTION ( 'NONE',  ( -1.000000000000000000, 0.0000000000000000000, 0.0000000000000000000 ) ) ;
#215 = AXIS2_PLACEMENT_3D ( 'NONE', #278, #193, #36 ) ;
#216 = ORIENTED_EDGE ( 'NONE', *, *, #102, .T. ) ;
#217 = LENGTH_MEASURE_WITH_UNIT ( LENGTH_MEASURE( 0.02539999999999999897 ), #283 );
#218 = VERTEX_POINT ( 'NONE', #184 ) ;
#219 = DIMENSIONAL_EXPONENTS ( 1.000000000000000000, 0.0000000000000000000, 0.0000000000000000000, 0.0000000000000000000, 0.0000000000000000000, 0.0000000000000000000, 0.0000000000000000000 ) ;
#220 = CARTESIAN_POINT ( 'NONE',  ( 9.633226027589770864E-18, 0.0000000000000000000, 0.07866125999999999674 ) ) ;
#221 = DIRECTION ( 'NONE',  ( -1.000000000000000000, 0.0000000000000000000, 0.0000000000000000000 ) ) ;
#222 = CARTESIAN_POINT ( 'NONE',  ( 9.633226027589770864E-18, 0.0000000000000000000, 0.07866125999999999674 ) ) ;
#223 = ORIENTED_EDGE ( 'NONE', *, *, #64, .T. ) ;
#224 = EDGE_CURVE ( 'NONE', #238, #13, #304, .T. ) ;
#225 = DIRECTION ( 'NONE',  ( 0.0000000000000000000, -1.000000000000000000, 0.0000000000000000000 ) ) ;
#226 = CIRCLE ( 'NONE', #14, 0.07866125999999999674 ) ;
#227 = DIRECTION ( 'NONE',  ( -0.0000000000000000000, -0.0000000000000000000, -1.000000000000000000 ) ) ;
#228 = CARTESIAN_POINT ( 'NONE',  ( -0.06374000000000018540, 0.0000000000000000000, 1.968503999999999809 ) ) ;
#229 = EDGE_CURVE ( 'NONE', #293, #13, #103, .T. ) ;
#230 = SPHERICAL_SURFACE ( 'NONE', #150, 0.07866125999999999674 ) ;
#231 = DIRECTION ( 'NONE',  ( 0.7071067811865502373, 8.659560562354966138E-17, -0.7071067811865446862 ) ) ;
#232 = DIRECTION ( 'NONE',  ( -1.000000000000000000, 0.0000000000000000000, 0.0000000000000000000 ) ) ;
#233 = CIRCLE ( 'NONE', #303, 0.07866125999999999674 ) ;
#234 = DIRECTION ( 'NONE',  ( 1.000000000000000000, 0.0000000000000000000, 0.0000000000000000000 ) ) ;
#235 = COLOUR_RGB ( '',0.7921568627450980005, 0.8196078431372548767, 0.9333333333333333481 ) ;
#236 = DIRECTION ( 'NONE',  ( 1.224646799147353207E-16, 0.0000000000000000000, 1.000000000000000000 ) ) ;
#237 = FACE_OUTER_BOUND ( 'NONE', #51, .T. ) ;
#238 = VERTEX_POINT ( 'NONE', #104 ) ;
#239 = DIRECTION ( 'NONE',  ( 1.224646799147353207E-16, 0.0000000000000000000, 1.000000000000000000 ) ) ;
#240 = VERTEX_POINT ( 'NONE', #302 ) ;
#241 = ORIENTED_EDGE ( 'NONE', *, *, #130, .F. ) ;
#242 = UNCERTAINTY_MEASURE_WITH_UNIT (LENGTH_MEASURE( 1.000000000000000082E-05 ), #147, 'distance_accuracy_value', 'NONE');
#243 = ORIENTED_EDGE ( 'NONE', *, *, #144, .F. ) ;
#244 = AXIS2_PLACEMENT_3D ( 'NONE', #112, #307, #234 ) ;
#245 = FILL_AREA_STYLE_COLOUR ( '', #235 ) ;
#246 = FILL_AREA_STYLE ('',( #245 ) ) ;
#247 = APPLICATION_CONTEXT ( 'automotive_design' ) ;
#248 = VERTEX_POINT ( 'NONE', #65 ) ;
#249 = CARTESIAN_POINT ( 'NONE',  ( 9.633226027589770864E-18, 0.0000000000000000000, 0.07866125999999999674 ) ) ;
#250 = CONICAL_SURFACE ( 'NONE', #61, 0.06374000000000018540, 0.7853981633974522758 ) ;
#251 = ADVANCED_FACE ( 'NONE', ( #108 ), #167, .T. ) ;
#252 = SURFACE_SIDE_STYLE ('',( #319 ) ) ;
#253 = DIRECTION ( 'NONE',  ( -0.0000000000000000000, -0.0000000000000000000, -1.000000000000000000 ) ) ;
#254 = CARTESIAN_POINT ( 'NONE',  ( 8.684062996011784961E-17, 0.0000000000000000000, 0.7091075567304767624 ) ) ;
#255 =( CONVERSION_BASED_UNIT ( 'INCH', #9 ) LENGTH_UNIT ( ) NAMED_UNIT ( #219 ) );
#256 = AXIS2_PLACEMENT_3D ( 'NONE', #131, #290, #126 ) ;
#257 = AXIS2_PLACEMENT_3D ( 'NONE', #59, #86, #188 ) ;
#258 = CARTESIAN_POINT ( 'NONE',  ( 8.678594253305624695E-17, 0.0000000000000000000, 0.7086609999999999854 ) ) ;
#259 = CARTESIAN_POINT ( 'NONE',  ( 0.0000000000000000000, 0.0000000000000000000, 1.968503999999999809 ) ) ;
#260 = LINE ( 'NONE', #172, #6 ) ;
#261 = EDGE_CURVE ( 'NONE', #173, #148, #314, .T. ) ;
#262 = EDGE_LOOP ( 'NONE', ( #127, #48, #216, #175 ) ) ;
#263 = CARTESIAN_POINT ( 'NONE',  ( 0.0000000000000000000, 0.0000000000000000000, 0.0000000000000000000 ) ) ;
#264 = VERTEX_POINT ( 'NONE', #309 ) ;
#265 = PRODUCT_DEFINITION_CONTEXT ( 'detailed design', #55, 'design' ) ;
#266 = CARTESIAN_POINT ( 'NONE',  ( 0.0000000000000000000, 0.0000000000000000000, 1.953504000000000129 ) ) ;
#267 = EDGE_LOOP ( 'NONE', ( #207, #149, #200, #124 ) ) ;
#268 = ORIENTED_EDGE ( 'NONE', *, *, #305, .T. ) ;
#269 = VECTOR ( 'NONE', #26, 39.37007874015748143 ) ;
#270 = PRODUCT_DEFINITION_FORMATION_WITH_SPECIFIED_SOURCE ( 'ANY', '', #296, .NOT_KNOWN. ) ;
#271 = ORIENTED_EDGE ( 'NONE', *, *, #229, .T. ) ;
#272 = CARTESIAN_POINT ( 'NONE',  ( 0.0000000000000000000, 0.0000000000000000000, 0.0000000000000000000 ) ) ;
#273 = CIRCLE ( 'NONE', #114, 0.07874000000000000443 ) ;
#274 = EDGE_CURVE ( 'NONE', #148, #173, #53, .T. ) ;
#275 = CARTESIAN_POINT ( 'NONE',  ( 0.0000000000000000000, 0.0000000000000000000, 1.953504000000000129 ) ) ;
#276 = CARTESIAN_POINT ( 'NONE',  ( 0.0000000000000000000, 0.0000000000000000000, 1.968503999999999809 ) ) ;
#277 = ADVANCED_FACE ( 'NONE', ( #237 ), #298, .T. ) ;
#278 = CARTESIAN_POINT ( 'NONE',  ( 8.684062996011784961E-17, 0.0000000000000000000, 0.7091075567304767624 ) ) ;
#279 =( GEOMETRIC_REPRESENTATION_CONTEXT ( 3 ) GLOBAL_UNCERTAINTY_ASSIGNED_CONTEXT ( ( #242 ) ) GLOBAL_UNIT_ASSIGNED_CONTEXT ( ( #147, #118, #142 ) ) REPRESENTATION_CONTEXT ( 'NONE', 'WORKASPACE' ) );
#280 = CYLINDRICAL_SURFACE ( 'NONE', #191, 0.07874000000000000443 ) ;
#281 = VERTEX_POINT ( 'NONE', #228 ) ;
#282 = ADVANCED_FACE ( 'NONE', ( #116 ), #198, .T. ) ;
#283 =( LENGTH_UNIT ( ) NAMED_UNIT ( * ) SI_UNIT ( $, .METRE. ) );
#284 = ORIENTED_EDGE ( 'NONE', *, *, #144, .T. ) ;
#285 = FACE_OUTER_BOUND ( 'NONE', #100, .T. ) ;
#286 = EDGE_LOOP ( 'NONE', ( #98, #268, #315, #243 ) ) ;
#287 = CIRCLE ( 'NONE', #257, 0.06374000000000018540 ) ;
#288 = ORIENTED_EDGE ( 'NONE', *, *, #274, .T. ) ;
#289 = EDGE_LOOP ( 'NONE', ( #96, #241, #56, #93 ) ) ;
#290 = DIRECTION ( 'NONE',  ( 1.224646799147353207E-16, 0.0000000000000000000, 1.000000000000000000 ) ) ;
#291 = ADVANCED_FACE ( 'NONE', ( #89 ), #280, .T. ) ;
#292 = DIRECTION ( 'NONE',  ( 1.000000000000000000, 0.0000000000000000000, 0.0000000000000000000 ) ) ;
#293 = VERTEX_POINT ( 'NONE', #160 ) ;
#294 = CARTESIAN_POINT ( 'NONE',  ( 0.06374000000000018540, 7.805898697765251255E-18, 1.968503999999999809 ) ) ;
#295 = FACE_OUTER_BOUND ( 'NONE', #42, .T. ) ;
#296 = PRODUCT ( 'Micro_BEMM-040-2X', 'Micro_BEMM-040-2X', '', ( #99 ) ) ;
#297 = DIRECTION ( 'NONE',  ( 1.000000000000000000, 0.0000000000000000000, 0.0000000000000000000 ) ) ;
#298 = CONICAL_SURFACE ( 'NONE', #91, 0.07866125999999999674, 0.1745329251994338637 ) ;
#299 = COLOUR_RGB ( '',0.7921568627450980005, 0.8196078431372548767, 0.9333333333333333481 ) ;
#300 = LINE ( 'NONE', #29, #156 ) ;
#301 = LINE ( 'NONE', #111, #204 ) ;
#302 = CARTESIAN_POINT ( 'NONE',  ( -0.07866125999999996898, 0.0000000000000000000, 0.07866126000000001062 ) ) ;
#303 = AXIS2_PLACEMENT_3D ( 'NONE', #138, #12, #169 ) ;
#304 = CIRCLE ( 'NONE', #321, 0.07866125999999999674 ) ;
#305 = EDGE_CURVE ( 'NONE', #218, #173, #141, .T. ) ;
#306 = CARTESIAN_POINT ( 'NONE',  ( 9.633226027589770864E-18, 0.0000000000000000000, 0.07866125999999999674 ) ) ;
#307 = DIRECTION ( 'NONE',  ( 0.0000000000000000000, 0.0000000000000000000, 1.000000000000000000 ) ) ;
#308 = DIRECTION ( 'NONE',  ( 1.000000000000000000, 0.0000000000000000000, 0.0000000000000000000 ) ) ;
#309 = CARTESIAN_POINT ( 'NONE',  ( -0.07866125999999989959, 9.638047462038014686E-18, 0.7086609999999999854 ) ) ;
#310 = PRESENTATION_LAYER_ASSIGNMENT (  '', '', ( #187 ) ) ;
#311 = ORIENTED_EDGE ( 'NONE', *, *, #170, .F. ) ;
#312 = ADVANCED_FACE ( 'NONE', ( #136 ), #195, .T. ) ;
#313 = ORIENTED_EDGE ( 'NONE', *, *, #30, .T. ) ;
#314 = CIRCLE ( 'NONE', #215, 0.07874000000000000443 ) ;
#315 = ORIENTED_EDGE ( 'NONE', *, *, #274, .F. ) ;
#316 = DIMENSIONAL_EXPONENTS ( 1.000000000000000000, 0.0000000000000000000, 0.0000000000000000000, 0.0000000000000000000, 0.0000000000000000000, 0.0000000000000000000, 0.0000000000000000000 ) ;
#317 = EDGE_CURVE ( 'NONE', #281, #248, #301, .T. ) ;
#318 = DIRECTION ( 'NONE',  ( 1.224646799147353207E-16, 1.000000000000000000, -0.0000000000000000000 ) ) ;
#319 = SURFACE_STYLE_FILL_AREA ( #246 ) ;
#320 = EDGE_CURVE ( 'NONE', #293, #264, #161, .T. ) ;
#321 = AXIS2_PLACEMENT_3D ( 'NONE', #249, #225, #31 ) ;
#322 = CARTESIAN_POINT ( 'NONE',  ( -0.07866125999999999674, 0.0000000000000000000, 9.633226027589770864E-18 ) ) ;
#323 = ADVANCED_FACE ( 'NONE', ( #165 ), #211, .T. ) ;
#324 = CARTESIAN_POINT ( 'NONE',  ( -0.07873999999999992117, 0.0000000000000000000, 0.7091075567304767624 ) ) ;
#325 = SURFACE_STYLE_USAGE ( .BOTH. , #252 ) ;
ENDSEC;
END-ISO-10303-21;
