ISO-10303-21;
HEADER;
FILE_DESCRIPTION (( 'STEP AP214' ),
    '1' );
FILE_NAME ('59621.STEP',
    '2023-07-24T15:50:40',
    ( '' ),
    ( '' ),
    'SwSTEP 2.0',
    'SolidWorks 2023',
    '' );
FILE_SCHEMA (( 'AUTOMOTIVE_DESIGN' ));
ENDSEC;

DATA;
#1 = PRESENTATION_STYLE_ASSIGNMENT (( #202 ) ) ;
#2 = ORIENTED_EDGE ( 'NONE', *, *, #259, .F. ) ;
#3 = CYLINDRICAL_SURFACE ( 'NONE', #250, 10.00000000000000000 ) ;
#4 = DIRECTION ( 'NONE',  ( -0.000000000000000000, -1.000000000000000000, -0.000000000000000000 ) ) ;
#5 =( NAMED_UNIT ( * ) SI_UNIT ( $, .STERADIAN. ) SOLID_ANGLE_UNIT ( ) );
#6 =( GEOMETRIC_REPRESENTATION_CONTEXT ( 3 ) GLOBAL_UNCERTAINTY_ASSIGNED_CONTEXT ( ( #43 ) ) GLOBAL_UNIT_ASSIGNED_CONTEXT ( ( #142, #208, #5 ) ) REPRESENTATION_CONTEXT ( 'NONE', 'WORKASPACE' ) );
#7 =( NAMED_UNIT ( * ) PLANE_ANGLE_UNIT ( ) SI_UNIT ( $, .RADIAN. ) );
#8 = FILL_AREA_STYLE_COLOUR ( '', #72 ) ;
#9 = APPLICATION_CONTEXT ( 'automotive_design' ) ;
#10 = CARTESIAN_POINT ( 'NONE',  ( 0.000000000000000000, 0.000000000000000000, -10.00000000000000000 ) ) ;
#11 = DIRECTION ( 'NONE',  ( -0.000000000000000000, -1.000000000000000000, -0.000000000000000000 ) ) ;
#12 = APPLICATION_CONTEXT ( 'automotive_design' ) ;
#13 = DIRECTION ( 'NONE',  ( 0.000000000000000000, 0.000000000000000000, -1.000000000000000000 ) ) ;
#14 = AXIS2_PLACEMENT_3D ( 'NONE', #194, #234, #16 ) ;
#15 = COLOUR_RGB ( '',1.000000000000000000, 0.000000000000000000, 0.000000000000000000 ) ;
#16 = DIRECTION ( 'NONE',  ( 0.000000000000000000, 0.000000000000000000, -1.000000000000000000 ) ) ;
#17 = DIRECTION ( 'NONE',  ( 0.000000000000000000, 0.000000000000000000, 1.000000000000000000 ) ) ;
#18 = ADVANCED_FACE ( 'NONE', ( #183 ), #228, .T. ) ;
#19 = DIRECTION ( 'NONE',  ( -5.878304635907293472E-17, 1.000000000000000000, -0.000000000000000000 ) ) ;
#20 =( GEOMETRIC_REPRESENTATION_CONTEXT ( 3 ) GLOBAL_UNCERTAINTY_ASSIGNED_CONTEXT ( ( #35 ) ) GLOBAL_UNIT_ASSIGNED_CONTEXT ( ( #84, #243, #48 ) ) REPRESENTATION_CONTEXT ( 'NONE', 'WORKASPACE' ) );
#21 = DIRECTION ( 'NONE',  ( -1.000000000000000000, 0.000000000000000000, 0.000000000000000000 ) ) ;
#22 = AXIS2_PLACEMENT_3D ( 'NONE', #152, #11, #192 ) ;
#23 = LINE ( 'NONE', #78, #256 ) ;
#24 = ORIENTED_EDGE ( 'NONE', *, *, #172, .T. ) ;
#25 = DIRECTION ( 'NONE',  ( -1.000000000000000000, -5.878304635907293472E-17, 0.000000000000000000 ) ) ;
#26 = DIRECTION ( 'NONE',  ( -1.000000000000000000, 0.000000000000000000, 0.000000000000000000 ) ) ;
#27 = AXIS2_PLACEMENT_3D ( 'NONE', #253, #143, #25 ) ;
#28 = AXIS2_PLACEMENT_3D ( 'NONE', #174, #17, #69 ) ;
#29 = DIRECTION ( 'NONE',  ( -0.000000000000000000, -1.000000000000000000, -0.000000000000000000 ) ) ;
#30 = VECTOR ( 'NONE', #239, 1000.000000000000000 ) ;
#31 = CARTESIAN_POINT ( 'NONE',  ( 1.224646799147353256E-15, 0.000000000000000000, 10.00000000000000000 ) ) ;
#32 = PRESENTATION_STYLE_ASSIGNMENT (( #59 ) ) ;
#33 = CARTESIAN_POINT ( 'NONE',  ( 1.224646799147353256E-15, 50.00000000000000000, 10.00000000000000000 ) ) ;
#34 = SURFACE_STYLE_USAGE ( .BOTH. , #235 ) ;
#35 = UNCERTAINTY_MEASURE_WITH_UNIT (LENGTH_MEASURE( 1.000000000000000082E-05 ), #84, 'distance_accuracy_value', 'NONE');
#36 = EDGE_CURVE ( 'NONE', #218, #77, #23, .T. ) ;
#37 = SURFACE_STYLE_FILL_AREA ( #91 ) ;
#38 = ORIENTED_EDGE ( 'NONE', *, *, #167, .F. ) ;
#39 = CARTESIAN_POINT ( 'NONE',  ( 0.000000000000000000, 0.000000000000000000, 0.000000000000000000 ) ) ;
#40 =( NAMED_UNIT ( * ) SI_UNIT ( $, .STERADIAN. ) SOLID_ANGLE_UNIT ( ) );
#41 = PRESENTATION_STYLE_ASSIGNMENT (( #282 ) ) ;
#42 = VECTOR ( 'NONE', #241, 1000.000000000000000 ) ;
#43 = UNCERTAINTY_MEASURE_WITH_UNIT (LENGTH_MEASURE( 1.000000000000000082E-05 ), #142, 'distance_accuracy_value', 'NONE');
#44 = DIRECTION ( 'NONE',  ( -1.000000000000000000, 0.000000000000000000, 0.000000000000000000 ) ) ;
#45 = CLOSED_SHELL ( 'NONE', ( #18, #81, #101, #138 ) ) ;
#46 = DIRECTION ( 'NONE',  ( -0.000000000000000000, -1.000000000000000000, -0.000000000000000000 ) ) ;
#47 = SURFACE_STYLE_USAGE ( .BOTH. , #242 ) ;
#48 =( NAMED_UNIT ( * ) SI_UNIT ( $, .STERADIAN. ) SOLID_ANGLE_UNIT ( ) );
#49 =( NAMED_UNIT ( * ) PLANE_ANGLE_UNIT ( ) SI_UNIT ( $, .RADIAN. ) );
#50 = VERTEX_POINT ( 'NONE', #204 ) ;
#51 = MANIFOLD_SOLID_BREP ( 'Revolve - Tool Body (Straight Shanked)', #45 ) ;
#52 = EDGE_CURVE ( 'NONE', #218, #135, #214, .T. ) ;
#53 = ORIENTED_EDGE ( 'NONE', *, *, #188, .T. ) ;
#54 = SURFACE_STYLE_FILL_AREA ( #158 ) ;
#55 = FILL_AREA_STYLE ('',( #159 ) ) ;
#56 = FILL_AREA_STYLE ('',( #8 ) ) ;
#57 = PRESENTATION_LAYER_ASSIGNMENT (  '', '', ( #128 ) ) ;
#58 = CLOSED_SHELL ( 'NONE', ( #252, #224, #76, #125 ) ) ;
#59 = SURFACE_STYLE_USAGE ( .BOTH. , #233 ) ;
#60 = CARTESIAN_POINT ( 'NONE',  ( 0.000000000000000000, 0.000000000000000000, 0.000000000000000000 ) ) ;
#61 = CIRCLE ( 'NONE', #94, 10.00000000000000533 ) ;
#62 = SURFACE_STYLE_FILL_AREA ( #254 ) ;
#63 = AXIS2_PLACEMENT_3D ( 'NONE', #173, #284, #257 ) ;
#64 = DIRECTION ( 'NONE',  ( 5.878304635907293472E-17, -1.000000000000000000, 0.000000000000000000 ) ) ;
#65 = VERTEX_POINT ( 'NONE', #199 ) ;
#66 = SURFACE_SIDE_STYLE ('',( #131 ) ) ;
#67 = PRODUCT_DEFINITION_FORMATION_WITH_SPECIFIED_SOURCE ( 'ANY', '', #82, .NOT_KNOWN. ) ;
#68 =( NAMED_UNIT ( * ) SI_UNIT ( $, .STERADIAN. ) SOLID_ANGLE_UNIT ( ) );
#69 = DIRECTION ( 'NONE',  ( 1.000000000000000000, 0.000000000000000000, 0.000000000000000000 ) ) ;
#70 = EDGE_LOOP ( 'NONE', ( #153, #286 ) ) ;
#71 = EDGE_CURVE ( 'NONE', #50, #77, #154, .T. ) ;
#72 = COLOUR_RGB ( '',1.000000000000000000, 0.000000000000000000, 0.000000000000000000 ) ;
#73 = CIRCLE ( 'NONE', #232, 10.00000000000000000 ) ;
#74 = ORIENTED_EDGE ( 'NONE', *, *, #52, .F. ) ;
#75 = FILL_AREA_STYLE_COLOUR ( '', #15 ) ;
#76 = ADVANCED_FACE ( 'NONE', ( #288 ), #3, .T. ) ;
#77 = VERTEX_POINT ( 'NONE', #31 ) ;
#78 = CARTESIAN_POINT ( 'NONE',  ( 1.224646799147353256E-15, 0.000000000000000000, 10.00000000000000000 ) ) ;
#79 = PRESENTATION_LAYER_ASSIGNMENT (  '', '', ( #230 ) ) ;
#80 = FACE_OUTER_BOUND ( 'NONE', #176, .T. ) ;
#81 = ADVANCED_FACE ( 'NONE', ( #99 ), #164, .F. ) ;
#82 = PRODUCT ( '59621', '59621', '', ( #266 ) ) ;
#83 = CYLINDRICAL_SURFACE ( 'NONE', #190, 10.00000000000000178 ) ;
#84 =( LENGTH_UNIT ( ) NAMED_UNIT ( * ) SI_UNIT ( .MILLI., .METRE. ) );
#85 = STYLED_ITEM ( 'NONE', ( #1 ), #76 ) ;
#86 = CARTESIAN_POINT ( 'NONE',  ( 0.000000000000000000, 50.00000000000000000, -10.00000000000000000 ) ) ;
#87 = FILL_AREA_STYLE_COLOUR ( '', #275 ) ;
#88 = ADVANCED_BREP_SHAPE_REPRESENTATION ( '59621', ( #139, #51, #28 ), #162 ) ;
#89 = CARTESIAN_POINT ( 'NONE',  ( 9.999999999999996447, 124.9999999999999858, 1.224646799147353454E-15 ) ) ;
#90 = ORIENTED_EDGE ( 'NONE', *, *, #71, .T. ) ;
#91 = FILL_AREA_STYLE ('',( #109 ) ) ;
#92 = EDGE_CURVE ( 'NONE', #238, #104, #166, .T. ) ;
#93 =( GEOMETRIC_REPRESENTATION_CONTEXT ( 3 ) GLOBAL_UNCERTAINTY_ASSIGNED_CONTEXT ( ( #255 ) ) GLOBAL_UNIT_ASSIGNED_CONTEXT ( ( #121, #237, #170 ) ) REPRESENTATION_CONTEXT ( 'NONE', 'WORKASPACE' ) );
#94 = AXIS2_PLACEMENT_3D ( 'NONE', #265, #19, #44 ) ;
#95 =( GEOMETRIC_REPRESENTATION_CONTEXT ( 3 ) GLOBAL_UNCERTAINTY_ASSIGNED_CONTEXT ( ( #187 ) ) GLOBAL_UNIT_ASSIGNED_CONTEXT ( ( #114, #177, #161 ) ) REPRESENTATION_CONTEXT ( 'NONE', 'WORKASPACE' ) );
#96 = SURFACE_STYLE_USAGE ( .BOTH. , #205 ) ;
#97 = CIRCLE ( 'NONE', #156, 10.00000000000000000 ) ;
#98 = CARTESIAN_POINT ( 'NONE',  ( -4.408728476930469278E-15, 124.9999999999999858, 0.000000000000000000 ) ) ;
#99 = FACE_OUTER_BOUND ( 'NONE', #271, .T. ) ;
#100 = SURFACE_STYLE_FILL_AREA ( #56 ) ;
#101 = ADVANCED_FACE ( 'NONE', ( #185 ), #83, .T. ) ;
#102 = PLANE ( 'NONE',  #155 ) ;
#103 = MECHANICAL_DESIGN_GEOMETRIC_PRESENTATION_REPRESENTATION (  '', ( #230 ), #130 ) ;
#104 = VERTEX_POINT ( 'NONE', #117 ) ;
#105 = FILL_AREA_STYLE ('',( #87 ) ) ;
#106 = PRESENTATION_LAYER_ASSIGNMENT (  '', '', ( #144 ) ) ;
#107 =( LENGTH_UNIT ( ) NAMED_UNIT ( * ) SI_UNIT ( .MILLI., .METRE. ) );
#108 = UNCERTAINTY_MEASURE_WITH_UNIT (LENGTH_MEASURE( 1.000000000000000082E-05 ), #107, 'distance_accuracy_value', 'NONE');
#109 = FILL_AREA_STYLE_COLOUR ( '', #273 ) ;
#110 = ORIENTED_EDGE ( 'NONE', *, *, #92, .T. ) ;
#111 = AXIS2_PLACEMENT_3D ( 'NONE', #98, #251, #277 ) ;
#112 = CARTESIAN_POINT ( 'NONE',  ( 0.000000000000000000, 50.00000000000000000, 0.000000000000000000 ) ) ;
#113 = DIRECTION ( 'NONE',  ( 0.000000000000000000, 0.000000000000000000, -1.000000000000000000 ) ) ;
#114 =( LENGTH_UNIT ( ) NAMED_UNIT ( * ) SI_UNIT ( .MILLI., .METRE. ) );
#115 = ORIENTED_EDGE ( 'NONE', *, *, #119, .F. ) ;
#116 = SURFACE_STYLE_FILL_AREA ( #55 ) ;
#117 = CARTESIAN_POINT ( 'NONE',  ( 10.00000000000000000, 50.00000000000000000, 1.224646799147353651E-15 ) ) ;
#118 = STYLED_ITEM ( 'NONE', ( #276 ), #51 ) ;
#119 = EDGE_CURVE ( 'NONE', #65, #272, #196, .T. ) ;
#120 = AXIS2_PLACEMENT_3D ( 'NONE', #209, #279, #274 ) ;
#121 =( LENGTH_UNIT ( ) NAMED_UNIT ( * ) SI_UNIT ( .MILLI., .METRE. ) );
#122 = PRODUCT_DEFINITION ( 'UNKNOWN', '', #67, #283 ) ;
#123 = PRESENTATION_STYLE_ASSIGNMENT (( #34 ) ) ;
#124 = APPLICATION_PROTOCOL_DEFINITION ( 'draft international standard', 'automotive_design', 1998, #12 ) ;
#125 = ADVANCED_FACE ( 'NONE', ( #80 ), #278, .T. ) ;
#126 = AXIS2_PLACEMENT_3D ( 'NONE', #287, #200, #269 ) ;
#127 = ORIENTED_EDGE ( 'NONE', *, *, #203, .T. ) ;
#128 = STYLED_ITEM ( 'NONE', ( #123 ), #224 ) ;
#129 = DIRECTION ( 'NONE',  ( 1.000000000000000000, 5.878304635907293472E-17, 0.000000000000000000 ) ) ;
#130 =( GEOMETRIC_REPRESENTATION_CONTEXT ( 3 ) GLOBAL_UNCERTAINTY_ASSIGNED_CONTEXT ( ( #264 ) ) GLOBAL_UNIT_ASSIGNED_CONTEXT ( ( #231, #7, #219 ) ) REPRESENTATION_CONTEXT ( 'NONE', 'WORKASPACE' ) );
#131 = SURFACE_STYLE_FILL_AREA ( #105 ) ;
#132 = AXIS2_PLACEMENT_3D ( 'NONE', #179, #4, #113 ) ;
#133 = DIRECTION ( 'NONE',  ( -0.000000000000000000, -1.000000000000000000, -0.000000000000000000 ) ) ;
#134 = SURFACE_SIDE_STYLE ('',( #54 ) ) ;
#135 = VERTEX_POINT ( 'NONE', #86 ) ;
#136 = ORIENTED_EDGE ( 'NONE', *, *, #36, .T. ) ;
#137 = CARTESIAN_POINT ( 'NONE',  ( -4.408728476930469278E-15, 124.9999999999999858, 0.000000000000000000 ) ) ;
#138 = ADVANCED_FACE ( 'NONE', ( #168 ), #148, .F. ) ;
#139 = MANIFOLD_SOLID_BREP ( 'Revolve - Cutting Edge', #58 ) ;
#140 = PRESENTATION_LAYER_ASSIGNMENT (  '', '', ( #85 ) ) ;
#141 = AXIS2_PLACEMENT_3D ( 'NONE', #245, #248, #21 ) ;
#142 =( LENGTH_UNIT ( ) NAMED_UNIT ( * ) SI_UNIT ( .MILLI., .METRE. ) );
#143 = DIRECTION ( 'NONE',  ( -5.878304635907293472E-17, 1.000000000000000000, 0.000000000000000000 ) ) ;
#144 = STYLED_ITEM ( 'NONE', ( #41 ), #139 ) ;
#145 = CARTESIAN_POINT ( 'NONE',  ( -10.00000000000000711, 124.9999999999999858, 0.000000000000000000 ) ) ;
#146 = EDGE_CURVE ( 'NONE', #238, #272, #151, .T. ) ;
#147 = CARTESIAN_POINT ( 'NONE',  ( -10.00000000000000000, 50.00000000000000000, 0.000000000000000000 ) ) ;
#148 = PLANE ( 'NONE',  #207 ) ;
#149 = MECHANICAL_DESIGN_GEOMETRIC_PRESENTATION_REPRESENTATION (  '', ( #128 ), #20 ) ;
#150 = ORIENTED_EDGE ( 'NONE', *, *, #71, .F. ) ;
#151 = LINE ( 'NONE', #145, #42 ) ;
#152 = CARTESIAN_POINT ( 'NONE',  ( 0.000000000000000000, 0.000000000000000000, 0.000000000000000000 ) ) ;
#153 = ORIENTED_EDGE ( 'NONE', *, *, #259, .T. ) ;
#154 = CIRCLE ( 'NONE', #126, 10.00000000000000000 ) ;
#155 = AXIS2_PLACEMENT_3D ( 'NONE', #112, #197, #236 ) ;
#156 = AXIS2_PLACEMENT_3D ( 'NONE', #39, #46, #13 ) ;
#157 = ORIENTED_EDGE ( 'NONE', *, *, #146, .F. ) ;
#158 = FILL_AREA_STYLE ('',( #75 ) ) ;
#159 = FILL_AREA_STYLE_COLOUR ( '', #270 ) ;
#160 = MECHANICAL_DESIGN_GEOMETRIC_PRESENTATION_REPRESENTATION (  '', ( #85 ), #6 ) ;
#161 =( NAMED_UNIT ( * ) SI_UNIT ( $, .STERADIAN. ) SOLID_ANGLE_UNIT ( ) );
#162 =( GEOMETRIC_REPRESENTATION_CONTEXT ( 3 ) GLOBAL_UNCERTAINTY_ASSIGNED_CONTEXT ( ( #108 ) ) GLOBAL_UNIT_ASSIGNED_CONTEXT ( ( #107, #49, #40 ) ) REPRESENTATION_CONTEXT ( 'NONE', 'WORKASPACE' ) );
#163 = MECHANICAL_DESIGN_GEOMETRIC_PRESENTATION_REPRESENTATION (  '', ( #144 ), #93 ) ;
#164 = PLANE ( 'NONE',  #27 ) ;
#165 = LINE ( 'NONE', #89, #191 ) ;
#166 = CIRCLE ( 'NONE', #120, 10.00000000000000000 ) ;
#167 = EDGE_CURVE ( 'NONE', #104, #238, #223, .T. ) ;
#168 = FACE_OUTER_BOUND ( 'NONE', #70, .T. ) ;
#169 = ORIENTED_EDGE ( 'NONE', *, *, #220, .F. ) ;
#170 =( NAMED_UNIT ( * ) SI_UNIT ( $, .STERADIAN. ) SOLID_ANGLE_UNIT ( ) );
#171 = CYLINDRICAL_SURFACE ( 'NONE', #22, 10.00000000000000000 ) ;
#172 = EDGE_CURVE ( 'NONE', #77, #50, #97, .T. ) ;
#173 = CARTESIAN_POINT ( 'NONE',  ( 0.000000000000000000, 50.00000000000000000, 0.000000000000000000 ) ) ;
#174 = CARTESIAN_POINT ( 'NONE',  ( 0.000000000000000000, 0.000000000000000000, 0.000000000000000000 ) ) ;
#175 =( LENGTH_UNIT ( ) NAMED_UNIT ( * ) SI_UNIT ( .MILLI., .METRE. ) );
#176 = EDGE_LOOP ( 'NONE', ( #90, #24 ) ) ;
#177 =( NAMED_UNIT ( * ) PLANE_ANGLE_UNIT ( ) SI_UNIT ( $, .RADIAN. ) );
#178 = COLOUR_RGB ( '',1.000000000000000000, 0.000000000000000000, 0.000000000000000000 ) ;
#179 = CARTESIAN_POINT ( 'NONE',  ( 0.000000000000000000, 50.00000000000000000, 0.000000000000000000 ) ) ;
#180 = EDGE_LOOP ( 'NONE', ( #195, #136, #150, #213 ) ) ;
#181 = PRODUCT_DEFINITION_SHAPE ( 'NONE', 'NONE',  #122 ) ;
#182 = MECHANICAL_DESIGN_GEOMETRIC_PRESENTATION_REPRESENTATION (  '', ( #118 ), #95 ) ;
#183 = FACE_OUTER_BOUND ( 'NONE', #247, .T. ) ;
#184 = DIRECTION ( 'NONE',  ( 0.000000000000000000, 0.000000000000000000, -1.000000000000000000 ) ) ;
#185 = FACE_OUTER_BOUND ( 'NONE', #193, .T. ) ;
#186 = FILL_AREA_STYLE_COLOUR ( '', #178 ) ;
#187 = UNCERTAINTY_MEASURE_WITH_UNIT (LENGTH_MEASURE( 1.000000000000000082E-05 ), #114, 'distance_accuracy_value', 'NONE');
#188 = EDGE_CURVE ( 'NONE', #135, #50, #258, .T. ) ;
#189 = FACE_OUTER_BOUND ( 'NONE', #240, .T. ) ;
#190 = AXIS2_PLACEMENT_3D ( 'NONE', #137, #229, #26 ) ;
#191 = VECTOR ( 'NONE', #263, 1000.000000000000000 ) ;
#192 = DIRECTION ( 'NONE',  ( 0.000000000000000000, 0.000000000000000000, -1.000000000000000000 ) ) ;
#193 = EDGE_LOOP ( 'NONE', ( #198, #226, #267, #115 ) ) ;
#194 = CARTESIAN_POINT ( 'NONE',  ( 0.000000000000000000, 0.000000000000000000, 0.000000000000000000 ) ) ;
#195 = ORIENTED_EDGE ( 'NONE', *, *, #220, .T. ) ;
#196 = CIRCLE ( 'NONE', #111, 10.00000000000000533 ) ;
#197 = DIRECTION ( 'NONE',  ( 0.000000000000000000, 1.000000000000000000, 0.000000000000000000 ) ) ;
#198 = ORIENTED_EDGE ( 'NONE', *, *, #203, .F. ) ;
#199 = CARTESIAN_POINT ( 'NONE',  ( 10.00000000000000000, 124.9999999999999858, 1.224646799147353651E-15 ) ) ;
#200 = DIRECTION ( 'NONE',  ( -0.000000000000000000, -1.000000000000000000, -0.000000000000000000 ) ) ;
#201 = MECHANICAL_DESIGN_GEOMETRIC_PRESENTATION_REPRESENTATION (  '', ( #206 ), #216 ) ;
#202 = SURFACE_STYLE_USAGE ( .BOTH. , #134 ) ;
#203 = EDGE_CURVE ( 'NONE', #104, #65, #165, .T. ) ;
#204 = CARTESIAN_POINT ( 'NONE',  ( 0.000000000000000000, 0.000000000000000000, -10.00000000000000000 ) ) ;
#205 = SURFACE_SIDE_STYLE ('',( #116 ) ) ;
#206 = STYLED_ITEM ( 'NONE', ( #285 ), #252 ) ;
#207 = AXIS2_PLACEMENT_3D ( 'NONE', #217, #64, #129 ) ;
#208 =( NAMED_UNIT ( * ) PLANE_ANGLE_UNIT ( ) SI_UNIT ( $, .RADIAN. ) );
#209 = CARTESIAN_POINT ( 'NONE',  ( 0.000000000000000000, 50.00000000000000000, 0.000000000000000000 ) ) ;
#210 = DIRECTION ( 'NONE',  ( 0.000000000000000000, 0.000000000000000000, -1.000000000000000000 ) ) ;
#211 = UNCERTAINTY_MEASURE_WITH_UNIT (LENGTH_MEASURE( 1.000000000000000082E-05 ), #175, 'distance_accuracy_value', 'NONE');
#212 = CARTESIAN_POINT ( 'NONE',  ( -10.00000000000001066, 124.9999999999999858, 0.000000000000000000 ) ) ;
#213 = ORIENTED_EDGE ( 'NONE', *, *, #188, .F. ) ;
#214 = CIRCLE ( 'NONE', #132, 10.00000000000000000 ) ;
#215 = SHAPE_DEFINITION_REPRESENTATION ( #181, #88 ) ;
#216 =( GEOMETRIC_REPRESENTATION_CONTEXT ( 3 ) GLOBAL_UNCERTAINTY_ASSIGNED_CONTEXT ( ( #211 ) ) GLOBAL_UNIT_ASSIGNED_CONTEXT ( ( #175, #261, #68 ) ) REPRESENTATION_CONTEXT ( 'NONE', 'WORKASPACE' ) );
#217 = CARTESIAN_POINT ( 'NONE',  ( 10.00000000000000000, 124.9999999999999858, 0.000000000000000000 ) ) ;
#218 = VERTEX_POINT ( 'NONE', #33 ) ;
#219 =( NAMED_UNIT ( * ) SI_UNIT ( $, .STERADIAN. ) SOLID_ANGLE_UNIT ( ) );
#220 = EDGE_CURVE ( 'NONE', #135, #218, #73, .T. ) ;
#221 = ORIENTED_EDGE ( 'NONE', *, *, #172, .F. ) ;
#222 = APPLICATION_PROTOCOL_DEFINITION ( 'draft international standard', 'automotive_design', 1998, #9 ) ;
#223 = CIRCLE ( 'NONE', #63, 10.00000000000000000 ) ;
#224 = ADVANCED_FACE ( 'NONE', ( #189 ), #102, .T. ) ;
#225 = ORIENTED_EDGE ( 'NONE', *, *, #36, .F. ) ;
#226 = ORIENTED_EDGE ( 'NONE', *, *, #167, .T. ) ;
#227 = EDGE_LOOP ( 'NONE', ( #225, #246, #53, #221 ) ) ;
#228 = CYLINDRICAL_SURFACE ( 'NONE', #141, 10.00000000000000178 ) ;
#229 = DIRECTION ( 'NONE',  ( -5.878304635907293472E-17, 1.000000000000000000, -0.000000000000000000 ) ) ;
#230 = STYLED_ITEM ( 'NONE', ( #32 ), #125 ) ;
#231 =( LENGTH_UNIT ( ) NAMED_UNIT ( * ) SI_UNIT ( .MILLI., .METRE. ) );
#232 = AXIS2_PLACEMENT_3D ( 'NONE', #281, #280, #210 ) ;
#233 = SURFACE_SIDE_STYLE ('',( #100 ) ) ;
#234 = DIRECTION ( 'NONE',  ( 0.000000000000000000, -1.000000000000000000, -0.000000000000000000 ) ) ;
#235 = SURFACE_SIDE_STYLE ('',( #62 ) ) ;
#236 = DIRECTION ( 'NONE',  ( 0.000000000000000000, -0.000000000000000000, 1.000000000000000000 ) ) ;
#237 =( NAMED_UNIT ( * ) PLANE_ANGLE_UNIT ( ) SI_UNIT ( $, .RADIAN. ) );
#238 = VERTEX_POINT ( 'NONE', #147 ) ;
#239 = DIRECTION ( 'NONE',  ( -0.000000000000000000, -1.000000000000000000, -0.000000000000000000 ) ) ;
#240 = EDGE_LOOP ( 'NONE', ( #169, #74 ) ) ;
#241 = DIRECTION ( 'NONE',  ( -5.878304635907293472E-17, 1.000000000000000000, -0.000000000000000000 ) ) ;
#242 = SURFACE_SIDE_STYLE ('',( #37 ) ) ;
#243 =( NAMED_UNIT ( * ) PLANE_ANGLE_UNIT ( ) SI_UNIT ( $, .RADIAN. ) );
#244 = FACE_OUTER_BOUND ( 'NONE', #180, .T. ) ;
#245 = CARTESIAN_POINT ( 'NONE',  ( -4.408728476930469278E-15, 124.9999999999999858, 0.000000000000000000 ) ) ;
#246 = ORIENTED_EDGE ( 'NONE', *, *, #52, .T. ) ;
#247 = EDGE_LOOP ( 'NONE', ( #110, #127, #2, #157 ) ) ;
#248 = DIRECTION ( 'NONE',  ( -5.878304635907293472E-17, 1.000000000000000000, -0.000000000000000000 ) ) ;
#249 = PRESENTATION_LAYER_ASSIGNMENT (  '', '', ( #118 ) ) ;
#250 = AXIS2_PLACEMENT_3D ( 'NONE', #60, #29, #184 ) ;
#251 = DIRECTION ( 'NONE',  ( -5.878304635907293472E-17, 1.000000000000000000, -0.000000000000000000 ) ) ;
#252 = ADVANCED_FACE ( 'NONE', ( #244 ), #171, .T. ) ;
#253 = CARTESIAN_POINT ( 'NONE',  ( 1.727723269626458946E-32, 50.00000000000000000, 0.000000000000000000 ) ) ;
#254 = FILL_AREA_STYLE ('',( #186 ) ) ;
#255 = UNCERTAINTY_MEASURE_WITH_UNIT (LENGTH_MEASURE( 1.000000000000000082E-05 ), #121, 'distance_accuracy_value', 'NONE');
#256 = VECTOR ( 'NONE', #133, 1000.000000000000000 ) ;
#257 = DIRECTION ( 'NONE',  ( -1.000000000000000000, 0.000000000000000000, 0.000000000000000000 ) ) ;
#258 = LINE ( 'NONE', #10, #30 ) ;
#259 = EDGE_CURVE ( 'NONE', #272, #65, #61, .T. ) ;
#260 = ORIENTED_EDGE ( 'NONE', *, *, #92, .F. ) ;
#261 =( NAMED_UNIT ( * ) PLANE_ANGLE_UNIT ( ) SI_UNIT ( $, .RADIAN. ) );
#262 = PRODUCT_RELATED_PRODUCT_CATEGORY ( 'part', '', ( #82 ) ) ;
#263 = DIRECTION ( 'NONE',  ( -5.878304635907293472E-17, 1.000000000000000000, -0.000000000000000000 ) ) ;
#264 = UNCERTAINTY_MEASURE_WITH_UNIT (LENGTH_MEASURE( 1.000000000000000082E-05 ), #231, 'distance_accuracy_value', 'NONE');
#265 = CARTESIAN_POINT ( 'NONE',  ( -4.408728476930469278E-15, 124.9999999999999858, 0.000000000000000000 ) ) ;
#266 = PRODUCT_CONTEXT ( 'NONE', #9, 'mechanical' ) ;
#267 = ORIENTED_EDGE ( 'NONE', *, *, #146, .T. ) ;
#268 = PRESENTATION_LAYER_ASSIGNMENT (  '', '', ( #206 ) ) ;
#269 = DIRECTION ( 'NONE',  ( 0.000000000000000000, 0.000000000000000000, -1.000000000000000000 ) ) ;
#270 = COLOUR_RGB ( '',0.7921568627450980005, 0.8196078431372548767, 0.9333333333333333481 ) ;
#271 = EDGE_LOOP ( 'NONE', ( #260, #38 ) ) ;
#272 = VERTEX_POINT ( 'NONE', #212 ) ;
#273 = COLOUR_RGB ( '',1.000000000000000000, 0.000000000000000000, 0.000000000000000000 ) ;
#274 = DIRECTION ( 'NONE',  ( -1.000000000000000000, 0.000000000000000000, 0.000000000000000000 ) ) ;
#275 = COLOUR_RGB ( '',0.7921568627450980005, 0.8196078431372548767, 0.9333333333333333481 ) ;
#276 = PRESENTATION_STYLE_ASSIGNMENT (( #96 ) ) ;
#277 = DIRECTION ( 'NONE',  ( -1.000000000000000000, 0.000000000000000000, 0.000000000000000000 ) ) ;
#278 = PLANE ( 'NONE',  #14 ) ;
#279 = DIRECTION ( 'NONE',  ( -5.878304635907293472E-17, 1.000000000000000000, -0.000000000000000000 ) ) ;
#280 = DIRECTION ( 'NONE',  ( -0.000000000000000000, -1.000000000000000000, -0.000000000000000000 ) ) ;
#281 = CARTESIAN_POINT ( 'NONE',  ( 0.000000000000000000, 50.00000000000000000, 0.000000000000000000 ) ) ;
#282 = SURFACE_STYLE_USAGE ( .BOTH. , #66 ) ;
#283 = PRODUCT_DEFINITION_CONTEXT ( 'detailed design', #12, 'design' ) ;
#284 = DIRECTION ( 'NONE',  ( -5.878304635907293472E-17, 1.000000000000000000, -0.000000000000000000 ) ) ;
#285 = PRESENTATION_STYLE_ASSIGNMENT (( #47 ) ) ;
#286 = ORIENTED_EDGE ( 'NONE', *, *, #119, .T. ) ;
#287 = CARTESIAN_POINT ( 'NONE',  ( 0.000000000000000000, 0.000000000000000000, 0.000000000000000000 ) ) ;
#288 = FACE_OUTER_BOUND ( 'NONE', #227, .T. ) ;
ENDSEC;
END-ISO-10303-21;
