ISO-10303-21;
HEADER;
FILE_DESCRIPTION (( 'STEP AP214' ),
    '1' );
FILE_NAME ('59688.STEP',
    '2023-07-24T15:24:09',
    ( '' ),
    ( '' ),
    'SwSTEP 2.0',
    'SolidWorks 2023',
    '' );
FILE_SCHEMA (( 'AUTOMOTIVE_DESIGN' ));
ENDSEC;

DATA;
#1 = CIRCLE ( 'NONE', #101, 4.000000000000000000 ) ;
#2 = ORIENTED_EDGE ( 'NONE', *, *, #51, .F. ) ;
#3 = TOROIDAL_SURFACE ( 'NONE', #361, 3.500000000000000000, 0.5000000000000000000 ) ;
#4 = DIRECTION ( 'NONE',  ( 0.000000000000000000, 0.000000000000000000, -1.000000000000000000 ) ) ;
#5 =( NAMED_UNIT ( * ) PLANE_ANGLE_UNIT ( ) SI_UNIT ( $, .RADIAN. ) );
#6 = ORIENTED_EDGE ( 'NONE', *, *, #254, .T. ) ;
#7 = DIRECTION ( 'NONE',  ( 0.000000000000000000, 0.000000000000000000, -1.000000000000000000 ) ) ;
#8 = MECHANICAL_DESIGN_GEOMETRIC_PRESENTATION_REPRESENTATION (  '', ( #113 ), #168 ) ;
#9 = PRODUCT_DEFINITION_FORMATION_WITH_SPECIFIED_SOURCE ( 'ANY', '', #177, .NOT_KNOWN. ) ;
#10 = CARTESIAN_POINT ( 'NONE',  ( -3.999999999999991562, 24.00000000000000000, 0.000000000000000000 ) ) ;
#11 = DIRECTION ( 'NONE',  ( -0.000000000000000000, -1.000000000000000000, -0.000000000000000000 ) ) ;
#12 = VERTEX_POINT ( 'NONE', #349 ) ;
#13 = ORIENTED_EDGE ( 'NONE', *, *, #296, .T. ) ;
#14 = UNCERTAINTY_MEASURE_WITH_UNIT (LENGTH_MEASURE( 1.000000000000000082E-05 ), #312, 'distance_accuracy_value', 'NONE');
#15 = CIRCLE ( 'NONE', #68, 0.5000000000000000000 ) ;
#16 = MECHANICAL_DESIGN_GEOMETRIC_PRESENTATION_REPRESENTATION (  '', ( #170 ), #127 ) ;
#17 = PRESENTATION_STYLE_ASSIGNMENT (( #219 ) ) ;
#18 = APPLICATION_CONTEXT ( 'automotive_design' ) ;
#19 = EDGE_CURVE ( 'NONE', #351, #267, #277, .T. ) ;
#20 = FILL_AREA_STYLE_COLOUR ( '', #338 ) ;
#21 = PRESENTATION_LAYER_ASSIGNMENT (  '', '', ( #28 ) ) ;
#22 =( LENGTH_UNIT ( ) NAMED_UNIT ( * ) SI_UNIT ( .MILLI., .METRE. ) );
#23 = CARTESIAN_POINT ( 'NONE',  ( 4.000000000000000000, 24.00000000000000000, 4.898587196589413815E-16 ) ) ;
#24 = DIRECTION ( 'NONE',  ( -1.000000000000000000, 0.000000000000000000, 0.000000000000000000 ) ) ;
#25 = SURFACE_SIDE_STYLE ('',( #195 ) ) ;
#26 = ADVANCED_FACE ( 'NONE', ( #227 ), #203, .F. ) ;
#27 =( NAMED_UNIT ( * ) PLANE_ANGLE_UNIT ( ) SI_UNIT ( $, .RADIAN. ) );
#28 = STYLED_ITEM ( 'NONE', ( #287 ), #84 ) ;
#29 = STYLED_ITEM ( 'NONE', ( #77 ), #320 ) ;
#30 = SURFACE_STYLE_FILL_AREA ( #310 ) ;
#31 = SURFACE_SIDE_STYLE ('',( #366 ) ) ;
#32 = CARTESIAN_POINT ( 'NONE',  ( 0.000000000000000000, 24.00000000000000000, 0.000000000000000000 ) ) ;
#33 = PRODUCT_RELATED_PRODUCT_CATEGORY ( 'part', '', ( #177 ) ) ;
#34 = CARTESIAN_POINT ( 'NONE',  ( 4.898587196589412829E-16, 0.5000000000000000000, 4.000000000000000000 ) ) ;
#35 = ORIENTED_EDGE ( 'NONE', *, *, #162, .F. ) ;
#36 = DIRECTION ( 'NONE',  ( 1.000000000000000000, 0.000000000000000000, -1.224646799147353207E-16 ) ) ;
#37 = EDGE_LOOP ( 'NONE', ( #42, #243, #35, #299 ) ) ;
#38 = UNCERTAINTY_MEASURE_WITH_UNIT (LENGTH_MEASURE( 1.000000000000000082E-05 ), #206, 'distance_accuracy_value', 'NONE');
#39 = AXIS2_PLACEMENT_3D ( 'NONE', #139, #343, #171 ) ;
#40 = AXIS2_PLACEMENT_3D ( 'NONE', #125, #355, #61 ) ;
#41 = DIRECTION ( 'NONE',  ( -1.224646799147353454E-16, 0.000000000000000000, -1.000000000000000000 ) ) ;
#42 = ORIENTED_EDGE ( 'NONE', *, *, #216, .T. ) ;
#43 = COLOUR_RGB ( '',0.7921568627450980005, 0.8196078431372548767, 0.9333333333333333481 ) ;
#44 = DIRECTION ( 'NONE',  ( 0.000000000000000000, 0.000000000000000000, -1.000000000000000000 ) ) ;
#45 = DIRECTION ( 'NONE',  ( -1.223542297630008506E-16, 1.000000000000000000, -0.000000000000000000 ) ) ;
#46 = PRESENTATION_LAYER_ASSIGNMENT (  '', '', ( #29 ) ) ;
#47 =( NAMED_UNIT ( * ) PLANE_ANGLE_UNIT ( ) SI_UNIT ( $, .RADIAN. ) );
#48 = DIRECTION ( 'NONE',  ( 0.000000000000000000, 0.000000000000000000, -1.000000000000000000 ) ) ;
#49 = CARTESIAN_POINT ( 'NONE',  ( 4.770489558936219510E-15, 24.00000000000000000, 0.000000000000000000 ) ) ;
#50 = DIRECTION ( 'NONE',  ( -0.000000000000000000, -1.000000000000000000, -0.000000000000000000 ) ) ;
#51 = EDGE_CURVE ( 'NONE', #369, #71, #307, .T. ) ;
#52 =( NAMED_UNIT ( * ) SI_UNIT ( $, .STERADIAN. ) SOLID_ANGLE_UNIT ( ) );
#53 = CARTESIAN_POINT ( 'NONE',  ( 0.000000000000000000, 0.000000000000000000, -4.000000000000000000 ) ) ;
#54 = PRODUCT_DEFINITION ( 'UNKNOWN', '', #9, #91 ) ;
#55 = ORIENTED_EDGE ( 'NONE', *, *, #189, .F. ) ;
#56 = CARTESIAN_POINT ( 'NONE',  ( 4.898587196589412829E-16, 0.000000000000000000, 4.000000000000000000 ) ) ;
#57 = AXIS2_PLACEMENT_3D ( 'NONE', #217, #350, #339 ) ;
#58 = AXIS2_PLACEMENT_3D ( 'NONE', #269, #354, #149 ) ;
#59 = ORIENTED_EDGE ( 'NONE', *, *, #93, .F. ) ;
#60 =( NAMED_UNIT ( * ) PLANE_ANGLE_UNIT ( ) SI_UNIT ( $, .RADIAN. ) );
#61 = DIRECTION ( 'NONE',  ( 1.000000000000000000, 0.000000000000000000, 0.000000000000000000 ) ) ;
#62 = UNCERTAINTY_MEASURE_WITH_UNIT (LENGTH_MEASURE( 1.000000000000000082E-05 ), #194, 'distance_accuracy_value', 'NONE');
#63 = ORIENTED_EDGE ( 'NONE', *, *, #296, .F. ) ;
#64 = DIRECTION ( 'NONE',  ( 0.000000000000000000, 0.000000000000000000, -1.000000000000000000 ) ) ;
#65 = VERTEX_POINT ( 'NONE', #305 ) ;
#66 = MECHANICAL_DESIGN_GEOMETRIC_PRESENTATION_REPRESENTATION (  '', ( #80 ), #306 ) ;
#67 = CIRCLE ( 'NONE', #201, 3.500000000000000000 ) ;
#68 = AXIS2_PLACEMENT_3D ( 'NONE', #145, #261, #83 ) ;
#69 = PRESENTATION_LAYER_ASSIGNMENT (  '', '', ( #170 ) ) ;
#70 = DIRECTION ( 'NONE',  ( -1.000000000000000000, 0.000000000000000000, 0.000000000000000000 ) ) ;
#71 = VERTEX_POINT ( 'NONE', #34 ) ;
#72 = SURFACE_STYLE_USAGE ( .BOTH. , #250 ) ;
#73 = COLOUR_RGB ( '',1.000000000000000000, 0.000000000000000000, 0.000000000000000000 ) ;
#74 = PRESENTATION_LAYER_ASSIGNMENT (  '', '', ( #113 ) ) ;
#75 = EDGE_CURVE ( 'NONE', #267, #232, #230, .T. ) ;
#76 = FACE_OUTER_BOUND ( 'NONE', #241, .T. ) ;
#77 = PRESENTATION_STYLE_ASSIGNMENT (( #260 ) ) ;
#78 = ADVANCED_FACE ( 'NONE', ( #334 ), #161, .T. ) ;
#79 = STYLED_ITEM ( 'NONE', ( #251 ), #78 ) ;
#80 = STYLED_ITEM ( 'NONE', ( #136 ), #302 ) ;
#81 = DIRECTION ( 'NONE',  ( 0.000000000000000000, -0.000000000000000000, 1.000000000000000000 ) ) ;
#82 = DIRECTION ( 'NONE',  ( -0.000000000000000000, -1.000000000000000000, -0.000000000000000000 ) ) ;
#83 = DIRECTION ( 'NONE',  ( 0.000000000000000000, 0.000000000000000000, 1.000000000000000000 ) ) ;
#84 = ADVANCED_FACE ( 'NONE', ( #246 ), #215, .T. ) ;
#85 = AXIS2_PLACEMENT_3D ( 'NONE', #87, #124, #70 ) ;
#86 = ORIENTED_EDGE ( 'NONE', *, *, #169, .T. ) ;
#87 = CARTESIAN_POINT ( 'NONE',  ( -1.469576158976823750E-15, 75.00000000000000000, 0.000000000000000000 ) ) ;
#88 = FILL_AREA_STYLE ('',( #356 ) ) ;
#89 = ORIENTED_EDGE ( 'NONE', *, *, #223, .F. ) ;
#90 = EDGE_LOOP ( 'NONE', ( #212, #95, #6, #319 ) ) ;
#91 = PRODUCT_DEFINITION_CONTEXT ( 'detailed design', #18, 'design' ) ;
#92 = TOROIDAL_SURFACE ( 'NONE', #249, 3.500000000000000000, 0.5000000000000000000 ) ;
#93 = EDGE_CURVE ( 'NONE', #267, #351, #265, .T. ) ;
#94 = MANIFOLD_SOLID_BREP ( 'Revolve - Tool Body (Straight Shanked)', #233 ) ;
#95 = ORIENTED_EDGE ( 'NONE', *, *, #93, .T. ) ;
#96 = EDGE_LOOP ( 'NONE', ( #358, #273, #270, #297 ) ) ;
#97 = ORIENTED_EDGE ( 'NONE', *, *, #19, .F. ) ;
#98 = MANIFOLD_SOLID_BREP ( 'Revolve - Cutting Edge', #264 ) ;
#99 = ADVANCED_FACE ( 'NONE', ( #167 ), #298, .T. ) ;
#100 = AXIS2_PLACEMENT_3D ( 'NONE', #336, #135, #24 ) ;
#101 = AXIS2_PLACEMENT_3D ( 'NONE', #174, #153, #7 ) ;
#102 = AXIS2_PLACEMENT_3D ( 'NONE', #144, #294, #81 ) ;
#103 =( NAMED_UNIT ( * ) PLANE_ANGLE_UNIT ( ) SI_UNIT ( $, .RADIAN. ) );
#104 = ORIENTED_EDGE ( 'NONE', *, *, #245, .T. ) ;
#105 = ORIENTED_EDGE ( 'NONE', *, *, #271, .T. ) ;
#106 = DIRECTION ( 'NONE',  ( -0.000000000000000000, -1.000000000000000000, -0.000000000000000000 ) ) ;
#107 = DIRECTION ( 'NONE',  ( -1.223542297630008506E-16, 1.000000000000000000, -0.000000000000000000 ) ) ;
#108 =( LENGTH_UNIT ( ) NAMED_UNIT ( * ) SI_UNIT ( .MILLI., .METRE. ) );
#109 = VERTEX_POINT ( 'NONE', #198 ) ;
#110 =( GEOMETRIC_REPRESENTATION_CONTEXT ( 3 ) GLOBAL_UNCERTAINTY_ASSIGNED_CONTEXT ( ( #229 ) ) GLOBAL_UNIT_ASSIGNED_CONTEXT ( ( #108, #280, #365 ) ) REPRESENTATION_CONTEXT ( 'NONE', 'WORKASPACE' ) );
#111 = DIRECTION ( 'NONE',  ( -1.000000000000000000, 0.000000000000000000, 0.000000000000000000 ) ) ;
#112 = CARTESIAN_POINT ( 'NONE',  ( -1.469576158976823750E-15, 75.00000000000000000, 0.000000000000000000 ) ) ;
#113 = STYLED_ITEM ( 'NONE', ( #17 ), #98 ) ;
#114 =( GEOMETRIC_REPRESENTATION_CONTEXT ( 3 ) GLOBAL_UNCERTAINTY_ASSIGNED_CONTEXT ( ( #242 ) ) GLOBAL_UNIT_ASSIGNED_CONTEXT ( ( #160, #47, #253 ) ) REPRESENTATION_CONTEXT ( 'NONE', 'WORKASPACE' ) );
#115 = SURFACE_STYLE_USAGE ( .BOTH. , #314 ) ;
#116 = ORIENTED_EDGE ( 'NONE', *, *, #75, .T. ) ;
#117 = DIRECTION ( 'NONE',  ( -0.000000000000000000, -1.000000000000000000, -0.000000000000000000 ) ) ;
#118 = ORIENTED_EDGE ( 'NONE', *, *, #19, .T. ) ;
#119 = ADVANCED_FACE ( 'NONE', ( #311 ), #179, .T. ) ;
#120 = ORIENTED_EDGE ( 'NONE', *, *, #162, .T. ) ;
#121 =( GEOMETRIC_REPRESENTATION_CONTEXT ( 3 ) GLOBAL_UNCERTAINTY_ASSIGNED_CONTEXT ( ( #14 ) ) GLOBAL_UNIT_ASSIGNED_CONTEXT ( ( #312, #103, #133 ) ) REPRESENTATION_CONTEXT ( 'NONE', 'WORKASPACE' ) );
#122 = CARTESIAN_POINT ( 'NONE',  ( 0.000000000000000000, 24.00000000000000000, -4.000000000000000000 ) ) ;
#123 = SURFACE_SIDE_STYLE ('',( #268 ) ) ;
#124 = DIRECTION ( 'NONE',  ( -1.223542297630008506E-16, 1.000000000000000000, -0.000000000000000000 ) ) ;
#125 = CARTESIAN_POINT ( 'NONE',  ( 0.000000000000000000, 0.000000000000000000, 0.000000000000000000 ) ) ;
#126 = PRESENTATION_LAYER_ASSIGNMENT (  '', '', ( #364 ) ) ;
#127 =( GEOMETRIC_REPRESENTATION_CONTEXT ( 3 ) GLOBAL_UNCERTAINTY_ASSIGNED_CONTEXT ( ( #181 ) ) GLOBAL_UNIT_ASSIGNED_CONTEXT ( ( #237, #183, #178 ) ) REPRESENTATION_CONTEXT ( 'NONE', 'WORKASPACE' ) );
#128 = SURFACE_STYLE_FILL_AREA ( #275 ) ;
#129 = SURFACE_STYLE_USAGE ( .BOTH. , #25 ) ;
#130 =( NAMED_UNIT ( * ) PLANE_ANGLE_UNIT ( ) SI_UNIT ( $, .RADIAN. ) );
#131 = FILL_AREA_STYLE ('',( #20 ) ) ;
#132 =( NAMED_UNIT ( * ) PLANE_ANGLE_UNIT ( ) SI_UNIT ( $, .RADIAN. ) );
#133 =( NAMED_UNIT ( * ) SI_UNIT ( $, .STERADIAN. ) SOLID_ANGLE_UNIT ( ) );
#134 = FACE_OUTER_BOUND ( 'NONE', #263, .T. ) ;
#135 = DIRECTION ( 'NONE',  ( -1.223542297630008506E-16, 1.000000000000000000, -0.000000000000000000 ) ) ;
#136 = PRESENTATION_STYLE_ASSIGNMENT (( #258 ) ) ;
#137 = FILL_AREA_STYLE_COLOUR ( '', #176 ) ;
#138 = FACE_OUTER_BOUND ( 'NONE', #326, .T. ) ;
#139 = CARTESIAN_POINT ( 'NONE',  ( 4.000000000000000000, 75.00000000000000000, 0.000000000000000000 ) ) ;
#140 = COLOUR_RGB ( '',0.7921568627450980005, 0.8196078431372548767, 0.9333333333333333481 ) ;
#141 = DIRECTION ( 'NONE',  ( -0.000000000000000000, -1.000000000000000000, -0.000000000000000000 ) ) ;
#142 = APPLICATION_PROTOCOL_DEFINITION ( 'draft international standard', 'automotive_design', 1998, #256 ) ;
#143 = VERTEX_POINT ( 'NONE', #231 ) ;
#144 = CARTESIAN_POINT ( 'NONE',  ( 0.000000000000000000, 24.00000000000000000, 0.000000000000000000 ) ) ;
#145 = CARTESIAN_POINT ( 'NONE',  ( 0.000000000000000000, 0.5000000000000000000, -3.500000000000000000 ) ) ;
#146 =( NAMED_UNIT ( * ) SI_UNIT ( $, .STERADIAN. ) SOLID_ANGLE_UNIT ( ) );
#147 =( NAMED_UNIT ( * ) SI_UNIT ( $, .STERADIAN. ) SOLID_ANGLE_UNIT ( ) );
#148 = VECTOR ( 'NONE', #45, 1000.000000000000000 ) ;
#149 = DIRECTION ( 'NONE',  ( 0.000000000000000000, 0.000000000000000000, -1.000000000000000000 ) ) ;
#150 = AXIS2_PLACEMENT_3D ( 'NONE', #266, #11, #4 ) ;
#151 = DIRECTION ( 'NONE',  ( -0.000000000000000000, -1.000000000000000000, -0.000000000000000000 ) ) ;
#152 = DIRECTION ( 'NONE',  ( 0.000000000000000000, 0.000000000000000000, -1.000000000000000000 ) ) ;
#153 = DIRECTION ( 'NONE',  ( -0.000000000000000000, -1.000000000000000000, -0.000000000000000000 ) ) ;
#154 = ORIENTED_EDGE ( 'NONE', *, *, #202, .T. ) ;
#155 = UNCERTAINTY_MEASURE_WITH_UNIT (LENGTH_MEASURE( 1.000000000000000082E-05 ), #317, 'distance_accuracy_value', 'NONE');
#156 = EDGE_LOOP ( 'NONE', ( #118, #116, #63, #259 ) ) ;
#157 = FILL_AREA_STYLE ('',( #188 ) ) ;
#158 = AXIS2_PLACEMENT_3D ( 'NONE', #288, #184, #324 ) ;
#159 = STYLED_ITEM ( 'NONE', ( #218 ), #335 ) ;
#160 =( LENGTH_UNIT ( ) NAMED_UNIT ( * ) SI_UNIT ( .MILLI., .METRE. ) );
#161 = CYLINDRICAL_SURFACE ( 'NONE', #185, 4.000000000000000000 ) ;
#162 = EDGE_CURVE ( 'NONE', #109, #71, #290, .T. ) ;
#163 =( GEOMETRIC_REPRESENTATION_CONTEXT ( 3 ) GLOBAL_UNCERTAINTY_ASSIGNED_CONTEXT ( ( #62 ) ) GLOBAL_UNIT_ASSIGNED_CONTEXT ( ( #194, #132, #147 ) ) REPRESENTATION_CONTEXT ( 'NONE', 'WORKASPACE' ) );
#164 = CIRCLE ( 'NONE', #220, 0.5000000000000000000 ) ;
#165 = PRODUCT_DEFINITION_SHAPE ( 'NONE', 'NONE',  #54 ) ;
#166 = PLANE ( 'NONE',  #39 ) ;
#167 = FACE_OUTER_BOUND ( 'NONE', #156, .T. ) ;
#168 =( GEOMETRIC_REPRESENTATION_CONTEXT ( 3 ) GLOBAL_UNCERTAINTY_ASSIGNED_CONTEXT ( ( #352 ) ) GLOBAL_UNIT_ASSIGNED_CONTEXT ( ( #22, #130, #362 ) ) REPRESENTATION_CONTEXT ( 'NONE', 'WORKASPACE' ) );
#169 = EDGE_CURVE ( 'NONE', #357, #109, #325, .T. ) ;
#170 = STYLED_ITEM ( 'NONE', ( #291 ), #367 ) ;
#171 = DIRECTION ( 'NONE',  ( 1.000000000000000000, 1.223542297630008506E-16, 0.000000000000000000 ) ) ;
#172 = DIRECTION ( 'NONE',  ( -1.223542297630008506E-16, 1.000000000000000000, -0.000000000000000000 ) ) ;
#173 = DIRECTION ( 'NONE',  ( -1.223542297630008506E-16, 1.000000000000000000, -0.000000000000000000 ) ) ;
#174 = CARTESIAN_POINT ( 'NONE',  ( 0.000000000000000000, 0.5000000000000000000, 0.000000000000000000 ) ) ;
#175 = MECHANICAL_DESIGN_GEOMETRIC_PRESENTATION_REPRESENTATION (  '', ( #364 ), #244 ) ;
#176 = COLOUR_RGB ( '',1.000000000000000000, 0.000000000000000000, 0.000000000000000000 ) ;
#177 = PRODUCT ( '59688', '59688', '', ( #323 ) ) ;
#178 =( NAMED_UNIT ( * ) SI_UNIT ( $, .STERADIAN. ) SOLID_ANGLE_UNIT ( ) );
#179 = CYLINDRICAL_SURFACE ( 'NONE', #327, 3.999999999999998224 ) ;
#180 = SHAPE_DEFINITION_REPRESENTATION ( #165, #332 ) ;
#181 = UNCERTAINTY_MEASURE_WITH_UNIT (LENGTH_MEASURE( 1.000000000000000082E-05 ), #237, 'distance_accuracy_value', 'NONE');
#182 = EDGE_CURVE ( 'NONE', #109, #65, #15, .T. ) ;
#183 =( NAMED_UNIT ( * ) PLANE_ANGLE_UNIT ( ) SI_UNIT ( $, .RADIAN. ) );
#184 = DIRECTION ( 'NONE',  ( -0.000000000000000000, -1.000000000000000000, -0.000000000000000000 ) ) ;
#185 = AXIS2_PLACEMENT_3D ( 'NONE', #187, #151, #330 ) ;
#186 = EDGE_LOOP ( 'NONE', ( #97, #59 ) ) ;
#187 = CARTESIAN_POINT ( 'NONE',  ( 0.000000000000000000, 0.000000000000000000, 0.000000000000000000 ) ) ;
#188 = FILL_AREA_STYLE_COLOUR ( '', #43 ) ;
#189 = EDGE_CURVE ( 'NONE', #369, #357, #284, .T. ) ;
#190 = MECHANICAL_DESIGN_GEOMETRIC_PRESENTATION_REPRESENTATION (  '', ( #29 ), #121 ) ;
#191 = DIRECTION ( 'NONE',  ( 0.000000000000000000, -1.000000000000000000, -0.000000000000000000 ) ) ;
#192 = SURFACE_SIDE_STYLE ('',( #272 ) ) ;
#193 = AXIS2_PLACEMENT_3D ( 'NONE', #49, #173, #341 ) ;
#194 =( LENGTH_UNIT ( ) NAMED_UNIT ( * ) SI_UNIT ( .MILLI., .METRE. ) );
#195 = SURFACE_STYLE_FILL_AREA ( #337 ) ;
#196 = DIRECTION ( 'NONE',  ( -1.223542297630008506E-16, 1.000000000000000000, -0.000000000000000000 ) ) ;
#197 = FACE_OUTER_BOUND ( 'NONE', #96, .T. ) ;
#198 = CARTESIAN_POINT ( 'NONE',  ( 0.000000000000000000, 0.5000000000000000000, -4.000000000000000000 ) ) ;
#199 = FILL_AREA_STYLE ('',( #137 ) ) ;
#200 = SURFACE_STYLE_FILL_AREA ( #286 ) ;
#201 = AXIS2_PLACEMENT_3D ( 'NONE', #309, #50, #48 ) ;
#202 = EDGE_CURVE ( 'NONE', #71, #143, #164, .T. ) ;
#203 = PLANE ( 'NONE',  #57 ) ;
#204 = CARTESIAN_POINT ( 'NONE',  ( 4.898587196589412829E-16, 24.00000000000000000, 4.000000000000000000 ) ) ;
#205 = ORIENTED_EDGE ( 'NONE', *, *, #189, .T. ) ;
#206 =( LENGTH_UNIT ( ) NAMED_UNIT ( * ) SI_UNIT ( .MILLI., .METRE. ) );
#207 = ORIENTED_EDGE ( 'NONE', *, *, #216, .F. ) ;
#208 = UNCERTAINTY_MEASURE_WITH_UNIT (LENGTH_MEASURE( 1.000000000000000082E-05 ), #363, 'distance_accuracy_value', 'NONE');
#209 = EDGE_CURVE ( 'NONE', #71, #109, #1, .T. ) ;
#210 = CARTESIAN_POINT ( 'NONE',  ( -1.469576158976823750E-15, 75.00000000000000000, 0.000000000000000000 ) ) ;
#211 = APPLICATION_PROTOCOL_DEFINITION ( 'draft international standard', 'automotive_design', 1998, #18 ) ;
#212 = ORIENTED_EDGE ( 'NONE', *, *, #75, .F. ) ;
#213 = EDGE_LOOP ( 'NONE', ( #2, #205, #86, #360 ) ) ;
#214 = AXIS2_PLACEMENT_3D ( 'NONE', #257, #196, #281 ) ;
#215 = CYLINDRICAL_SURFACE ( 'NONE', #278, 4.000000000000000000 ) ;
#216 = EDGE_CURVE ( 'NONE', #357, #369, #315, .T. ) ;
#217 = CARTESIAN_POINT ( 'NONE',  ( 4.770489558936219510E-15, 24.00000000000000000, 0.000000000000000000 ) ) ;
#218 = PRESENTATION_STYLE_ASSIGNMENT (( #129 ) ) ;
#219 = SURFACE_STYLE_USAGE ( .BOTH. , #192 ) ;
#220 = AXIS2_PLACEMENT_3D ( 'NONE', #240, #36, #41 ) ;
#221 = COLOUR_RGB ( '',1.000000000000000000, 0.000000000000000000, 0.000000000000000000 ) ;
#222 = SURFACE_STYLE_USAGE ( .BOTH. , #368 ) ;
#223 = EDGE_CURVE ( 'NONE', #65, #143, #322, .T. ) ;
#224 = AXIS2_PLACEMENT_3D ( 'NONE', #32, #141, #64 ) ;
#225 = CARTESIAN_POINT ( 'NONE',  ( 0.000000000000000000, 0.5000000000000000000, 0.000000000000000000 ) ) ;
#226 = PRESENTATION_STYLE_ASSIGNMENT (( #115 ) ) ;
#227 = FACE_OUTER_BOUND ( 'NONE', #186, .T. ) ;
#228 = EDGE_LOOP ( 'NONE', ( #207, #55 ) ) ;
#229 = UNCERTAINTY_MEASURE_WITH_UNIT (LENGTH_MEASURE( 1.000000000000000082E-05 ), #108, 'distance_accuracy_value', 'NONE');
#230 = LINE ( 'NONE', #303, #148 ) ;
#231 = CARTESIAN_POINT ( 'NONE',  ( 4.592425496802573972E-16, 0.000000000000000000, 3.500000000000000000 ) ) ;
#232 = VERTEX_POINT ( 'NONE', #235 ) ;
#233 = CLOSED_SHELL ( 'NONE', ( #99, #26, #119, #274 ) ) ;
#234 = MECHANICAL_DESIGN_GEOMETRIC_PRESENTATION_REPRESENTATION (  '', ( #28 ), #110 ) ;
#235 = CARTESIAN_POINT ( 'NONE',  ( 4.000000000000000000, 75.00000000000000000, 4.898587196589412829E-16 ) ) ;
#236 = PRESENTATION_LAYER_ASSIGNMENT (  '', '', ( #159 ) ) ;
#237 =( LENGTH_UNIT ( ) NAMED_UNIT ( * ) SI_UNIT ( .MILLI., .METRE. ) );
#238 = SURFACE_STYLE_USAGE ( .BOTH. , #123 ) ;
#239 =( NAMED_UNIT ( * ) SI_UNIT ( $, .STERADIAN. ) SOLID_ANGLE_UNIT ( ) );
#240 = CARTESIAN_POINT ( 'NONE',  ( 4.286263797015736595E-16, 0.5000000000000000000, 3.500000000000000000 ) ) ;
#241 = EDGE_LOOP ( 'NONE', ( #321, #105 ) ) ;
#242 = UNCERTAINTY_MEASURE_WITH_UNIT (LENGTH_MEASURE( 1.000000000000000082E-05 ), #160, 'distance_accuracy_value', 'NONE');
#243 = ORIENTED_EDGE ( 'NONE', *, *, #51, .T. ) ;
#244 =( GEOMETRIC_REPRESENTATION_CONTEXT ( 3 ) GLOBAL_UNCERTAINTY_ASSIGNED_CONTEXT ( ( #155 ) ) GLOBAL_UNIT_ASSIGNED_CONTEXT ( ( #317, #5, #146 ) ) REPRESENTATION_CONTEXT ( 'NONE', 'WORKASPACE' ) );
#245 = EDGE_CURVE ( 'NONE', #232, #12, #346, .T. ) ;
#246 = FACE_OUTER_BOUND ( 'NONE', #213, .T. ) ;
#247 = CARTESIAN_POINT ( 'NONE',  ( 0.000000000000000000, 0.5000000000000000000, 0.000000000000000000 ) ) ;
#248 = CIRCLE ( 'NONE', #300, 4.000000000000001776 ) ;
#249 = AXIS2_PLACEMENT_3D ( 'NONE', #247, #106, #44 ) ;
#250 = SURFACE_SIDE_STYLE ('',( #128 ) ) ;
#251 = PRESENTATION_STYLE_ASSIGNMENT (( #72 ) ) ;
#252 = FILL_AREA_STYLE_COLOUR ( '', #73 ) ;
#253 =( NAMED_UNIT ( * ) SI_UNIT ( $, .STERADIAN. ) SOLID_ANGLE_UNIT ( ) );
#254 = EDGE_CURVE ( 'NONE', #351, #12, #304, .T. ) ;
#255 = VECTOR ( 'NONE', #117, 1000.000000000000000 ) ;
#256 = APPLICATION_CONTEXT ( 'automotive_design' ) ;
#257 = CARTESIAN_POINT ( 'NONE',  ( -1.469576158976823750E-15, 75.00000000000000000, 0.000000000000000000 ) ) ;
#258 = SURFACE_STYLE_USAGE ( .BOTH. , #348 ) ;
#259 = ORIENTED_EDGE ( 'NONE', *, *, #254, .F. ) ;
#260 = SURFACE_STYLE_USAGE ( .BOTH. , #31 ) ;
#261 = DIRECTION ( 'NONE',  ( -1.000000000000000000, 0.000000000000000000, 0.000000000000000000 ) ) ;
#262 = DIRECTION ( 'NONE',  ( -1.223542297630008506E-16, 1.000000000000000000, -0.000000000000000000 ) ) ;
#263 = EDGE_LOOP ( 'NONE', ( #120, #154, #89, #292 ) ) ;
#264 = CLOSED_SHELL ( 'NONE', ( #78, #302, #335, #320, #84, #367 ) ) ;
#265 = CIRCLE ( 'NONE', #193, 3.999999999999996447 ) ;
#266 = CARTESIAN_POINT ( 'NONE',  ( 0.000000000000000000, 0.000000000000000000, 0.000000000000000000 ) ) ;
#267 = VERTEX_POINT ( 'NONE', #23 ) ;
#268 = SURFACE_STYLE_FILL_AREA ( #88 ) ;
#269 = CARTESIAN_POINT ( 'NONE',  ( 0.000000000000000000, 24.00000000000000000, 0.000000000000000000 ) ) ;
#270 = ORIENTED_EDGE ( 'NONE', *, *, #182, .T. ) ;
#271 = EDGE_CURVE ( 'NONE', #143, #65, #67, .T. ) ;
#272 = SURFACE_STYLE_FILL_AREA ( #157 ) ;
#273 = ORIENTED_EDGE ( 'NONE', *, *, #209, .T. ) ;
#274 = ADVANCED_FACE ( 'NONE', ( #138 ), #166, .F. ) ;
#275 = FILL_AREA_STYLE ('',( #252 ) ) ;
#276 = PLANE ( 'NONE',  #331 ) ;
#277 = CIRCLE ( 'NONE', #100, 3.999999999999996447 ) ;
#278 = AXIS2_PLACEMENT_3D ( 'NONE', #318, #82, #342 ) ;
#279 = DIRECTION ( 'NONE',  ( 0.000000000000000000, 0.000000000000000000, -1.000000000000000000 ) ) ;
#280 =( NAMED_UNIT ( * ) PLANE_ANGLE_UNIT ( ) SI_UNIT ( $, .RADIAN. ) );
#281 = DIRECTION ( 'NONE',  ( -1.000000000000000000, 0.000000000000000000, 0.000000000000000000 ) ) ;
#282 = FILL_AREA_STYLE_COLOUR ( '', #140 ) ;
#283 = PRESENTATION_LAYER_ASSIGNMENT (  '', '', ( #80 ) ) ;
#284 = CIRCLE ( 'NONE', #224, 4.000000000000000000 ) ;
#285 = FILL_AREA_STYLE_COLOUR ( '', #353 ) ;
#286 = FILL_AREA_STYLE ('',( #282 ) ) ;
#287 = PRESENTATION_STYLE_ASSIGNMENT (( #222 ) ) ;
#288 = CARTESIAN_POINT ( 'NONE',  ( 0.000000000000000000, 0.5000000000000000000, 0.000000000000000000 ) ) ;
#289 = DIRECTION ( 'NONE',  ( -0.000000000000000000, -1.000000000000000000, -0.000000000000000000 ) ) ;
#290 = CIRCLE ( 'NONE', #158, 4.000000000000000000 ) ;
#291 = PRESENTATION_STYLE_ASSIGNMENT (( #238 ) ) ;
#292 = ORIENTED_EDGE ( 'NONE', *, *, #182, .F. ) ;
#293 = DIRECTION ( 'NONE',  ( -1.000000000000000000, 0.000000000000000000, 0.000000000000000000 ) ) ;
#294 = DIRECTION ( 'NONE',  ( 0.000000000000000000, 1.000000000000000000, 0.000000000000000000 ) ) ;
#295 = PRESENTATION_LAYER_ASSIGNMENT (  '', '', ( #79 ) ) ;
#296 = EDGE_CURVE ( 'NONE', #12, #232, #248, .T. ) ;
#297 = ORIENTED_EDGE ( 'NONE', *, *, #271, .F. ) ;
#298 = CYLINDRICAL_SURFACE ( 'NONE', #214, 3.999999999999998224 ) ;
#299 = ORIENTED_EDGE ( 'NONE', *, *, #169, .F. ) ;
#300 = AXIS2_PLACEMENT_3D ( 'NONE', #112, #172, #111 ) ;
#301 =( GEOMETRIC_REPRESENTATION_CONTEXT ( 3 ) GLOBAL_UNCERTAINTY_ASSIGNED_CONTEXT ( ( #38 ) ) GLOBAL_UNIT_ASSIGNED_CONTEXT ( ( #206, #60, #239 ) ) REPRESENTATION_CONTEXT ( 'NONE', 'WORKASPACE' ) );
#302 = ADVANCED_FACE ( 'NONE', ( #134 ), #3, .T. ) ;
#303 = CARTESIAN_POINT ( 'NONE',  ( 3.999999999999996447, 75.00000000000000000, 4.898587196589410857E-16 ) ) ;
#304 = LINE ( 'NONE', #316, #359 ) ;
#305 = CARTESIAN_POINT ( 'NONE',  ( 0.000000000000000000, 0.000000000000000000, -3.500000000000000000 ) ) ;
#306 =( GEOMETRIC_REPRESENTATION_CONTEXT ( 3 ) GLOBAL_UNCERTAINTY_ASSIGNED_CONTEXT ( ( #208 ) ) GLOBAL_UNIT_ASSIGNED_CONTEXT ( ( #363, #27, #52 ) ) REPRESENTATION_CONTEXT ( 'NONE', 'WORKASPACE' ) );
#307 = LINE ( 'NONE', #56, #313 ) ;
#308 = CARTESIAN_POINT ( 'NONE',  ( 0.000000000000000000, 0.000000000000000000, 0.000000000000000000 ) ) ;
#309 = CARTESIAN_POINT ( 'NONE',  ( 0.000000000000000000, 0.000000000000000000, 0.000000000000000000 ) ) ;
#310 = FILL_AREA_STYLE ('',( #285 ) ) ;
#311 = FACE_OUTER_BOUND ( 'NONE', #90, .T. ) ;
#312 =( LENGTH_UNIT ( ) NAMED_UNIT ( * ) SI_UNIT ( .MILLI., .METRE. ) );
#313 = VECTOR ( 'NONE', #289, 1000.000000000000000 ) ;
#314 = SURFACE_SIDE_STYLE ('',( #200 ) ) ;
#315 = CIRCLE ( 'NONE', #58, 4.000000000000000000 ) ;
#316 = CARTESIAN_POINT ( 'NONE',  ( -4.000000000000000000, 75.00000000000000000, 0.000000000000000000 ) ) ;
#317 =( LENGTH_UNIT ( ) NAMED_UNIT ( * ) SI_UNIT ( .MILLI., .METRE. ) );
#318 = CARTESIAN_POINT ( 'NONE',  ( 0.000000000000000000, 0.000000000000000000, 0.000000000000000000 ) ) ;
#319 = ORIENTED_EDGE ( 'NONE', *, *, #245, .F. ) ;
#320 = ADVANCED_FACE ( 'NONE', ( #197 ), #92, .T. ) ;
#321 = ORIENTED_EDGE ( 'NONE', *, *, #223, .T. ) ;
#322 = CIRCLE ( 'NONE', #150, 3.500000000000000000 ) ;
#323 = PRODUCT_CONTEXT ( 'NONE', #256, 'mechanical' ) ;
#324 = DIRECTION ( 'NONE',  ( 0.000000000000000000, 0.000000000000000000, -1.000000000000000000 ) ) ;
#325 = LINE ( 'NONE', #53, #255 ) ;
#326 = EDGE_LOOP ( 'NONE', ( #13, #104 ) ) ;
#327 = AXIS2_PLACEMENT_3D ( 'NONE', #210, #262, #293 ) ;
#328 = FACE_OUTER_BOUND ( 'NONE', #228, .T. ) ;
#329 = COLOUR_RGB ( '',1.000000000000000000, 0.000000000000000000, 0.000000000000000000 ) ;
#330 = DIRECTION ( 'NONE',  ( 0.000000000000000000, 0.000000000000000000, -1.000000000000000000 ) ) ;
#331 = AXIS2_PLACEMENT_3D ( 'NONE', #308, #191, #152 ) ;
#332 = ADVANCED_BREP_SHAPE_REPRESENTATION ( '59688', ( #98, #94, #40 ), #301 ) ;
#333 = FILL_AREA_STYLE_COLOUR ( '', #329 ) ;
#334 = FACE_OUTER_BOUND ( 'NONE', #37, .T. ) ;
#335 = ADVANCED_FACE ( 'NONE', ( #76 ), #276, .T. ) ;
#336 = CARTESIAN_POINT ( 'NONE',  ( 4.770489558936219510E-15, 24.00000000000000000, 0.000000000000000000 ) ) ;
#337 = FILL_AREA_STYLE ('',( #333 ) ) ;
#338 = COLOUR_RGB ( '',1.000000000000000000, 0.000000000000000000, 0.000000000000000000 ) ;
#339 = DIRECTION ( 'NONE',  ( -1.000000000000000000, -1.223542297630008506E-16, 0.000000000000000000 ) ) ;
#340 = DIRECTION ( 'NONE',  ( -0.000000000000000000, -1.000000000000000000, -0.000000000000000000 ) ) ;
#341 = DIRECTION ( 'NONE',  ( -1.000000000000000000, 0.000000000000000000, 0.000000000000000000 ) ) ;
#342 = DIRECTION ( 'NONE',  ( 0.000000000000000000, 0.000000000000000000, -1.000000000000000000 ) ) ;
#343 = DIRECTION ( 'NONE',  ( 1.223542297630008506E-16, -1.000000000000000000, 0.000000000000000000 ) ) ;
#344 = MECHANICAL_DESIGN_GEOMETRIC_PRESENTATION_REPRESENTATION (  '', ( #79 ), #163 ) ;
#345 = SURFACE_STYLE_FILL_AREA ( #131 ) ;
#346 = CIRCLE ( 'NONE', #85, 4.000000000000001776 ) ;
#347 = MECHANICAL_DESIGN_GEOMETRIC_PRESENTATION_REPRESENTATION (  '', ( #159 ), #114 ) ;
#348 = SURFACE_SIDE_STYLE ('',( #30 ) ) ;
#349 = CARTESIAN_POINT ( 'NONE',  ( -4.000000000000003553, 75.00000000000000000, 0.000000000000000000 ) ) ;
#350 = DIRECTION ( 'NONE',  ( -1.223542297630008506E-16, 1.000000000000000000, 0.000000000000000000 ) ) ;
#351 = VERTEX_POINT ( 'NONE', #10 ) ;
#352 = UNCERTAINTY_MEASURE_WITH_UNIT (LENGTH_MEASURE( 1.000000000000000082E-05 ), #22, 'distance_accuracy_value', 'NONE');
#353 = COLOUR_RGB ( '',1.000000000000000000, 0.000000000000000000, 0.000000000000000000 ) ;
#354 = DIRECTION ( 'NONE',  ( -0.000000000000000000, -1.000000000000000000, -0.000000000000000000 ) ) ;
#355 = DIRECTION ( 'NONE',  ( 0.000000000000000000, 0.000000000000000000, 1.000000000000000000 ) ) ;
#356 = FILL_AREA_STYLE_COLOUR ( '', #221 ) ;
#357 = VERTEX_POINT ( 'NONE', #122 ) ;
#358 = ORIENTED_EDGE ( 'NONE', *, *, #202, .F. ) ;
#359 = VECTOR ( 'NONE', #107, 1000.000000000000000 ) ;
#360 = ORIENTED_EDGE ( 'NONE', *, *, #209, .F. ) ;
#361 = AXIS2_PLACEMENT_3D ( 'NONE', #225, #340, #279 ) ;
#362 =( NAMED_UNIT ( * ) SI_UNIT ( $, .STERADIAN. ) SOLID_ANGLE_UNIT ( ) );
#363 =( LENGTH_UNIT ( ) NAMED_UNIT ( * ) SI_UNIT ( .MILLI., .METRE. ) );
#364 = STYLED_ITEM ( 'NONE', ( #226 ), #94 ) ;
#365 =( NAMED_UNIT ( * ) SI_UNIT ( $, .STERADIAN. ) SOLID_ANGLE_UNIT ( ) );
#366 = SURFACE_STYLE_FILL_AREA ( #199 ) ;
#367 = ADVANCED_FACE ( 'NONE', ( #328 ), #370, .T. ) ;
#368 = SURFACE_SIDE_STYLE ('',( #345 ) ) ;
#369 = VERTEX_POINT ( 'NONE', #204 ) ;
#370 = PLANE ( 'NONE',  #102 ) ;
ENDSEC;
END-ISO-10303-21;
