ISO-10303-21;
HEADER;
FILE_DESCRIPTION (( 'STEP AP214' ),
    '1' );
FILE_NAME ('84382.STEP',
    '2023-06-23T12:33:51',
    ( '' ),
    ( '' ),
    'SwSTEP 2.0',
    'SolidWorks 2023',
    '' );
FILE_SCHEMA (( 'AUTOMOTIVE_DESIGN' ));
ENDSEC;

DATA;
#1 = DIRECTION ( 'NONE',  ( 1.000000000000000000, 0.000000000000000000, 0.000000000000000000 ) ) ;
#2 = FILL_AREA_STYLE_COLOUR ( '', #161 ) ;
#3 = ORIENTED_EDGE ( 'NONE', *, *, #283, .F. ) ;
#4 = STYLED_ITEM ( 'NONE', ( #11 ), #269 ) ;
#5 =( NAMED_UNIT ( * ) PLANE_ANGLE_UNIT ( ) SI_UNIT ( $, .RADIAN. ) );
#6 = DIRECTION ( 'NONE',  ( 0.000000000000000000, 0.000000000000000000, -1.000000000000000000 ) ) ;
#7 = AXIS2_PLACEMENT_3D ( 'NONE', #266, #133, #6 ) ;
#8 = UNCERTAINTY_MEASURE_WITH_UNIT (LENGTH_MEASURE( 1.000000000000000082E-05 ), #225, 'distance_accuracy_value', 'NONE');
#9 = PLANE ( 'NONE',  #24 ) ;
#10 = VERTEX_POINT ( 'NONE', #170 ) ;
#11 = PRESENTATION_STYLE_ASSIGNMENT (( #285 ) ) ;
#12 = EDGE_LOOP ( 'NONE', ( #226, #291, #242, #87 ) ) ;
#13 = EDGE_CURVE ( 'NONE', #268, #10, #84, .T. ) ;
#14 = EDGE_LOOP ( 'NONE', ( #286, #115, #174, #173 ) ) ;
#15 = MECHANICAL_DESIGN_GEOMETRIC_PRESENTATION_REPRESENTATION (  '', ( #192 ), #136 ) ;
#16 = DIRECTION ( 'NONE',  ( 3.429011037612589276E-16, 1.000000000000000000, -0.000000000000000000 ) ) ;
#17 = LINE ( 'NONE', #231, #98 ) ;
#18 = FACE_OUTER_BOUND ( 'NONE', #62, .T. ) ;
#19 = MECHANICAL_DESIGN_GEOMETRIC_PRESENTATION_REPRESENTATION (  '', ( #255 ), #234 ) ;
#20 =( GEOMETRIC_REPRESENTATION_CONTEXT ( 3 ) GLOBAL_UNCERTAINTY_ASSIGNED_CONTEXT ( ( #125 ) ) GLOBAL_UNIT_ASSIGNED_CONTEXT ( ( #73, #75, #214 ) ) REPRESENTATION_CONTEXT ( 'NONE', 'WORKASPACE' ) );
#21 = SURFACE_SIDE_STYLE ('',( #297 ) ) ;
#22 = DIRECTION ( 'NONE',  ( 3.429011037612589276E-16, 1.000000000000000000, -0.000000000000000000 ) ) ;
#23 = APPLICATION_CONTEXT ( 'automotive_design' ) ;
#24 = AXIS2_PLACEMENT_3D ( 'NONE', #254, #110, #183 ) ;
#25 = CYLINDRICAL_SURFACE ( 'NONE', #284, 0.06250000000000001388 ) ;
#26 = CARTESIAN_POINT ( 'NONE',  ( 0.06250000000000001388, 0.2500000000000000555, 7.654042494670946760E-18 ) ) ;
#27 = SHAPE_DEFINITION_REPRESENTATION ( #238, #35 ) ;
#28 = DIRECTION ( 'NONE',  ( -1.000000000000000000, 0.000000000000000000, 0.000000000000000000 ) ) ;
#29 = AXIS2_PLACEMENT_3D ( 'NONE', #303, #145, #168 ) ;
#30 = MECHANICAL_DESIGN_GEOMETRIC_PRESENTATION_REPRESENTATION (  '', ( #65 ), #20 ) ;
#31 =( LENGTH_UNIT ( ) NAMED_UNIT ( * ) SI_UNIT ( $, .METRE. ) );
#32 = LINE ( 'NONE', #194, #175 ) ;
#33 = ORIENTED_EDGE ( 'NONE', *, *, #239, .F. ) ;
#34 = EDGE_CURVE ( 'NONE', #42, #38, #222, .T. ) ;
#35 = ADVANCED_BREP_SHAPE_REPRESENTATION ( '84382', ( #49, #44, #140 ), #228 ) ;
#36 = AXIS2_PLACEMENT_3D ( 'NONE', #186, #144, #306 ) ;
#37 =( NAMED_UNIT ( * ) SI_UNIT ( $, .STERADIAN. ) SOLID_ANGLE_UNIT ( ) );
#38 = VERTEX_POINT ( 'NONE', #66 ) ;
#39 = CIRCLE ( 'NONE', #257, 0.06250000000000001388 ) ;
#40 = SURFACE_SIDE_STYLE ('',( #244 ) ) ;
#41 = EDGE_CURVE ( 'NONE', #38, #198, #32, .T. ) ;
#42 = VERTEX_POINT ( 'NONE', #271 ) ;
#43 = PRESENTATION_STYLE_ASSIGNMENT (( #120 ) ) ;
#44 = MANIFOLD_SOLID_BREP ( 'Revolve - Tool Body (Straight Shanked)', #117 ) ;
#45 = CARTESIAN_POINT ( 'NONE',  ( 0.06250000000000023592, 1.499999999999999778, 7.654042494670934434E-18 ) ) ;
#46 =( GEOMETRIC_REPRESENTATION_CONTEXT ( 3 ) GLOBAL_UNCERTAINTY_ASSIGNED_CONTEXT ( ( #166 ) ) GLOBAL_UNIT_ASSIGNED_CONTEXT ( ( #241, #5, #153 ) ) REPRESENTATION_CONTEXT ( 'NONE', 'WORKASPACE' ) );
#47 = COLOUR_RGB ( '',0.7921568627450980005, 0.8196078431372548767, 0.9333333333333333481 ) ;
#48 = PLANE ( 'NONE',  #185 ) ;
#49 = MANIFOLD_SOLID_BREP ( 'Revolve - Cutting Edge', #60 ) ;
#50 =( NAMED_UNIT ( * ) PLANE_ANGLE_UNIT ( ) SI_UNIT ( $, .RADIAN. ) );
#51 = UNCERTAINTY_MEASURE_WITH_UNIT (LENGTH_MEASURE( 1.000000000000000082E-05 ), #158, 'distance_accuracy_value', 'NONE');
#52 = DIRECTION ( 'NONE',  ( 3.429011037612589276E-16, 1.000000000000000000, -0.000000000000000000 ) ) ;
#53 = MECHANICAL_DESIGN_GEOMETRIC_PRESENTATION_REPRESENTATION (  '', ( #146 ), #251 ) ;
#54 = CARTESIAN_POINT ( 'NONE',  ( 0.000000000000000000, 0.000000000000000000, 0.000000000000000000 ) ) ;
#55 = SURFACE_SIDE_STYLE ('',( #58 ) ) ;
#56 =( NAMED_UNIT ( * ) PLANE_ANGLE_UNIT ( ) SI_UNIT ( $, .RADIAN. ) );
#57 = EDGE_CURVE ( 'NONE', #10, #268, #142, .T. ) ;
#58 = SURFACE_STYLE_FILL_AREA ( #308 ) ;
#59 = CARTESIAN_POINT ( 'NONE',  ( -0.06249999999999937550, 1.499999999999999778, 0.000000000000000000 ) ) ;
#60 = CLOSED_SHELL ( 'NONE', ( #258, #205, #269, #272 ) ) ;
#61 = SURFACE_SIDE_STYLE ('',( #169 ) ) ;
#62 = EDGE_LOOP ( 'NONE', ( #86, #270 ) ) ;
#63 = CARTESIAN_POINT ( 'NONE',  ( 0.06250000000000001388, 1.499999999999999778, 7.654042494670946760E-18 ) ) ;
#64 = ORIENTED_EDGE ( 'NONE', *, *, #248, .F. ) ;
#65 = STYLED_ITEM ( 'NONE', ( #181 ), #205 ) ;
#66 = CARTESIAN_POINT ( 'NONE',  ( 7.654042494670959086E-18, 0.2500000000000000555, 0.06250000000000001388 ) ) ;
#67 = ORIENTED_EDGE ( 'NONE', *, *, #72, .F. ) ;
#68 = LENGTH_MEASURE_WITH_UNIT ( LENGTH_MEASURE( 0.02539999999999999897 ), #296 );
#69 = CARTESIAN_POINT ( 'NONE',  ( 4.286263797015735609E-16, 1.499999999999999778, 0.000000000000000000 ) ) ;
#70 = DIMENSIONAL_EXPONENTS ( 1.000000000000000000, 0.000000000000000000, 0.000000000000000000, 0.000000000000000000, 0.000000000000000000, 0.000000000000000000, 0.000000000000000000 ) ;
#71 = AXIS2_PLACEMENT_3D ( 'NONE', #54, #83, #262 ) ;
#72 = EDGE_CURVE ( 'NONE', #220, #268, #160, .T. ) ;
#73 =( CONVERSION_BASED_UNIT ( 'INCH', #235 ) LENGTH_UNIT ( ) NAMED_UNIT ( #105 ) );
#74 =( LENGTH_UNIT ( ) NAMED_UNIT ( * ) SI_UNIT ( $, .METRE. ) );
#75 =( NAMED_UNIT ( * ) PLANE_ANGLE_UNIT ( ) SI_UNIT ( $, .RADIAN. ) );
#76 = MECHANICAL_DESIGN_GEOMETRIC_PRESENTATION_REPRESENTATION (  '', ( #4 ), #46 ) ;
#77 = PRODUCT_CONTEXT ( 'NONE', #128, 'mechanical' ) ;
#78 = PRESENTATION_LAYER_ASSIGNMENT (  '', '', ( #65 ) ) ;
#79 = FACE_OUTER_BOUND ( 'NONE', #154, .T. ) ;
#80 =( CONVERSION_BASED_UNIT ( 'INCH', #278 ) LENGTH_UNIT ( ) NAMED_UNIT ( #178 ) );
#81 = FILL_AREA_STYLE ('',( #152 ) ) ;
#82 = VECTOR ( 'NONE', #302, 39.37007874015748143 ) ;
#83 = DIRECTION ( 'NONE',  ( -0.000000000000000000, -1.000000000000000000, -0.000000000000000000 ) ) ;
#84 = CIRCLE ( 'NONE', #157, 0.06249999999999959061 ) ;
#85 = CYLINDRICAL_SURFACE ( 'NONE', #294, 0.06250000000000001388 ) ;
#86 = ORIENTED_EDGE ( 'NONE', *, *, #57, .T. ) ;
#87 = ORIENTED_EDGE ( 'NONE', *, *, #301, .F. ) ;
#88 = DIRECTION ( 'NONE',  ( -0.000000000000000000, -1.000000000000000000, -0.000000000000000000 ) ) ;
#89 = ORIENTED_EDGE ( 'NONE', *, *, #301, .T. ) ;
#90 = CIRCLE ( 'NONE', #191, 0.06250000000000001388 ) ;
#91 = ORIENTED_EDGE ( 'NONE', *, *, #180, .T. ) ;
#92 = AXIS2_PLACEMENT_3D ( 'NONE', #200, #138, #252 ) ;
#93 = DIRECTION ( 'NONE',  ( -0.000000000000000000, -1.000000000000000000, -0.000000000000000000 ) ) ;
#94 = PLANE ( 'NONE',  #92 ) ;
#95 = EDGE_CURVE ( 'NONE', #42, #172, #17, .T. ) ;
#96 = COLOUR_RGB ( '',1.000000000000000000, 0.000000000000000000, 0.000000000000000000 ) ;
#97 = CARTESIAN_POINT ( 'NONE',  ( 3.674411467521553329E-33, 0.2500000000000000555, 0.000000000000000000 ) ) ;
#98 = VECTOR ( 'NONE', #249, 39.37007874015748143 ) ;
#99 = SURFACE_STYLE_USAGE ( .BOTH. , #21 ) ;
#100 = DIMENSIONAL_EXPONENTS ( 1.000000000000000000, 0.000000000000000000, 0.000000000000000000, 0.000000000000000000, 0.000000000000000000, 0.000000000000000000, 0.000000000000000000 ) ;
#101 = DIRECTION ( 'NONE',  ( -1.000000000000000000, 5.463695987328525451E-16, 0.000000000000000000 ) ) ;
#102 = VECTOR ( 'NONE', #156, 39.37007874015748143 ) ;
#103 =( LENGTH_UNIT ( ) NAMED_UNIT ( * ) SI_UNIT ( $, .METRE. ) );
#104 = SURFACE_SIDE_STYLE ('',( #260 ) ) ;
#105 = DIMENSIONAL_EXPONENTS ( 1.000000000000000000, 0.000000000000000000, 0.000000000000000000, 0.000000000000000000, 0.000000000000000000, 0.000000000000000000, 0.000000000000000000 ) ;
#106 = DIRECTION ( 'NONE',  ( 3.429011037612589276E-16, 1.000000000000000000, -0.000000000000000000 ) ) ;
#107 = COLOUR_RGB ( '',1.000000000000000000, 0.000000000000000000, 0.000000000000000000 ) ;
#108 = AXIS2_PLACEMENT_3D ( 'NONE', #261, #188, #209 ) ;
#109 = FILL_AREA_STYLE_COLOUR ( '', #96 ) ;
#110 = DIRECTION ( 'NONE',  ( 0.000000000000000000, -1.000000000000000000, -0.000000000000000000 ) ) ;
#111 =( CONVERSION_BASED_UNIT ( 'INCH', #309 ) LENGTH_UNIT ( ) NAMED_UNIT ( #70 ) );
#112 =( LENGTH_UNIT ( ) NAMED_UNIT ( * ) SI_UNIT ( $, .METRE. ) );
#113 = FILL_AREA_STYLE ('',( #218 ) ) ;
#114 = PRESENTATION_STYLE_ASSIGNMENT (( #150 ) ) ;
#115 = ORIENTED_EDGE ( 'NONE', *, *, #248, .T. ) ;
#116 = DIRECTION ( 'NONE',  ( 3.429011037612589276E-16, 1.000000000000000000, -0.000000000000000000 ) ) ;
#117 = CLOSED_SHELL ( 'NONE', ( #224, #141, #219, #137 ) ) ;
#118 = ORIENTED_EDGE ( 'NONE', *, *, #180, .F. ) ;
#119 = FILL_AREA_STYLE_COLOUR ( '', #47 ) ;
#120 = SURFACE_STYLE_USAGE ( .BOTH. , #299 ) ;
#121 = CARTESIAN_POINT ( 'NONE',  ( 0.000000000000000000, 0.000000000000000000, -0.06250000000000001388 ) ) ;
#122 = PRESENTATION_STYLE_ASSIGNMENT (( #164 ) ) ;
#123 = DIMENSIONAL_EXPONENTS ( 1.000000000000000000, 0.000000000000000000, 0.000000000000000000, 0.000000000000000000, 0.000000000000000000, 0.000000000000000000, 0.000000000000000000 ) ;
#124 = CARTESIAN_POINT ( 'NONE',  ( 0.000000000000000000, 0.2500000000000000555, 0.000000000000000000 ) ) ;
#125 = UNCERTAINTY_MEASURE_WITH_UNIT (LENGTH_MEASURE( 1.000000000000000082E-05 ), #73, 'distance_accuracy_value', 'NONE');
#126 = DIRECTION ( 'NONE',  ( -1.000000000000000000, 5.463695987328525451E-16, 0.000000000000000000 ) ) ;
#127 = ORIENTED_EDGE ( 'NONE', *, *, #34, .F. ) ;
#128 = APPLICATION_CONTEXT ( 'automotive_design' ) ;
#129 = AXIS2_PLACEMENT_3D ( 'NONE', #253, #106, #28 ) ;
#130 = AXIS2_PLACEMENT_3D ( 'NONE', #69, #16, #139 ) ;
#131 = EDGE_LOOP ( 'NONE', ( #67, #91, #89, #246 ) ) ;
#132 = CARTESIAN_POINT ( 'NONE',  ( 0.000000000000000000, 0.000000000000000000, 0.000000000000000000 ) ) ;
#133 = DIRECTION ( 'NONE',  ( -0.000000000000000000, -1.000000000000000000, -0.000000000000000000 ) ) ;
#134 = EDGE_LOOP ( 'NONE', ( #127, #64 ) ) ;
#135 = PRESENTATION_LAYER_ASSIGNMENT (  '', '', ( #4 ) ) ;
#136 =( GEOMETRIC_REPRESENTATION_CONTEXT ( 3 ) GLOBAL_UNCERTAINTY_ASSIGNED_CONTEXT ( ( #143 ) ) GLOBAL_UNIT_ASSIGNED_CONTEXT ( ( #203, #273, #232 ) ) REPRESENTATION_CONTEXT ( 'NONE', 'WORKASPACE' ) );
#137 = ADVANCED_FACE ( 'NONE', ( #18 ), #94, .F. ) ;
#138 = DIRECTION ( 'NONE',  ( -3.429011037612589276E-16, -1.000000000000000000, 0.000000000000000000 ) ) ;
#139 = DIRECTION ( 'NONE',  ( -1.000000000000000000, 0.000000000000000000, 0.000000000000000000 ) ) ;
#140 = AXIS2_PLACEMENT_3D ( 'NONE', #280, #210, #1 ) ;
#141 = ADVANCED_FACE ( 'NONE', ( #293 ), #48, .F. ) ;
#142 = CIRCLE ( 'NONE', #130, 0.06249999999999959061 ) ;
#143 = UNCERTAINTY_MEASURE_WITH_UNIT (LENGTH_MEASURE( 1.000000000000000082E-05 ), #203, 'distance_accuracy_value', 'NONE');
#144 = DIRECTION ( 'NONE',  ( -0.000000000000000000, -1.000000000000000000, -0.000000000000000000 ) ) ;
#145 = DIRECTION ( 'NONE',  ( 3.429011037612589276E-16, 1.000000000000000000, -0.000000000000000000 ) ) ;
#146 = STYLED_ITEM ( 'NONE', ( #114 ), #272 ) ;
#147 =( NAMED_UNIT ( * ) SI_UNIT ( $, .STERADIAN. ) SOLID_ANGLE_UNIT ( ) );
#148 = FACE_OUTER_BOUND ( 'NONE', #14, .T. ) ;
#149 = UNCERTAINTY_MEASURE_WITH_UNIT (LENGTH_MEASURE( 1.000000000000000082E-05 ), #80, 'distance_accuracy_value', 'NONE');
#150 = SURFACE_STYLE_USAGE ( .BOTH. , #40 ) ;
#151 = ORIENTED_EDGE ( 'NONE', *, *, #95, .F. ) ;
#152 = FILL_AREA_STYLE_COLOUR ( '', #107 ) ;
#153 =( NAMED_UNIT ( * ) SI_UNIT ( $, .STERADIAN. ) SOLID_ANGLE_UNIT ( ) );
#154 = EDGE_LOOP ( 'NONE', ( #155, #288, #3, #151 ) ) ;
#155 = ORIENTED_EDGE ( 'NONE', *, *, #34, .T. ) ;
#156 = DIRECTION ( 'NONE',  ( 3.429011037612589276E-16, 1.000000000000000000, -0.000000000000000000 ) ) ;
#157 = AXIS2_PLACEMENT_3D ( 'NONE', #245, #116, #240 ) ;
#158 =( CONVERSION_BASED_UNIT ( 'INCH', #179 ) LENGTH_UNIT ( ) NAMED_UNIT ( #207 ) );
#159 = FILL_AREA_STYLE ('',( #119 ) ) ;
#160 = LINE ( 'NONE', #45, #102 ) ;
#161 = COLOUR_RGB ( '',1.000000000000000000, 0.000000000000000000, 0.000000000000000000 ) ;
#162 =( NAMED_UNIT ( * ) PLANE_ANGLE_UNIT ( ) SI_UNIT ( $, .RADIAN. ) );
#163 = CYLINDRICAL_SURFACE ( 'NONE', #129, 0.06249999999999980571 ) ;
#164 = SURFACE_STYLE_USAGE ( .BOTH. , #104 ) ;
#165 = CIRCLE ( 'NONE', #36, 0.06250000000000001388 ) ;
#166 = UNCERTAINTY_MEASURE_WITH_UNIT (LENGTH_MEASURE( 1.000000000000000082E-05 ), #241, 'distance_accuracy_value', 'NONE');
#167 = FACE_OUTER_BOUND ( 'NONE', #131, .T. ) ;
#168 = DIRECTION ( 'NONE',  ( -1.000000000000000000, 0.000000000000000000, 0.000000000000000000 ) ) ;
#169 = SURFACE_STYLE_FILL_AREA ( #81 ) ;
#170 = CARTESIAN_POINT ( 'NONE',  ( -0.06249999999999916039, 1.499999999999999778, 0.000000000000000000 ) ) ;
#171 =( LENGTH_UNIT ( ) NAMED_UNIT ( * ) SI_UNIT ( $, .METRE. ) );
#172 = VERTEX_POINT ( 'NONE', #121 ) ;
#173 = ORIENTED_EDGE ( 'NONE', *, *, #307, .F. ) ;
#174 = ORIENTED_EDGE ( 'NONE', *, *, #95, .T. ) ;
#175 = VECTOR ( 'NONE', #93, 39.37007874015748143 ) ;
#176 = PRESENTATION_STYLE_ASSIGNMENT (( #99 ) ) ;
#177 = PRODUCT_DEFINITION_CONTEXT ( 'detailed design', #23, 'design' ) ;
#178 = DIMENSIONAL_EXPONENTS ( 1.000000000000000000, 0.000000000000000000, 0.000000000000000000, 0.000000000000000000, 0.000000000000000000, 0.000000000000000000, 0.000000000000000000 ) ;
#179 = LENGTH_MEASURE_WITH_UNIT ( LENGTH_MEASURE( 0.02539999999999999897 ), #199 );
#180 = EDGE_CURVE ( 'NONE', #220, #290, #39, .T. ) ;
#181 = PRESENTATION_STYLE_ASSIGNMENT (( #279 ) ) ;
#182 = LINE ( 'NONE', #59, #82 ) ;
#183 = DIRECTION ( 'NONE',  ( 0.000000000000000000, 0.000000000000000000, -1.000000000000000000 ) ) ;
#184 = DIRECTION ( 'NONE',  ( -0.000000000000000000, -1.000000000000000000, -0.000000000000000000 ) ) ;
#185 = AXIS2_PLACEMENT_3D ( 'NONE', #97, #22, #250 ) ;
#186 = CARTESIAN_POINT ( 'NONE',  ( 0.000000000000000000, 0.000000000000000000, 0.000000000000000000 ) ) ;
#187 = FACE_OUTER_BOUND ( 'NONE', #12, .T. ) ;
#188 = DIRECTION ( 'NONE',  ( 0.000000000000000000, 1.000000000000000000, 0.000000000000000000 ) ) ;
#189 = CARTESIAN_POINT ( 'NONE',  ( 0.000000000000000000, 0.000000000000000000, 0.000000000000000000 ) ) ;
#190 = EDGE_LOOP ( 'NONE', ( #33, #118 ) ) ;
#191 = AXIS2_PLACEMENT_3D ( 'NONE', #211, #184, #281 ) ;
#192 = STYLED_ITEM ( 'NONE', ( #43 ), #44 ) ;
#193 = DIRECTION ( 'NONE',  ( 0.000000000000000000, 0.000000000000000000, -1.000000000000000000 ) ) ;
#194 = CARTESIAN_POINT ( 'NONE',  ( 7.654042494670959086E-18, 0.000000000000000000, 0.06250000000000001388 ) ) ;
#195 = DIRECTION ( 'NONE',  ( -0.000000000000000000, -1.000000000000000000, -0.000000000000000000 ) ) ;
#196 = EDGE_LOOP ( 'NONE', ( #243, #227 ) ) ;
#197 = PRODUCT_DEFINITION_FORMATION_WITH_SPECIFIED_SOURCE ( 'ANY', '', #305, .NOT_KNOWN. ) ;
#198 = VERTEX_POINT ( 'NONE', #216 ) ;
#199 =( LENGTH_UNIT ( ) NAMED_UNIT ( * ) SI_UNIT ( $, .METRE. ) );
#200 = CARTESIAN_POINT ( 'NONE',  ( 0.06250000000000001388, 1.499999999999999778, 0.000000000000000000 ) ) ;
#201 = PRODUCT_RELATED_PRODUCT_CATEGORY ( 'part', '', ( #305 ) ) ;
#202 = COLOUR_RGB ( '',1.000000000000000000, 0.000000000000000000, 0.000000000000000000 ) ;
#203 =( CONVERSION_BASED_UNIT ( 'INCH', #68 ) LENGTH_UNIT ( ) NAMED_UNIT ( #298 ) );
#204 = DIRECTION ( 'NONE',  ( 3.429011037612589276E-16, 1.000000000000000000, -0.000000000000000000 ) ) ;
#205 = ADVANCED_FACE ( 'NONE', ( #256 ), #237, .T. ) ;
#206 = COLOUR_RGB ( '',0.7921568627450980005, 0.8196078431372548767, 0.9333333333333333481 ) ;
#207 = DIMENSIONAL_EXPONENTS ( 1.000000000000000000, 0.000000000000000000, 0.000000000000000000, 0.000000000000000000, 0.000000000000000000, 0.000000000000000000, 0.000000000000000000 ) ;
#208 = CARTESIAN_POINT ( 'NONE',  ( -0.06250000000000001388, 0.2500000000000001110, 0.000000000000000000 ) ) ;
#209 = DIRECTION ( 'NONE',  ( 0.000000000000000000, -0.000000000000000000, 1.000000000000000000 ) ) ;
#210 = DIRECTION ( 'NONE',  ( 0.000000000000000000, 0.000000000000000000, 1.000000000000000000 ) ) ;
#211 = CARTESIAN_POINT ( 'NONE',  ( 0.000000000000000000, 0.2500000000000000555, 0.000000000000000000 ) ) ;
#212 =( NAMED_UNIT ( * ) SI_UNIT ( $, .STERADIAN. ) SOLID_ANGLE_UNIT ( ) );
#213 = PRESENTATION_LAYER_ASSIGNMENT (  '', '', ( #146 ) ) ;
#214 =( NAMED_UNIT ( * ) SI_UNIT ( $, .STERADIAN. ) SOLID_ANGLE_UNIT ( ) );
#215 = STYLED_ITEM ( 'NONE', ( #176 ), #49 ) ;
#216 = CARTESIAN_POINT ( 'NONE',  ( 7.654042494670959086E-18, 0.000000000000000000, 0.06250000000000001388 ) ) ;
#217 = DIRECTION ( 'NONE',  ( 0.000000000000000000, 0.000000000000000000, -1.000000000000000000 ) ) ;
#218 = FILL_AREA_STYLE_COLOUR ( '', #206 ) ;
#219 = ADVANCED_FACE ( 'NONE', ( #167 ), #304, .T. ) ;
#220 = VERTEX_POINT ( 'NONE', #26 ) ;
#221 = CIRCLE ( 'NONE', #71, 0.06250000000000001388 ) ;
#222 = CIRCLE ( 'NONE', #7, 0.06250000000000001388 ) ;
#223 = FACE_OUTER_BOUND ( 'NONE', #196, .T. ) ;
#224 = ADVANCED_FACE ( 'NONE', ( #187 ), #163, .T. ) ;
#225 =( CONVERSION_BASED_UNIT ( 'INCH', #267 ) LENGTH_UNIT ( ) NAMED_UNIT ( #123 ) );
#226 = ORIENTED_EDGE ( 'NONE', *, *, #239, .T. ) ;
#227 = ORIENTED_EDGE ( 'NONE', *, *, #307, .T. ) ;
#228 =( GEOMETRIC_REPRESENTATION_CONTEXT ( 3 ) GLOBAL_UNCERTAINTY_ASSIGNED_CONTEXT ( ( #149 ) ) GLOBAL_UNIT_ASSIGNED_CONTEXT ( ( #80, #56, #147 ) ) REPRESENTATION_CONTEXT ( 'NONE', 'WORKASPACE' ) );
#229 = CARTESIAN_POINT ( 'NONE',  ( 0.000000000000000000, 0.2500000000000000555, 0.000000000000000000 ) ) ;
#230 = PRESENTATION_LAYER_ASSIGNMENT (  '', '', ( #255 ) ) ;
#231 = CARTESIAN_POINT ( 'NONE',  ( 0.000000000000000000, 0.000000000000000000, -0.06250000000000001388 ) ) ;
#232 =( NAMED_UNIT ( * ) SI_UNIT ( $, .STERADIAN. ) SOLID_ANGLE_UNIT ( ) );
#233 = FILL_AREA_STYLE_COLOUR ( '', #202 ) ;
#234 =( GEOMETRIC_REPRESENTATION_CONTEXT ( 3 ) GLOBAL_UNCERTAINTY_ASSIGNED_CONTEXT ( ( #277 ) ) GLOBAL_UNIT_ASSIGNED_CONTEXT ( ( #111, #50, #37 ) ) REPRESENTATION_CONTEXT ( 'NONE', 'WORKASPACE' ) );
#235 = LENGTH_MEASURE_WITH_UNIT ( LENGTH_MEASURE( 0.02539999999999999897 ), #103 );
#236 = APPLICATION_PROTOCOL_DEFINITION ( 'draft international standard', 'automotive_design', 1998, #128 ) ;
#237 = PLANE ( 'NONE',  #108 ) ;
#238 = PRODUCT_DEFINITION_SHAPE ( 'NONE', 'NONE',  #276 ) ;
#239 = EDGE_CURVE ( 'NONE', #290, #220, #274, .T. ) ;
#240 = DIRECTION ( 'NONE',  ( -1.000000000000000000, 0.000000000000000000, 0.000000000000000000 ) ) ;
#241 =( CONVERSION_BASED_UNIT ( 'INCH', #287 ) LENGTH_UNIT ( ) NAMED_UNIT ( #100 ) );
#242 = ORIENTED_EDGE ( 'NONE', *, *, #57, .F. ) ;
#243 = ORIENTED_EDGE ( 'NONE', *, *, #283, .T. ) ;
#244 = SURFACE_STYLE_FILL_AREA ( #265 ) ;
#245 = CARTESIAN_POINT ( 'NONE',  ( 4.286263797015735609E-16, 1.499999999999999778, 0.000000000000000000 ) ) ;
#246 = ORIENTED_EDGE ( 'NONE', *, *, #13, .F. ) ;
#247 = PRESENTATION_LAYER_ASSIGNMENT (  '', '', ( #192 ) ) ;
#248 = EDGE_CURVE ( 'NONE', #38, #42, #90, .T. ) ;
#249 = DIRECTION ( 'NONE',  ( -0.000000000000000000, -1.000000000000000000, -0.000000000000000000 ) ) ;
#250 = DIRECTION ( 'NONE',  ( -1.000000000000000000, 3.429011037612589276E-16, 0.000000000000000000 ) ) ;
#251 =( GEOMETRIC_REPRESENTATION_CONTEXT ( 3 ) GLOBAL_UNCERTAINTY_ASSIGNED_CONTEXT ( ( #8 ) ) GLOBAL_UNIT_ASSIGNED_CONTEXT ( ( #225, #289, #212 ) ) REPRESENTATION_CONTEXT ( 'NONE', 'WORKASPACE' ) );
#252 = DIRECTION ( 'NONE',  ( 1.000000000000000000, -3.429011037612589276E-16, 0.000000000000000000 ) ) ;
#253 = CARTESIAN_POINT ( 'NONE',  ( 4.286263797015735609E-16, 1.499999999999999778, 0.000000000000000000 ) ) ;
#254 = CARTESIAN_POINT ( 'NONE',  ( 0.000000000000000000, 0.000000000000000000, 0.000000000000000000 ) ) ;
#255 = STYLED_ITEM ( 'NONE', ( #122 ), #258 ) ;
#256 = FACE_OUTER_BOUND ( 'NONE', #134, .T. ) ;
#257 = AXIS2_PLACEMENT_3D ( 'NONE', #229, #204, #101 ) ;
#258 = ADVANCED_FACE ( 'NONE', ( #79 ), #25, .T. ) ;
#259 = APPLICATION_PROTOCOL_DEFINITION ( 'draft international standard', 'automotive_design', 1998, #23 ) ;
#260 = SURFACE_STYLE_FILL_AREA ( #282 ) ;
#261 = CARTESIAN_POINT ( 'NONE',  ( 0.000000000000000000, 0.2500000000000000555, 0.000000000000000000 ) ) ;
#262 = DIRECTION ( 'NONE',  ( 0.000000000000000000, 0.000000000000000000, -1.000000000000000000 ) ) ;
#263 = AXIS2_PLACEMENT_3D ( 'NONE', #124, #52, #126 ) ;
#264 = SURFACE_STYLE_FILL_AREA ( #113 ) ;
#265 = FILL_AREA_STYLE ('',( #2 ) ) ;
#266 = CARTESIAN_POINT ( 'NONE',  ( 0.000000000000000000, 0.2500000000000000555, 0.000000000000000000 ) ) ;
#267 = LENGTH_MEASURE_WITH_UNIT ( LENGTH_MEASURE( 0.02539999999999999897 ), #171 );
#268 = VERTEX_POINT ( 'NONE', #63 ) ;
#269 = ADVANCED_FACE ( 'NONE', ( #148 ), #85, .T. ) ;
#270 = ORIENTED_EDGE ( 'NONE', *, *, #13, .T. ) ;
#271 = CARTESIAN_POINT ( 'NONE',  ( 0.000000000000000000, 0.2500000000000000555, -0.06250000000000001388 ) ) ;
#272 = ADVANCED_FACE ( 'NONE', ( #223 ), #9, .T. ) ;
#273 =( NAMED_UNIT ( * ) PLANE_ANGLE_UNIT ( ) SI_UNIT ( $, .RADIAN. ) );
#274 = CIRCLE ( 'NONE', #263, 0.06250000000000001388 ) ;
#275 =( GEOMETRIC_REPRESENTATION_CONTEXT ( 3 ) GLOBAL_UNCERTAINTY_ASSIGNED_CONTEXT ( ( #51 ) ) GLOBAL_UNIT_ASSIGNED_CONTEXT ( ( #158, #162, #292 ) ) REPRESENTATION_CONTEXT ( 'NONE', 'WORKASPACE' ) );
#276 = PRODUCT_DEFINITION ( 'UNKNOWN', '', #197, #177 ) ;
#277 = UNCERTAINTY_MEASURE_WITH_UNIT (LENGTH_MEASURE( 1.000000000000000082E-05 ), #111, 'distance_accuracy_value', 'NONE');
#278 = LENGTH_MEASURE_WITH_UNIT ( LENGTH_MEASURE( 0.02539999999999999897 ), #74 );
#279 = SURFACE_STYLE_USAGE ( .BOTH. , #55 ) ;
#280 = CARTESIAN_POINT ( 'NONE',  ( 0.000000000000000000, 0.000000000000000000, 0.000000000000000000 ) ) ;
#281 = DIRECTION ( 'NONE',  ( 0.000000000000000000, 0.000000000000000000, -1.000000000000000000 ) ) ;
#282 = FILL_AREA_STYLE ('',( #109 ) ) ;
#283 = EDGE_CURVE ( 'NONE', #172, #198, #221, .T. ) ;
#284 = AXIS2_PLACEMENT_3D ( 'NONE', #189, #195, #193 ) ;
#285 = SURFACE_STYLE_USAGE ( .BOTH. , #61 ) ;
#286 = ORIENTED_EDGE ( 'NONE', *, *, #41, .F. ) ;
#287 = LENGTH_MEASURE_WITH_UNIT ( LENGTH_MEASURE( 0.02539999999999999897 ), #112 );
#288 = ORIENTED_EDGE ( 'NONE', *, *, #41, .T. ) ;
#289 =( NAMED_UNIT ( * ) PLANE_ANGLE_UNIT ( ) SI_UNIT ( $, .RADIAN. ) );
#290 = VERTEX_POINT ( 'NONE', #208 ) ;
#291 = ORIENTED_EDGE ( 'NONE', *, *, #72, .T. ) ;
#292 =( NAMED_UNIT ( * ) SI_UNIT ( $, .STERADIAN. ) SOLID_ANGLE_UNIT ( ) );
#293 = FACE_OUTER_BOUND ( 'NONE', #190, .T. ) ;
#294 = AXIS2_PLACEMENT_3D ( 'NONE', #132, #88, #217 ) ;
#295 = PRESENTATION_LAYER_ASSIGNMENT (  '', '', ( #215 ) ) ;
#296 =( LENGTH_UNIT ( ) NAMED_UNIT ( * ) SI_UNIT ( $, .METRE. ) );
#297 = SURFACE_STYLE_FILL_AREA ( #159 ) ;
#298 = DIMENSIONAL_EXPONENTS ( 1.000000000000000000, 0.000000000000000000, 0.000000000000000000, 0.000000000000000000, 0.000000000000000000, 0.000000000000000000, 0.000000000000000000 ) ;
#299 = SURFACE_SIDE_STYLE ('',( #264 ) ) ;
#300 = MECHANICAL_DESIGN_GEOMETRIC_PRESENTATION_REPRESENTATION (  '', ( #215 ), #275 ) ;
#301 = EDGE_CURVE ( 'NONE', #290, #10, #182, .T. ) ;
#302 = DIRECTION ( 'NONE',  ( 3.429011037612589276E-16, 1.000000000000000000, -0.000000000000000000 ) ) ;
#303 = CARTESIAN_POINT ( 'NONE',  ( 4.286263797015735609E-16, 1.499999999999999778, 0.000000000000000000 ) ) ;
#304 = CYLINDRICAL_SURFACE ( 'NONE', #29, 0.06249999999999980571 ) ;
#305 = PRODUCT ( '84382', '84382', '', ( #77 ) ) ;
#306 = DIRECTION ( 'NONE',  ( 0.000000000000000000, 0.000000000000000000, -1.000000000000000000 ) ) ;
#307 = EDGE_CURVE ( 'NONE', #198, #172, #165, .T. ) ;
#308 = FILL_AREA_STYLE ('',( #233 ) ) ;
#309 = LENGTH_MEASURE_WITH_UNIT ( LENGTH_MEASURE( 0.02539999999999999897 ), #31 );
ENDSEC;
END-ISO-10303-21;
