ISO-10303-21;
HEADER;
FILE_DESCRIPTION (( 'STEP AP214' ),
    '1' );
FILE_NAME ('Micro_RNC-250-220X.STEP',
    '2021-09-03T17:36:06',
    ( '' ),
    ( '' ),
    'SwSTEP 2.0',
    'SolidWorks 2020',
    '' );
FILE_SCHEMA (( 'AUTOMOTIVE_DESIGN' ));
ENDSEC;

DATA;
#1 = ADVANCED_FACE ( 'NONE', ( #21 ), #210, .T. ) ;
#2 = CARTESIAN_POINT ( 'NONE',  ( 0.0000000000000000000, 0.0000000000000000000, 0.0000000000000000000 ) ) ;
#3 = DIRECTION ( 'NONE',  ( 1.000000000000000000, 0.0000000000000000000, 0.0000000000000000000 ) ) ;
#4 = DIRECTION ( 'NONE',  ( 0.0000000000000000000, 0.0000000000000000000, -1.000000000000000000 ) ) ;
#5 = UNCERTAINTY_MEASURE_WITH_UNIT (LENGTH_MEASURE( 1.000000000000000082E-05 ), #241, 'distance_accuracy_value', 'NONE');
#6 = DIRECTION ( 'NONE',  ( -1.000000000000000000, 0.0000000000000000000, 0.0000000000000000000 ) ) ;
#7 = FACE_OUTER_BOUND ( 'NONE', #209, .T. ) ;
#8 = EDGE_CURVE ( 'NONE', #172, #72, #81, .T. ) ;
#9 = CARTESIAN_POINT ( 'NONE',  ( 0.0000000000000000000, 0.0000000000000000000, 0.1149999999999995193 ) ) ;
#10 = EDGE_CURVE ( 'NONE', #108, #72, #145, .T. ) ;
#11 = SURFACE_STYLE_USAGE ( .BOTH. , #186 ) ;
#12 = CARTESIAN_POINT ( 'NONE',  ( 0.0000000000000000000, 0.0000000000000000000, 2.500000000000000000 ) ) ;
#13 = FILL_AREA_STYLE_COLOUR ( '', #61 ) ;
#14 = PRODUCT_CONTEXT ( 'NONE', #167, 'mechanical' ) ;
#15 = VECTOR ( 'NONE', #155, 39.37007874015748143 ) ;
#16 = VERTEX_POINT ( 'NONE', #134 ) ;
#17 = CIRCLE ( 'NONE', #239, 0.01000000000000000021 ) ;
#18 = ORIENTED_EDGE ( 'NONE', *, *, #79, .T. ) ;
#19 = SURFACE_SIDE_STYLE ('',( #193 ) ) ;
#20 = DIRECTION ( 'NONE',  ( 0.0000000000000000000, 0.0000000000000000000, -1.000000000000000000 ) ) ;
#21 = FACE_OUTER_BOUND ( 'NONE', #89, .T. ) ;
#22 = AXIS2_PLACEMENT_3D ( 'NONE', #154, #147, #3 ) ;
#23 = CARTESIAN_POINT ( 'NONE',  ( 0.0000000000000000000, 0.0000000000000000000, 2.500000000000000000 ) ) ;
#24 = FACE_OUTER_BOUND ( 'NONE', #219, .T. ) ;
#25 = CARTESIAN_POINT ( 'NONE',  ( -0.1250000000000000000, 0.0000000000000000000, 2.385000000000000675 ) ) ;
#26 = AXIS2_PLACEMENT_3D ( 'NONE', #141, #185, #183 ) ;
#27 =( CONVERSION_BASED_UNIT ( 'INCH', #123 ) LENGTH_UNIT ( ) NAMED_UNIT ( #150 ) );
#28 = EDGE_CURVE ( 'NONE', #211, #16, #130, .T. ) ;
#29 = DIRECTION ( 'NONE',  ( -1.000000000000000000, 0.0000000000000000000, 0.0000000000000000000 ) ) ;
#30 = DIRECTION ( 'NONE',  ( -0.0000000000000000000, -0.0000000000000000000, -1.000000000000000000 ) ) ;
#31 = VECTOR ( 'NONE', #236, 39.37007874015748143 ) ;
#32 = ORIENTED_EDGE ( 'NONE', *, *, #184, .F. ) ;
#33 = ORIENTED_EDGE ( 'NONE', *, *, #10, .T. ) ;
#34 = EDGE_CURVE ( 'NONE', #231, #113, #216, .T. ) ;
#35 = ORIENTED_EDGE ( 'NONE', *, *, #124, .T. ) ;
#36 = SURFACE_STYLE_USAGE ( .BOTH. , #19 ) ;
#37 = LENGTH_MEASURE_WITH_UNIT ( LENGTH_MEASURE( 0.02539999999999999897 ), #232 );
#38 = STYLED_ITEM ( 'NONE', ( #205 ), #148 ) ;
#39 = CARTESIAN_POINT ( 'NONE',  ( 0.0000000000000000000, 0.0000000000000000000, 0.0000000000000000000 ) ) ;
#40 = APPLICATION_PROTOCOL_DEFINITION ( 'draft international standard', 'automotive_design', 1998, #167 ) ;
#41 = ORIENTED_EDGE ( 'NONE', *, *, #207, .T. ) ;
#42 = DIRECTION ( 'NONE',  ( 0.0000000000000000000, 0.0000000000000000000, -1.000000000000000000 ) ) ;
#43 = CARTESIAN_POINT ( 'NONE',  ( 0.0000000000000000000, 0.0000000000000000000, 0.1149999999999995193 ) ) ;
#44 = ADVANCED_FACE ( 'NONE', ( #198 ), #212, .T. ) ;
#45 = LINE ( 'NONE', #153, #15 ) ;
#46 = LINE ( 'NONE', #83, #228 ) ;
#47 = PRESENTATION_LAYER_ASSIGNMENT (  '', '', ( #38 ) ) ;
#48 = DIRECTION ( 'NONE',  ( 0.0000000000000000000, 0.0000000000000000000, 1.000000000000000000 ) ) ;
#49 = PRODUCT_DEFINITION_FORMATION_WITH_SPECIFIED_SOURCE ( 'ANY', '', #91, .NOT_KNOWN. ) ;
#50 = ADVANCED_FACE ( 'NONE', ( #7 ), #90, .T. ) ;
#51 = EDGE_LOOP ( 'NONE', ( #208, #230 ) ) ;
#52 = ORIENTED_EDGE ( 'NONE', *, *, #184, .T. ) ;
#53 = DIRECTION ( 'NONE',  ( 1.000000000000000000, 0.0000000000000000000, 0.0000000000000000000 ) ) ;
#54 = DIRECTION ( 'NONE',  ( 0.0000000000000000000, 0.0000000000000000000, 1.000000000000000000 ) ) ;
#55 = APPLICATION_PROTOCOL_DEFINITION ( 'draft international standard', 'automotive_design', 1998, #80 ) ;
#56 = AXIS2_PLACEMENT_3D ( 'NONE', #137, #196, #62 ) ;
#57 = ORIENTED_EDGE ( 'NONE', *, *, #95, .F. ) ;
#58 = DIRECTION ( 'NONE',  ( -1.000000000000000000, 0.0000000000000000000, 0.0000000000000000000 ) ) ;
#59 = FACE_OUTER_BOUND ( 'NONE', #174, .T. ) ;
#60 = ADVANCED_FACE ( 'NONE', ( #24 ), #248, .T. ) ;
#61 = COLOUR_RGB ( '',0.7921568627450980005, 0.8196078431372548767, 0.9333333333333333481 ) ;
#62 = DIRECTION ( 'NONE',  ( -1.000000000000000000, 0.0000000000000000000, 0.0000000000000000000 ) ) ;
#63 = PRODUCT_DEFINITION_SHAPE ( 'NONE', 'NONE',  #146 ) ;
#64 = CARTESIAN_POINT ( 'NONE',  ( 0.01000000000000000021, 0.0000000000000000000, 2.500000000000000000 ) ) ;
#65 = CIRCLE ( 'NONE', #86, 0.1250000000000000000 ) ;
#66 = CARTESIAN_POINT ( 'NONE',  ( 0.0000000000000000000, 0.0000000000000000000, 0.0000000000000000000 ) ) ;
#67 = SURFACE_STYLE_FILL_AREA ( #226 ) ;
#68 = ORIENTED_EDGE ( 'NONE', *, *, #34, .T. ) ;
#69 = VECTOR ( 'NONE', #181, 39.37007874015748143 ) ;
#70 = VERTEX_POINT ( 'NONE', #77 ) ;
#71 = CIRCLE ( 'NONE', #189, 0.1250000000000000000 ) ;
#72 = VERTEX_POINT ( 'NONE', #233 ) ;
#73 = CARTESIAN_POINT ( 'NONE',  ( 0.01000000000000000021, 0.0000000000000000000, 2.500000000000000000 ) ) ;
#74 = DIRECTION ( 'NONE',  ( -0.0000000000000000000, -0.0000000000000000000, -1.000000000000000000 ) ) ;
#75 =( NAMED_UNIT ( * ) PLANE_ANGLE_UNIT ( ) SI_UNIT ( $, .RADIAN. ) );
#76 = MECHANICAL_DESIGN_GEOMETRIC_PRESENTATION_REPRESENTATION (  '', ( #38 ), #133 ) ;
#77 = CARTESIAN_POINT ( 'NONE',  ( -0.01000000000000000021, -8.266365894244634333E-18, 2.500000000000000000 ) ) ;
#78 = LINE ( 'NONE', #194, #103 ) ;
#79 = EDGE_CURVE ( 'NONE', #113, #108, #45, .T. ) ;
#80 = APPLICATION_CONTEXT ( 'automotive_design' ) ;
#81 = LINE ( 'NONE', #178, #69 ) ;
#82 = VECTOR ( 'NONE', #162, 39.37007874015748143 ) ;
#83 = CARTESIAN_POINT ( 'NONE',  ( -0.01000000000000000021, -1.224646799147353384E-18, 2.500000000000000000 ) ) ;
#84 =( NAMED_UNIT ( * ) PLANE_ANGLE_UNIT ( ) SI_UNIT ( $, .RADIAN. ) );
#85 = DIRECTION ( 'NONE',  ( 0.0000000000000000000, 0.0000000000000000000, -1.000000000000000000 ) ) ;
#86 = AXIS2_PLACEMENT_3D ( 'NONE', #94, #20, #6 ) ;
#87 = CARTESIAN_POINT ( 'NONE',  ( 0.0000000000000000000, 0.0000000000000000000, 2.500000000000000000 ) ) ;
#88 = DIRECTION ( 'NONE',  ( 0.0000000000000000000, 0.0000000000000000000, 1.000000000000000000 ) ) ;
#89 = EDGE_LOOP ( 'NONE', ( #35, #41, #128, #165 ) ) ;
#90 = CONICAL_SURFACE ( 'NONE', #234, 0.01000000000000000021, 0.7853981633974503884 ) ;
#91 = PRODUCT ( 'Micro_RNC-250-220X', 'Micro_RNC-250-220X', '', ( #14 ) ) ;
#92 = ADVANCED_FACE ( 'NONE', ( #115 ), #135, .F. ) ;
#93 = ORIENTED_EDGE ( 'NONE', *, *, #95, .T. ) ;
#94 = CARTESIAN_POINT ( 'NONE',  ( 0.0000000000000000000, 0.0000000000000000000, 2.385000000000000675 ) ) ;
#95 = EDGE_CURVE ( 'NONE', #16, #72, #78, .T. ) ;
#96 = CARTESIAN_POINT ( 'NONE',  ( 0.0000000000000000000, 0.0000000000000000000, 0.0000000000000000000 ) ) ;
#97 = SHAPE_DEFINITION_REPRESENTATION ( #63, #173 ) ;
#98 = CARTESIAN_POINT ( 'NONE',  ( 0.0000000000000000000, 0.0000000000000000000, 2.500000000000000000 ) ) ;
#99 = DIMENSIONAL_EXPONENTS ( 1.000000000000000000, 0.0000000000000000000, 0.0000000000000000000, 0.0000000000000000000, 0.0000000000000000000, 0.0000000000000000000, 0.0000000000000000000 ) ;
#100 = DIRECTION ( 'NONE',  ( 1.000000000000000000, 0.0000000000000000000, 0.0000000000000000000 ) ) ;
#101 = PRODUCT_DEFINITION_CONTEXT ( 'detailed design', #80, 'design' ) ;
#102 = DIRECTION ( 'NONE',  ( -0.0000000000000000000, -0.0000000000000000000, -1.000000000000000000 ) ) ;
#103 = VECTOR ( 'NONE', #238, 39.37007874015748143 ) ;
#104 = CYLINDRICAL_SURFACE ( 'NONE', #179, 0.1250000000000000000 ) ;
#105 = CARTESIAN_POINT ( 'NONE',  ( 0.01000000000000000021, 0.0000000000000000000, 0.0000000000000000000 ) ) ;
#106 = AXIS2_PLACEMENT_3D ( 'NONE', #12, #48, #188 ) ;
#107 = FILL_AREA_STYLE ('',( #13 ) ) ;
#108 = VERTEX_POINT ( 'NONE', #136 ) ;
#109 = ORIENTED_EDGE ( 'NONE', *, *, #207, .F. ) ;
#110 = AXIS2_PLACEMENT_3D ( 'NONE', #66, #102, #29 ) ;
#111 = AXIS2_PLACEMENT_3D ( 'NONE', #152, #88, #53 ) ;
#112 = ORIENTED_EDGE ( 'NONE', *, *, #28, .T. ) ;
#113 = VERTEX_POINT ( 'NONE', #217 ) ;
#114 = AXIS2_PLACEMENT_3D ( 'NONE', #2, #120, #235 ) ;
#115 = FACE_OUTER_BOUND ( 'NONE', #249, .T. ) ;
#116 = ORIENTED_EDGE ( 'NONE', *, *, #171, .F. ) ;
#117 = ADVANCED_FACE ( 'NONE', ( #59 ), #118, .T. ) ;
#118 = CYLINDRICAL_SURFACE ( 'NONE', #56, 0.1250000000000000000 ) ;
#119 = COLOUR_RGB ( '',0.7921568627450980005, 0.8196078431372548767, 0.9333333333333333481 ) ;
#120 = DIRECTION ( 'NONE',  ( -0.0000000000000000000, -0.0000000000000000000, -1.000000000000000000 ) ) ;
#121 = LINE ( 'NONE', #203, #82 ) ;
#122 = PRODUCT_RELATED_PRODUCT_CATEGORY ( 'part', '', ( #91 ) ) ;
#123 = LENGTH_MEASURE_WITH_UNIT ( LENGTH_MEASURE( 0.02539999999999999897 ), #159 );
#124 = EDGE_CURVE ( 'NONE', #231, #70, #17, .T. ) ;
#125 = FACE_OUTER_BOUND ( 'NONE', #131, .T. ) ;
#126 = CARTESIAN_POINT ( 'NONE',  ( 0.0000000000000000000, 0.0000000000000000000, 2.500000000000000000 ) ) ;
#127 = ORIENTED_EDGE ( 'NONE', *, *, #197, .F. ) ;
#128 = ORIENTED_EDGE ( 'NONE', *, *, #140, .F. ) ;
#129 = ORIENTED_EDGE ( 'NONE', *, *, #8, .F. ) ;
#130 = CIRCLE ( 'NONE', #114, 0.01000000000000000021 ) ;
#131 = EDGE_LOOP ( 'NONE', ( #144, #170, #246, #214 ) ) ;
#132 = DIRECTION ( 'NONE',  ( -1.000000000000000000, 0.0000000000000000000, 0.0000000000000000000 ) ) ;
#133 =( GEOMETRIC_REPRESENTATION_CONTEXT ( 3 ) GLOBAL_UNCERTAINTY_ASSIGNED_CONTEXT ( ( #5 ) ) GLOBAL_UNIT_ASSIGNED_CONTEXT ( ( #241, #158, #163 ) ) REPRESENTATION_CONTEXT ( 'NONE', 'WORKASPACE' ) );
#134 = CARTESIAN_POINT ( 'NONE',  ( -0.01000000000000000021, 8.266365894244634333E-18, 0.0000000000000000000 ) ) ;
#135 = PLANE ( 'NONE',  #151 ) ;
#136 = CARTESIAN_POINT ( 'NONE',  ( 0.1250000000000000000, 1.530808498934191509E-17, 0.1149999999999995193 ) ) ;
#137 = CARTESIAN_POINT ( 'NONE',  ( 0.0000000000000000000, 0.0000000000000000000, 2.500000000000000000 ) ) ;
#138 = LENGTH_MEASURE_WITH_UNIT ( LENGTH_MEASURE( 0.02539999999999999897 ), #202 );
#139 = DIRECTION ( 'NONE',  ( -1.000000000000000000, 0.0000000000000000000, 0.0000000000000000000 ) ) ;
#140 = EDGE_CURVE ( 'NONE', #113, #172, #65, .T. ) ;
#141 = CARTESIAN_POINT ( 'NONE',  ( 0.0000000000000000000, 0.0000000000000000000, 2.385000000000000675 ) ) ;
#142 =( GEOMETRIC_REPRESENTATION_CONTEXT ( 3 ) GLOBAL_UNCERTAINTY_ASSIGNED_CONTEXT ( ( #204 ) ) GLOBAL_UNIT_ASSIGNED_CONTEXT ( ( #27, #84, #215 ) ) REPRESENTATION_CONTEXT ( 'NONE', 'WORKASPACE' ) );
#143 =( NAMED_UNIT ( * ) SI_UNIT ( $, .STERADIAN. ) SOLID_ANGLE_UNIT ( ) );
#144 = ORIENTED_EDGE ( 'NONE', *, *, #79, .F. ) ;
#145 = CIRCLE ( 'NONE', #201, 0.1250000000000000000 ) ;
#146 = PRODUCT_DEFINITION ( 'UNKNOWN', '', #49, #101 ) ;
#147 = DIRECTION ( 'NONE',  ( 0.0000000000000000000, 0.0000000000000000000, 1.000000000000000000 ) ) ;
#148 = MANIFOLD_SOLID_BREP ( 'Mirror1', #168 ) ;
#149 = DIRECTION ( 'NONE',  ( 1.000000000000000000, 0.0000000000000000000, 0.0000000000000000000 ) ) ;
#150 = DIMENSIONAL_EXPONENTS ( 1.000000000000000000, 0.0000000000000000000, 0.0000000000000000000, 0.0000000000000000000, 0.0000000000000000000, 0.0000000000000000000, 0.0000000000000000000 ) ;
#151 = AXIS2_PLACEMENT_3D ( 'NONE', #96, #221, #177 ) ;
#152 = CARTESIAN_POINT ( 'NONE',  ( 0.0000000000000000000, 0.0000000000000000000, 0.0000000000000000000 ) ) ;
#153 = CARTESIAN_POINT ( 'NONE',  ( 0.1250000000000000000, 1.530808498934191509E-17, 2.500000000000000000 ) ) ;
#154 = CARTESIAN_POINT ( 'NONE',  ( 0.0000000000000000000, 0.0000000000000000000, 0.0000000000000000000 ) ) ;
#155 = DIRECTION ( 'NONE',  ( -0.0000000000000000000, -0.0000000000000000000, -1.000000000000000000 ) ) ;
#156 = CIRCLE ( 'NONE', #26, 0.1250000000000000000 ) ;
#157 = UNCERTAINTY_MEASURE_WITH_UNIT (LENGTH_MEASURE( 1.000000000000000082E-05 ), #245, 'distance_accuracy_value', 'NONE');
#158 =( NAMED_UNIT ( * ) PLANE_ANGLE_UNIT ( ) SI_UNIT ( $, .RADIAN. ) );
#159 =( LENGTH_UNIT ( ) NAMED_UNIT ( * ) SI_UNIT ( $, .METRE. ) );
#160 = DIMENSIONAL_EXPONENTS ( 1.000000000000000000, 0.0000000000000000000, 0.0000000000000000000, 0.0000000000000000000, 0.0000000000000000000, 0.0000000000000000000, 0.0000000000000000000 ) ;
#161 = AXIS2_PLACEMENT_3D ( 'NONE', #39, #54, #100 ) ;
#162 = DIRECTION ( 'NONE',  ( 0.7071067811865490160, 0.0000000000000000000, 0.7071067811865460184 ) ) ;
#163 =( NAMED_UNIT ( * ) SI_UNIT ( $, .STERADIAN. ) SOLID_ANGLE_UNIT ( ) );
#164 = PRESENTATION_STYLE_ASSIGNMENT (( #36 ) ) ;
#165 = ORIENTED_EDGE ( 'NONE', *, *, #34, .F. ) ;
#166 = EDGE_CURVE ( 'NONE', #70, #231, #224, .T. ) ;
#167 = APPLICATION_CONTEXT ( 'automotive_design' ) ;
#168 = CLOSED_SHELL ( 'NONE', ( #1, #44, #117, #218, #60, #92, #50, #213 ) ) ;
#169 = ORIENTED_EDGE ( 'NONE', *, *, #197, .T. ) ;
#170 = ORIENTED_EDGE ( 'NONE', *, *, #140, .T. ) ;
#171 = EDGE_CURVE ( 'NONE', #72, #108, #71, .T. ) ;
#172 = VERTEX_POINT ( 'NONE', #25 ) ;
#173 = ADVANCED_BREP_SHAPE_REPRESENTATION ( 'Micro_RNC-250-220X', ( #148, #111 ), #142 ) ;
#174 = EDGE_LOOP ( 'NONE', ( #169, #18, #116, #129 ) ) ;
#175 = AXIS2_PLACEMENT_3D ( 'NONE', #98, #4, #149 ) ;
#176 = DIRECTION ( 'NONE',  ( 1.000000000000000000, 0.0000000000000000000, 0.0000000000000000000 ) ) ;
#177 = DIRECTION ( 'NONE',  ( 1.000000000000000000, 0.0000000000000000000, -0.0000000000000000000 ) ) ;
#178 = CARTESIAN_POINT ( 'NONE',  ( -0.1250000000000000000, 0.0000000000000000000, 2.500000000000000000 ) ) ;
#179 = AXIS2_PLACEMENT_3D ( 'NONE', #87, #30, #222 ) ;
#180 = ORIENTED_EDGE ( 'NONE', *, *, #182, .F. ) ;
#181 = DIRECTION ( 'NONE',  ( -0.0000000000000000000, -0.0000000000000000000, -1.000000000000000000 ) ) ;
#182 = EDGE_CURVE ( 'NONE', #211, #108, #121, .T. ) ;
#183 = DIRECTION ( 'NONE',  ( -1.000000000000000000, 0.0000000000000000000, 0.0000000000000000000 ) ) ;
#184 = EDGE_CURVE ( 'NONE', #16, #211, #220, .T. ) ;
#185 = DIRECTION ( 'NONE',  ( 0.0000000000000000000, 0.0000000000000000000, -1.000000000000000000 ) ) ;
#186 = SURFACE_SIDE_STYLE ('',( #67 ) ) ;
#187 = AXIS2_PLACEMENT_3D ( 'NONE', #126, #85, #139 ) ;
#188 = DIRECTION ( 'NONE',  ( 1.000000000000000000, 0.0000000000000000000, -0.0000000000000000000 ) ) ;
#189 = AXIS2_PLACEMENT_3D ( 'NONE', #9, #242, #223 ) ;
#190 = ORIENTED_EDGE ( 'NONE', *, *, #28, .F. ) ;
#191 = EDGE_LOOP ( 'NONE', ( #32, #93, #229, #180 ) ) ;
#192 = PRESENTATION_LAYER_ASSIGNMENT (  '', '', ( #206 ) ) ;
#193 = SURFACE_STYLE_FILL_AREA ( #107 ) ;
#194 = CARTESIAN_POINT ( 'NONE',  ( -0.01000000000000000021, 1.224646799147353384E-18, 0.0000000000000000000 ) ) ;
#195 = ORIENTED_EDGE ( 'NONE', *, *, #166, .T. ) ;
#196 = DIRECTION ( 'NONE',  ( -0.0000000000000000000, -0.0000000000000000000, -1.000000000000000000 ) ) ;
#197 = EDGE_CURVE ( 'NONE', #172, #113, #156, .T. ) ;
#198 = FACE_OUTER_BOUND ( 'NONE', #191, .T. ) ;
#199 = DIRECTION ( 'NONE',  ( 0.0000000000000000000, 0.0000000000000000000, -1.000000000000000000 ) ) ;
#200 = PLANE ( 'NONE',  #106 ) ;
#201 = AXIS2_PLACEMENT_3D ( 'NONE', #43, #74, #58 ) ;
#202 =( LENGTH_UNIT ( ) NAMED_UNIT ( * ) SI_UNIT ( $, .METRE. ) );
#203 = CARTESIAN_POINT ( 'NONE',  ( 0.01000000000000000021, 0.0000000000000000000, 0.0000000000000000000 ) ) ;
#204 = UNCERTAINTY_MEASURE_WITH_UNIT (LENGTH_MEASURE( 1.000000000000000082E-05 ), #27, 'distance_accuracy_value', 'NONE');
#205 = PRESENTATION_STYLE_ASSIGNMENT (( #11 ) ) ;
#206 = STYLED_ITEM ( 'NONE', ( #164 ), #173 ) ;
#207 = EDGE_CURVE ( 'NONE', #70, #172, #46, .T. ) ;
#208 = ORIENTED_EDGE ( 'NONE', *, *, #124, .F. ) ;
#209 = EDGE_LOOP ( 'NONE', ( #109, #195, #68, #127 ) ) ;
#210 = CONICAL_SURFACE ( 'NONE', #175, 0.01000000000000000021, 0.7853981633974503884 ) ;
#211 = VERTEX_POINT ( 'NONE', #105 ) ;
#212 = CONICAL_SURFACE ( 'NONE', #22, 0.01000000000000000021, 0.7853981633974503884 ) ;
#213 = ADVANCED_FACE ( 'NONE', ( #240 ), #200, .T. ) ;
#214 = ORIENTED_EDGE ( 'NONE', *, *, #10, .F. ) ;
#215 =( NAMED_UNIT ( * ) SI_UNIT ( $, .STERADIAN. ) SOLID_ANGLE_UNIT ( ) );
#216 = LINE ( 'NONE', #73, #31 ) ;
#217 = CARTESIAN_POINT ( 'NONE',  ( 0.1250000000000000000, 1.530808498934191509E-17, 2.385000000000000675 ) ) ;
#218 = ADVANCED_FACE ( 'NONE', ( #125 ), #104, .T. ) ;
#219 = EDGE_LOOP ( 'NONE', ( #57, #190, #247, #33 ) ) ;
#220 = CIRCLE ( 'NONE', #110, 0.01000000000000000021 ) ;
#221 = DIRECTION ( 'NONE',  ( 0.0000000000000000000, 0.0000000000000000000, 1.000000000000000000 ) ) ;
#222 = DIRECTION ( 'NONE',  ( -1.000000000000000000, 0.0000000000000000000, 0.0000000000000000000 ) ) ;
#223 = DIRECTION ( 'NONE',  ( -1.000000000000000000, 0.0000000000000000000, 0.0000000000000000000 ) ) ;
#224 = CIRCLE ( 'NONE', #187, 0.01000000000000000021 ) ;
#225 = MECHANICAL_DESIGN_GEOMETRIC_PRESENTATION_REPRESENTATION (  '', ( #206 ), #243 ) ;
#226 = FILL_AREA_STYLE ('',( #244 ) ) ;
#227 = DIRECTION ( 'NONE',  ( -0.7071067811865490160, -8.659560562354951347E-17, -0.7071067811865460184 ) ) ;
#228 = VECTOR ( 'NONE', #227, 39.37007874015748143 ) ;
#229 = ORIENTED_EDGE ( 'NONE', *, *, #171, .T. ) ;
#230 = ORIENTED_EDGE ( 'NONE', *, *, #166, .F. ) ;
#231 = VERTEX_POINT ( 'NONE', #64 ) ;
#232 =( LENGTH_UNIT ( ) NAMED_UNIT ( * ) SI_UNIT ( $, .METRE. ) );
#233 = CARTESIAN_POINT ( 'NONE',  ( -0.1250000000000000000, 0.0000000000000000000, 0.1149999999999995193 ) ) ;
#234 = AXIS2_PLACEMENT_3D ( 'NONE', #237, #42, #176 ) ;
#235 = DIRECTION ( 'NONE',  ( -1.000000000000000000, 0.0000000000000000000, 0.0000000000000000000 ) ) ;
#236 = DIRECTION ( 'NONE',  ( 0.7071067811865490160, 0.0000000000000000000, -0.7071067811865460184 ) ) ;
#237 = CARTESIAN_POINT ( 'NONE',  ( 0.0000000000000000000, 0.0000000000000000000, 2.500000000000000000 ) ) ;
#238 = DIRECTION ( 'NONE',  ( -0.7071067811865490160, 8.659560562354951347E-17, 0.7071067811865460184 ) ) ;
#239 = AXIS2_PLACEMENT_3D ( 'NONE', #23, #199, #132 ) ;
#240 = FACE_OUTER_BOUND ( 'NONE', #51, .T. ) ;
#241 =( CONVERSION_BASED_UNIT ( 'INCH', #138 ) LENGTH_UNIT ( ) NAMED_UNIT ( #99 ) );
#242 = DIRECTION ( 'NONE',  ( -0.0000000000000000000, -0.0000000000000000000, -1.000000000000000000 ) ) ;
#243 =( GEOMETRIC_REPRESENTATION_CONTEXT ( 3 ) GLOBAL_UNCERTAINTY_ASSIGNED_CONTEXT ( ( #157 ) ) GLOBAL_UNIT_ASSIGNED_CONTEXT ( ( #245, #75, #143 ) ) REPRESENTATION_CONTEXT ( 'NONE', 'WORKASPACE' ) );
#244 = FILL_AREA_STYLE_COLOUR ( '', #119 ) ;
#245 =( CONVERSION_BASED_UNIT ( 'INCH', #37 ) LENGTH_UNIT ( ) NAMED_UNIT ( #160 ) );
#246 = ORIENTED_EDGE ( 'NONE', *, *, #8, .T. ) ;
#247 = ORIENTED_EDGE ( 'NONE', *, *, #182, .T. ) ;
#248 = CONICAL_SURFACE ( 'NONE', #161, 0.01000000000000000021, 0.7853981633974503884 ) ;
#249 = EDGE_LOOP ( 'NONE', ( #112, #52 ) ) ;
ENDSEC;
END-ISO-10303-21;
