ISO-10303-21;
HEADER;
FILE_DESCRIPTION (( 'STEP AP214' ),
    '1' );
FILE_NAME ('Micro_SFLM-030-10.STEP',
    '2021-09-02T05:17:31',
    ( '' ),
    ( '' ),
    'SwSTEP 2.0',
    'SolidWorks 2020',
    '' );
FILE_SCHEMA (( 'AUTOMOTIVE_DESIGN' ));
ENDSEC;

DATA;
#1 = VERTEX_POINT ( 'NONE', #13 ) ;
#2 = VECTOR ( 'NONE', #46, 39.37007874015748143 ) ;
#3 = CARTESIAN_POINT ( 'NONE',  ( 0.0000000000000000000, 0.0000000000000000000, 2.229093999999999465 ) ) ;
#4 = EDGE_LOOP ( 'NONE', ( #281, #37, #174, #177 ) ) ;
#5 = CARTESIAN_POINT ( 'NONE',  ( 0.0000000000000000000, 0.0000000000000000000, 2.229093999999999465 ) ) ;
#6 = AXIS2_PLACEMENT_3D ( 'NONE', #171, #192, #144 ) ;
#7 = CIRCLE ( 'NONE', #218, 0.05899594499999999409 ) ;
#8 = ORIENTED_EDGE ( 'NONE', *, *, #136, .T. ) ;
#9 = DIRECTION ( 'NONE',  ( 1.000000000000000000, 0.0000000000000000000, 0.0000000000000000000 ) ) ;
#10 = ORIENTED_EDGE ( 'NONE', *, *, #202, .T. ) ;
#11 = EDGE_CURVE ( 'NONE', #147, #35, #73, .T. ) ;
#12 = LINE ( 'NONE', #245, #250 ) ;
#13 = CARTESIAN_POINT ( 'NONE',  ( -0.05905499999999996863, 0.0000000000000000000, 0.3152959175478576292 ) ) ;
#14 = LINE ( 'NONE', #26, #117 ) ;
#15 = AXIS2_PLACEMENT_3D ( 'NONE', #93, #64, #20 ) ;
#16 = DIRECTION ( 'NONE',  ( -0.1736481776669312471, 2.126576849575783933E-17, 0.9848077530122077983 ) ) ;
#17 = EDGE_CURVE ( 'NONE', #254, #147, #118, .T. ) ;
#18 = CARTESIAN_POINT ( 'NONE',  ( -0.05905500000000001720, 0.0000000000000000000, 2.229093999999999465 ) ) ;
#19 = PRODUCT ( 'Micro_SFLM-030-10', 'Micro_SFLM-030-10', '', ( #276 ) ) ;
#20 = DIRECTION ( 'NONE',  ( 1.000000000000000000, 0.0000000000000000000, 0.0000000000000000000 ) ) ;
#21 = DIRECTION ( 'NONE',  ( -1.224646799147353207E-16, -0.0000000000000000000, -1.000000000000000000 ) ) ;
#22 = CARTESIAN_POINT ( 'NONE',  ( 0.0000000000000000000, 0.0000000000000000000, 0.0000000000000000000 ) ) ;
#23 = PLANE ( 'NONE',  #271 ) ;
#24 = LENGTH_MEASURE_WITH_UNIT ( LENGTH_MEASURE( 0.02539999999999999897 ), #273 );
#25 = CONICAL_SURFACE ( 'NONE', #277, 0.04405499999999960142, 0.7853981633974446153 ) ;
#26 = CARTESIAN_POINT ( 'NONE',  ( -0.05905500000000001720, 0.0000000000000000000, 2.244094000000000033 ) ) ;
#27 = EDGE_CURVE ( 'NONE', #254, #55, #292, .T. ) ;
#28 = PRESENTATION_STYLE_ASSIGNMENT (( #209 ) ) ;
#29 = ORIENTED_EDGE ( 'NONE', *, *, #253, .T. ) ;
#30 = CARTESIAN_POINT ( 'NONE',  ( 0.05905500000000001720, 7.232151672364695422E-18, 2.229093999999999465 ) ) ;
#31 = CARTESIAN_POINT ( 'NONE',  ( 8.847974565113090185E-34, 0.0000000000000000000, 7.224919520692329689E-18 ) ) ;
#32 = ORIENTED_EDGE ( 'NONE', *, *, #208, .T. ) ;
#33 = LINE ( 'NONE', #48, #94 ) ;
#34 = VECTOR ( 'NONE', #152, 39.37007874015748143 ) ;
#35 = VERTEX_POINT ( 'NONE', #228 ) ;
#36 = DIRECTION ( 'NONE',  ( -1.000000000000000000, 0.0000000000000000000, 1.224646799147353454E-16 ) ) ;
#37 = ORIENTED_EDGE ( 'NONE', *, *, #52, .T. ) ;
#38 = DIRECTION ( 'NONE',  ( 0.7071067811865449082, 8.659560562354900811E-17, -0.7071067811865501263 ) ) ;
#39 = FACE_OUTER_BOUND ( 'NONE', #151, .T. ) ;
#40 = VECTOR ( 'NONE', #16, 39.37007874015748143 ) ;
#41 = CARTESIAN_POINT ( 'NONE',  ( 3.857159805062494824E-17, 0.0000000000000000000, 0.3149609999999999910 ) ) ;
#42 = DIRECTION ( 'NONE',  ( -1.000000000000000000, 0.0000000000000000000, 0.0000000000000000000 ) ) ;
#43 = ADVANCED_FACE ( 'NONE', ( #39 ), #23, .F. ) ;
#44 = DIRECTION ( 'NONE',  ( 0.0000000000000000000, 0.0000000000000000000, -1.000000000000000000 ) ) ;
#45 = FILL_AREA_STYLE ('',( #297 ) ) ;
#46 = DIRECTION ( 'NONE',  ( -1.224646799147353207E-16, -0.0000000000000000000, -1.000000000000000000 ) ) ;
#47 = PRESENTATION_LAYER_ASSIGNMENT (  '', '', ( #164 ) ) ;
#48 = CARTESIAN_POINT ( 'NONE',  ( 0.04405499999999960142, 5.395181473643616524E-18, 2.244094000000000033 ) ) ;
#49 = UNCERTAINTY_MEASURE_WITH_UNIT (LENGTH_MEASURE( 1.000000000000000082E-05 ), #60, 'distance_accuracy_value', 'NONE');
#50 = ORIENTED_EDGE ( 'NONE', *, *, #140, .T. ) ;
#51 = ORIENTED_EDGE ( 'NONE', *, *, #222, .T. ) ;
#52 = EDGE_CURVE ( 'NONE', #147, #254, #7, .T. ) ;
#53 = DIRECTION ( 'NONE',  ( -0.0000000000000000000, -0.0000000000000000000, -1.000000000000000000 ) ) ;
#54 = ADVANCED_BREP_SHAPE_REPRESENTATION ( 'Micro_SFLM-030-10', ( #226, #170 ), #293 ) ;
#55 = VERTEX_POINT ( 'NONE', #191 ) ;
#56 = CYLINDRICAL_SURFACE ( 'NONE', #97, 0.05905500000000001720 ) ;
#57 = ORIENTED_EDGE ( 'NONE', *, *, #230, .F. ) ;
#58 = DIRECTION ( 'NONE',  ( 0.0000000000000000000, 0.0000000000000000000, -1.000000000000000000 ) ) ;
#59 = ADVANCED_FACE ( 'NONE', ( #231 ), #25, .T. ) ;
#60 =( CONVERSION_BASED_UNIT ( 'INCH', #61 ) LENGTH_UNIT ( ) NAMED_UNIT ( #161 ) );
#61 = LENGTH_MEASURE_WITH_UNIT ( LENGTH_MEASURE( 0.02539999999999999897 ), #109 );
#62 = CARTESIAN_POINT ( 'NONE',  ( 3.857159805062494824E-17, 0.0000000000000000000, 0.3149609999999999910 ) ) ;
#63 = ADVANCED_FACE ( 'NONE', ( #261 ), #173, .T. ) ;
#64 = DIRECTION ( 'NONE',  ( -1.224646799147353207E-16, -0.0000000000000000000, -1.000000000000000000 ) ) ;
#65 = SURFACE_STYLE_FILL_AREA ( #45 ) ;
#66 = DIRECTION ( 'NONE',  ( -1.224646799147353207E-16, -0.0000000000000000000, -1.000000000000000000 ) ) ;
#67 = EDGE_CURVE ( 'NONE', #199, #242, #241, .T. ) ;
#68 = APPLICATION_PROTOCOL_DEFINITION ( 'draft international standard', 'automotive_design', 1998, #157 ) ;
#69 = APPLICATION_CONTEXT ( 'automotive_design' ) ;
#70 =( NAMED_UNIT ( * ) PLANE_ANGLE_UNIT ( ) SI_UNIT ( $, .RADIAN. ) );
#71 = PRESENTATION_LAYER_ASSIGNMENT (  '', '', ( #138 ) ) ;
#72 = ADVANCED_FACE ( 'NONE', ( #190 ), #280, .T. ) ;
#73 = LINE ( 'NONE', #139, #2 ) ;
#74 = CARTESIAN_POINT ( 'NONE',  ( 0.0000000000000000000, 0.0000000000000000000, 2.244094000000000033 ) ) ;
#75 = ORIENTED_EDGE ( 'NONE', *, *, #79, .F. ) ;
#76 = AXIS2_PLACEMENT_3D ( 'NONE', #3, #124, #107 ) ;
#77 = CARTESIAN_POINT ( 'NONE',  ( 3.861261362092115948E-17, 0.0000000000000000000, 0.3152959175478576292 ) ) ;
#78 = VERTEX_POINT ( 'NONE', #214 ) ;
#79 = EDGE_CURVE ( 'NONE', #242, #199, #87, .T. ) ;
#80 = DIRECTION ( 'NONE',  ( -1.000000000000000000, 0.0000000000000000000, 1.224646799147353454E-16 ) ) ;
#81 = EDGE_LOOP ( 'NONE', ( #198, #237, #143, #169 ) ) ;
#82 = CARTESIAN_POINT ( 'NONE',  ( 0.0000000000000000000, 0.0000000000000000000, 2.244094000000000033 ) ) ;
#83 = EDGE_LOOP ( 'NONE', ( #288, #244, #121, #213 ) ) ;
#84 = DIRECTION ( 'NONE',  ( -1.000000000000000000, 0.0000000000000000000, 0.0000000000000000000 ) ) ;
#85 = CONICAL_SURFACE ( 'NONE', #234, 0.05899594499999999409, 0.1745329251994339748 ) ;
#86 = ADVANCED_FACE ( 'NONE', ( #122 ), #56, .T. ) ;
#87 = CIRCLE ( 'NONE', #283, 0.05905500000000001720 ) ;
#88 = DIRECTION ( 'NONE',  ( -1.224646799147353207E-16, -0.0000000000000000000, -1.000000000000000000 ) ) ;
#89 = DIRECTION ( 'NONE',  ( 0.0000000000000000000, 0.0000000000000000000, 1.000000000000000000 ) ) ;
#90 = CIRCLE ( 'NONE', #135, 0.04405499999999960142 ) ;
#91 = LINE ( 'NONE', #251, #193 ) ;
#92 = DIRECTION ( 'NONE',  ( -1.000000000000000000, 0.0000000000000000000, 0.0000000000000000000 ) ) ;
#93 = CARTESIAN_POINT ( 'NONE',  ( 3.861261362092115948E-17, 0.0000000000000000000, 0.3152959175478576292 ) ) ;
#94 = VECTOR ( 'NONE', #38, 39.37007874015748143 ) ;
#95 =( NAMED_UNIT ( * ) SI_UNIT ( $, .STERADIAN. ) SOLID_ANGLE_UNIT ( ) );
#96 = UNCERTAINTY_MEASURE_WITH_UNIT (LENGTH_MEASURE( 1.000000000000000082E-05 ), #294, 'distance_accuracy_value', 'NONE');
#97 = AXIS2_PLACEMENT_3D ( 'NONE', #176, #53, #238 ) ;
#98 = DIMENSIONAL_EXPONENTS ( 1.000000000000000000, 0.0000000000000000000, 0.0000000000000000000, 0.0000000000000000000, 0.0000000000000000000, 0.0000000000000000000, 0.0000000000000000000 ) ;
#99 = EDGE_LOOP ( 'NONE', ( #217, #51, #220, #194 ) ) ;
#100 = DIRECTION ( 'NONE',  ( 1.000000000000000000, 0.0000000000000000000, 0.0000000000000000000 ) ) ;
#101 = EDGE_LOOP ( 'NONE', ( #123, #265, #257, #125 ) ) ;
#102 = CIRCLE ( 'NONE', #210, 0.04405499999999960142 ) ;
#103 = DIRECTION ( 'NONE',  ( -1.000000000000000000, 0.0000000000000000000, 1.224646799147353454E-16 ) ) ;
#104 = EDGE_LOOP ( 'NONE', ( #57, #145, #10, #32 ) ) ;
#105 = CYLINDRICAL_SURFACE ( 'NONE', #264, 0.05899594499999999409 ) ;
#106 = ORIENTED_EDGE ( 'NONE', *, *, #162, .T. ) ;
#107 = DIRECTION ( 'NONE',  ( 1.000000000000000000, 0.0000000000000000000, 0.0000000000000000000 ) ) ;
#108 = ORIENTED_EDGE ( 'NONE', *, *, #230, .T. ) ;
#109 =( LENGTH_UNIT ( ) NAMED_UNIT ( * ) SI_UNIT ( $, .METRE. ) );
#110 = COLOUR_RGB ( '',0.7921568627450980005, 0.8196078431372548767, 0.9333333333333333481 ) ;
#111 = DIRECTION ( 'NONE',  ( -0.0000000000000000000, -0.0000000000000000000, -1.000000000000000000 ) ) ;
#112 = FACE_OUTER_BOUND ( 'NONE', #104, .T. ) ;
#113 =( GEOMETRIC_REPRESENTATION_CONTEXT ( 3 ) GLOBAL_UNCERTAINTY_ASSIGNED_CONTEXT ( ( #49 ) ) GLOBAL_UNIT_ASSIGNED_CONTEXT ( ( #60, #247, #158 ) ) REPRESENTATION_CONTEXT ( 'NONE', 'WORKASPACE' ) );
#114 = DIRECTION ( 'NONE',  ( 1.224646799147353207E-16, 0.0000000000000000000, 1.000000000000000000 ) ) ;
#115 = ADVANCED_FACE ( 'NONE', ( #195 ), #243, .T. ) ;
#116 = DIRECTION ( 'NONE',  ( 1.000000000000000000, 0.0000000000000000000, 0.0000000000000000000 ) ) ;
#117 = VECTOR ( 'NONE', #229, 39.37007874015748143 ) ;
#118 = CIRCLE ( 'NONE', #274, 0.05899594499999999409 ) ;
#119 =( CONVERSION_BASED_UNIT ( 'INCH', #189 ) LENGTH_UNIT ( ) NAMED_UNIT ( #215 ) );
#120 = UNCERTAINTY_MEASURE_WITH_UNIT (LENGTH_MEASURE( 1.000000000000000082E-05 ), #119, 'distance_accuracy_value', 'NONE');
#121 = ORIENTED_EDGE ( 'NONE', *, *, #197, .T. ) ;
#122 = FACE_OUTER_BOUND ( 'NONE', #101, .T. ) ;
#123 = ORIENTED_EDGE ( 'NONE', *, *, #222, .F. ) ;
#124 = DIRECTION ( 'NONE',  ( 0.0000000000000000000, 0.0000000000000000000, -1.000000000000000000 ) ) ;
#125 = ORIENTED_EDGE ( 'NONE', *, *, #208, .F. ) ;
#126 = AXIS2_PLACEMENT_3D ( 'NONE', #263, #149, #236 ) ;
#127 = CARTESIAN_POINT ( 'NONE',  ( 0.05899594500000004266, 0.0000000000000000000, 0.3149609999999999910 ) ) ;
#128 = VERTEX_POINT ( 'NONE', #255 ) ;
#129 = LINE ( 'NONE', #221, #34 ) ;
#130 = EDGE_LOOP ( 'NONE', ( #29, #8 ) ) ;
#131 = CARTESIAN_POINT ( 'NONE',  ( 0.0000000000000000000, 0.0000000000000000000, 0.0000000000000000000 ) ) ;
#132 = CARTESIAN_POINT ( 'NONE',  ( -0.05899594499999995245, 7.224919520692329689E-18, 0.3149609999999999910 ) ) ;
#133 = AXIS2_PLACEMENT_3D ( 'NONE', #74, #179, #84 ) ;
#134 = LINE ( 'NONE', #132, #40 ) ;
#135 = AXIS2_PLACEMENT_3D ( 'NONE', #285, #167, #100 ) ;
#136 = EDGE_CURVE ( 'NONE', #78, #128, #90, .T. ) ;
#137 = SURFACE_SIDE_STYLE ('',( #65 ) ) ;
#138 = STYLED_ITEM ( 'NONE', ( #291 ), #226 ) ;
#139 = CARTESIAN_POINT ( 'NONE',  ( 0.05899594499999999409, 7.224919520692329689E-18, -7.224919520692329689E-18 ) ) ;
#140 = EDGE_CURVE ( 'NONE', #78, #199, #33, .T. ) ;
#141 = VECTOR ( 'NONE', #21, 39.37007874015748143 ) ;
#142 = DIRECTION ( 'NONE',  ( -1.224646799147353207E-16, -0.0000000000000000000, -1.000000000000000000 ) ) ;
#143 = ORIENTED_EDGE ( 'NONE', *, *, #162, .F. ) ;
#144 = DIRECTION ( 'NONE',  ( 1.000000000000000000, 0.0000000000000000000, -0.0000000000000000000 ) ) ;
#145 = ORIENTED_EDGE ( 'NONE', *, *, #52, .F. ) ;
#146 = CARTESIAN_POINT ( 'NONE',  ( 0.0000000000000000000, 0.0000000000000000000, 0.0000000000000000000 ) ) ;
#147 = VERTEX_POINT ( 'NONE', #127 ) ;
#148 = MECHANICAL_DESIGN_GEOMETRIC_PRESENTATION_REPRESENTATION (  '', ( #164 ), #227 ) ;
#149 = DIRECTION ( 'NONE',  ( -1.224646799147353207E-16, -0.0000000000000000000, -1.000000000000000000 ) ) ;
#150 = PRODUCT_DEFINITION_SHAPE ( 'NONE', 'NONE',  #269 ) ;
#151 = EDGE_LOOP ( 'NONE', ( #106, #172 ) ) ;
#152 = DIRECTION ( 'NONE',  ( -0.7071067811865449082, 0.0000000000000000000, -0.7071067811865501263 ) ) ;
#153 = PRODUCT_RELATED_PRODUCT_CATEGORY ( 'part', '', ( #19 ) ) ;
#154 = DIRECTION ( 'NONE',  ( 0.1736481776669314692, 0.0000000000000000000, 0.9848077530122077983 ) ) ;
#155 = CIRCLE ( 'NONE', #15, 0.05905500000000001720 ) ;
#156 = CARTESIAN_POINT ( 'NONE',  ( -0.05899594499999999409, 0.0000000000000000000, 7.224919520692329689E-18 ) ) ;
#157 = APPLICATION_CONTEXT ( 'automotive_design' ) ;
#158 =( NAMED_UNIT ( * ) SI_UNIT ( $, .STERADIAN. ) SOLID_ANGLE_UNIT ( ) );
#159 =( NAMED_UNIT ( * ) PLANE_ANGLE_UNIT ( ) SI_UNIT ( $, .RADIAN. ) );
#160 = SHAPE_DEFINITION_REPRESENTATION ( #150, #54 ) ;
#161 = DIMENSIONAL_EXPONENTS ( 1.000000000000000000, 0.0000000000000000000, 0.0000000000000000000, 0.0000000000000000000, 0.0000000000000000000, 0.0000000000000000000, 0.0000000000000000000 ) ;
#162 = EDGE_CURVE ( 'NONE', #55, #35, #290, .T. ) ;
#163 = DIRECTION ( 'NONE',  ( -1.000000000000000000, 0.0000000000000000000, 0.0000000000000000000 ) ) ;
#164 = STYLED_ITEM ( 'NONE', ( #28 ), #54 ) ;
#165 = ADVANCED_FACE ( 'NONE', ( #219 ), #105, .T. ) ;
#166 = VERTEX_POINT ( 'NONE', #212 ) ;
#167 = DIRECTION ( 'NONE',  ( 0.0000000000000000000, 0.0000000000000000000, 1.000000000000000000 ) ) ;
#168 = CONICAL_SURFACE ( 'NONE', #200, 0.04405499999999960142, 0.7853981633974446153 ) ;
#169 = ORIENTED_EDGE ( 'NONE', *, *, #27, .F. ) ;
#170 = AXIS2_PLACEMENT_3D ( 'NONE', #22, #206, #116 ) ;
#171 = CARTESIAN_POINT ( 'NONE',  ( 0.0000000000000000000, 0.0000000000000000000, 2.244094000000000033 ) ) ;
#172 = ORIENTED_EDGE ( 'NONE', *, *, #187, .T. ) ;
#173 = CYLINDRICAL_SURFACE ( 'NONE', #216, 0.05899594499999999409 ) ;
#174 = ORIENTED_EDGE ( 'NONE', *, *, #27, .T. ) ;
#175 = EDGE_CURVE ( 'NONE', #1, #166, #246, .T. ) ;
#176 = CARTESIAN_POINT ( 'NONE',  ( 0.0000000000000000000, 0.0000000000000000000, 2.244094000000000033 ) ) ;
#177 = ORIENTED_EDGE ( 'NONE', *, *, #187, .F. ) ;
#178 = COLOUR_RGB ( '',0.7921568627450980005, 0.8196078431372548767, 0.9333333333333333481 ) ;
#179 = DIRECTION ( 'NONE',  ( -0.0000000000000000000, -0.0000000000000000000, -1.000000000000000000 ) ) ;
#180 = PRODUCT_DEFINITION_FORMATION_WITH_SPECIFIED_SOURCE ( 'ANY', '', #19, .NOT_KNOWN. ) ;
#181 = SURFACE_STYLE_FILL_AREA ( #205 ) ;
#182 = FILL_AREA_STYLE_COLOUR ( '', #178 ) ;
#183 = AXIS2_PLACEMENT_3D ( 'NONE', #31, #282, #80 ) ;
#184 = FACE_OUTER_BOUND ( 'NONE', #260, .T. ) ;
#185 = SURFACE_SIDE_STYLE ('',( #181 ) ) ;
#186 = CARTESIAN_POINT ( 'NONE',  ( 0.0000000000000000000, 0.0000000000000000000, 0.0000000000000000000 ) ) ;
#187 = EDGE_CURVE ( 'NONE', #35, #55, #298, .T. ) ;
#188 =( NAMED_UNIT ( * ) SI_UNIT ( $, .STERADIAN. ) SOLID_ANGLE_UNIT ( ) );
#189 = LENGTH_MEASURE_WITH_UNIT ( LENGTH_MEASURE( 0.02539999999999999897 ), #232 );
#190 = FACE_OUTER_BOUND ( 'NONE', #130, .T. ) ;
#191 = CARTESIAN_POINT ( 'NONE',  ( -0.05899594499999999409, 0.0000000000000000000, 1.444983904138465938E-17 ) ) ;
#192 = DIRECTION ( 'NONE',  ( 0.0000000000000000000, 0.0000000000000000000, 1.000000000000000000 ) ) ;
#193 = VECTOR ( 'NONE', #111, 39.37007874015748143 ) ;
#194 = ORIENTED_EDGE ( 'NONE', *, *, #299, .F. ) ;
#195 = FACE_OUTER_BOUND ( 'NONE', #99, .T. ) ;
#196 = ORIENTED_EDGE ( 'NONE', *, *, #175, .T. ) ;
#197 = EDGE_CURVE ( 'NONE', #128, #242, #129, .T. ) ;
#198 = ORIENTED_EDGE ( 'NONE', *, *, #17, .T. ) ;
#199 = VERTEX_POINT ( 'NONE', #30 ) ;
#200 = AXIS2_PLACEMENT_3D ( 'NONE', #272, #44, #42 ) ;
#201 = CARTESIAN_POINT ( 'NONE',  ( 0.0000000000000000000, 0.0000000000000000000, 2.244094000000000033 ) ) ;
#202 = EDGE_CURVE ( 'NONE', #147, #166, #12, .T. ) ;
#203 = FACE_OUTER_BOUND ( 'NONE', #262, .T. ) ;
#204 = SURFACE_STYLE_USAGE ( .BOTH. , #185 ) ;
#205 = FILL_AREA_STYLE ('',( #182 ) ) ;
#206 = DIRECTION ( 'NONE',  ( 0.0000000000000000000, 0.0000000000000000000, 1.000000000000000000 ) ) ;
#207 = APPLICATION_PROTOCOL_DEFINITION ( 'draft international standard', 'automotive_design', 1998, #69 ) ;
#208 = EDGE_CURVE ( 'NONE', #166, #1, #155, .T. ) ;
#209 = SURFACE_STYLE_USAGE ( .BOTH. , #137 ) ;
#210 = AXIS2_PLACEMENT_3D ( 'NONE', #201, #89, #270 ) ;
#211 = ORIENTED_EDGE ( 'NONE', *, *, #17, .F. ) ;
#212 = CARTESIAN_POINT ( 'NONE',  ( 0.05905500000000005884, 7.232151672364700045E-18, 0.3152959175478576292 ) ) ;
#213 = ORIENTED_EDGE ( 'NONE', *, *, #67, .F. ) ;
#214 = CARTESIAN_POINT ( 'NONE',  ( 0.04405499999999960142, 6.313666573004155588E-18, 2.244094000000000033 ) ) ;
#215 = DIMENSIONAL_EXPONENTS ( 1.000000000000000000, 0.0000000000000000000, 0.0000000000000000000, 0.0000000000000000000, 0.0000000000000000000, 0.0000000000000000000, 0.0000000000000000000 ) ;
#216 = AXIS2_PLACEMENT_3D ( 'NONE', #146, #240, #103 ) ;
#217 = ORIENTED_EDGE ( 'NONE', *, *, #79, .T. ) ;
#218 = AXIS2_PLACEMENT_3D ( 'NONE', #296, #66, #163 ) ;
#219 = FACE_OUTER_BOUND ( 'NONE', #81, .T. ) ;
#220 = ORIENTED_EDGE ( 'NONE', *, *, #175, .F. ) ;
#221 = CARTESIAN_POINT ( 'NONE',  ( -0.04405499999999960142, 0.0000000000000000000, 2.244094000000000033 ) ) ;
#222 = EDGE_CURVE ( 'NONE', #199, #166, #91, .T. ) ;
#223 = AXIS2_PLACEMENT_3D ( 'NONE', #77, #142, #266 ) ;
#224 = DIRECTION ( 'NONE',  ( 1.224646799147353207E-16, 0.0000000000000000000, 1.000000000000000000 ) ) ;
#225 = DIRECTION ( 'NONE',  ( 1.000000000000000000, 0.0000000000000000000, 0.0000000000000000000 ) ) ;
#226 = MANIFOLD_SOLID_BREP ( 'Cut-Revolve1', #279 ) ;
#227 =( GEOMETRIC_REPRESENTATION_CONTEXT ( 3 ) GLOBAL_UNCERTAINTY_ASSIGNED_CONTEXT ( ( #120 ) ) GLOBAL_UNIT_ASSIGNED_CONTEXT ( ( #119, #159, #188 ) ) REPRESENTATION_CONTEXT ( 'NONE', 'WORKASPACE' ) );
#228 = CARTESIAN_POINT ( 'NONE',  ( 0.05899594499999999409, 7.224919520692329689E-18, 0.0000000000000000000 ) ) ;
#229 = DIRECTION ( 'NONE',  ( -0.0000000000000000000, -0.0000000000000000000, -1.000000000000000000 ) ) ;
#230 = EDGE_CURVE ( 'NONE', #254, #1, #134, .T. ) ;
#231 = FACE_OUTER_BOUND ( 'NONE', #83, .T. ) ;
#232 =( LENGTH_UNIT ( ) NAMED_UNIT ( * ) SI_UNIT ( $, .METRE. ) );
#233 = ADVANCED_FACE ( 'NONE', ( #203 ), #256, .T. ) ;
#234 = AXIS2_PLACEMENT_3D ( 'NONE', #41, #114, #225 ) ;
#235 = CARTESIAN_POINT ( 'NONE',  ( 3.857159805062494824E-17, 0.0000000000000000000, 0.3149609999999999910 ) ) ;
#236 = DIRECTION ( 'NONE',  ( -1.000000000000000000, 0.0000000000000000000, 1.224646799147353454E-16 ) ) ;
#237 = ORIENTED_EDGE ( 'NONE', *, *, #11, .T. ) ;
#238 = DIRECTION ( 'NONE',  ( -1.000000000000000000, 0.0000000000000000000, 0.0000000000000000000 ) ) ;
#239 = ORIENTED_EDGE ( 'NONE', *, *, #202, .F. ) ;
#240 = DIRECTION ( 'NONE',  ( -1.224646799147353207E-16, -0.0000000000000000000, -1.000000000000000000 ) ) ;
#241 = CIRCLE ( 'NONE', #76, 0.05905500000000001720 ) ;
#242 = VERTEX_POINT ( 'NONE', #18 ) ;
#243 = CYLINDRICAL_SURFACE ( 'NONE', #133, 0.05905500000000001720 ) ;
#244 = ORIENTED_EDGE ( 'NONE', *, *, #253, .F. ) ;
#245 = CARTESIAN_POINT ( 'NONE',  ( 0.05899594500000004266, 0.0000000000000000000, 0.3149609999999999910 ) ) ;
#246 = CIRCLE ( 'NONE', #223, 0.05905500000000001720 ) ;
#247 =( NAMED_UNIT ( * ) PLANE_ANGLE_UNIT ( ) SI_UNIT ( $, .RADIAN. ) );
#248 = DIRECTION ( 'NONE',  ( 1.000000000000000000, 0.0000000000000000000, 0.0000000000000000000 ) ) ;
#249 = CARTESIAN_POINT ( 'NONE',  ( -0.05899594499999995245, 7.228535596528513326E-18, 0.3149609999999999910 ) ) ;
#250 = VECTOR ( 'NONE', #154, 39.37007874015748143 ) ;
#251 = CARTESIAN_POINT ( 'NONE',  ( 0.05905500000000001720, 7.232151672364695422E-18, 2.244094000000000033 ) ) ;
#252 = AXIS2_PLACEMENT_3D ( 'NONE', #62, #224, #248 ) ;
#253 = EDGE_CURVE ( 'NONE', #128, #78, #102, .T. ) ;
#254 = VERTEX_POINT ( 'NONE', #249 ) ;
#255 = CARTESIAN_POINT ( 'NONE',  ( -0.04405499999999960142, 0.0000000000000000000, 2.244094000000000033 ) ) ;
#256 = CONICAL_SURFACE ( 'NONE', #252, 0.05899594499999999409, 0.1745329251994339748 ) ;
#257 = ORIENTED_EDGE ( 'NONE', *, *, #299, .T. ) ;
#258 = ADVANCED_FACE ( 'NONE', ( #112 ), #85, .T. ) ;
#259 = DIRECTION ( 'NONE',  ( 0.0000000000000000000, 0.0000000000000000000, -1.000000000000000000 ) ) ;
#260 = EDGE_LOOP ( 'NONE', ( #284, #50, #75, #286 ) ) ;
#261 = FACE_OUTER_BOUND ( 'NONE', #4, .T. ) ;
#262 = EDGE_LOOP ( 'NONE', ( #211, #108, #196, #239 ) ) ;
#263 = CARTESIAN_POINT ( 'NONE',  ( 8.847974565113090185E-34, 0.0000000000000000000, 7.224919520692329689E-18 ) ) ;
#264 = AXIS2_PLACEMENT_3D ( 'NONE', #131, #287, #36 ) ;
#265 = ORIENTED_EDGE ( 'NONE', *, *, #67, .T. ) ;
#266 = DIRECTION ( 'NONE',  ( 1.000000000000000000, 0.0000000000000000000, 0.0000000000000000000 ) ) ;
#267 = ADVANCED_FACE ( 'NONE', ( #184 ), #168, .T. ) ;
#268 = MECHANICAL_DESIGN_GEOMETRIC_PRESENTATION_REPRESENTATION (  '', ( #138 ), #113 ) ;
#269 = PRODUCT_DEFINITION ( 'UNKNOWN', '', #180, #278 ) ;
#270 = DIRECTION ( 'NONE',  ( 1.000000000000000000, 0.0000000000000000000, 0.0000000000000000000 ) ) ;
#271 = AXIS2_PLACEMENT_3D ( 'NONE', #186, #295, #275 ) ;
#272 = CARTESIAN_POINT ( 'NONE',  ( 0.0000000000000000000, 0.0000000000000000000, 2.244094000000000033 ) ) ;
#273 =( LENGTH_UNIT ( ) NAMED_UNIT ( * ) SI_UNIT ( $, .METRE. ) );
#274 = AXIS2_PLACEMENT_3D ( 'NONE', #235, #88, #92 ) ;
#275 = DIRECTION ( 'NONE',  ( 1.000000000000000000, 0.0000000000000000000, -0.0000000000000000000 ) ) ;
#276 = PRODUCT_CONTEXT ( 'NONE', #69, 'mechanical' ) ;
#277 = AXIS2_PLACEMENT_3D ( 'NONE', #82, #259, #289 ) ;
#278 = PRODUCT_DEFINITION_CONTEXT ( 'detailed design', #157, 'design' ) ;
#279 = CLOSED_SHELL ( 'NONE', ( #165, #233, #267, #115, #86, #72, #59, #258, #63, #43 ) ) ;
#280 = PLANE ( 'NONE',  #6 ) ;
#281 = ORIENTED_EDGE ( 'NONE', *, *, #11, .F. ) ;
#282 = DIRECTION ( 'NONE',  ( -1.224646799147353207E-16, -0.0000000000000000000, -1.000000000000000000 ) ) ;
#283 = AXIS2_PLACEMENT_3D ( 'NONE', #5, #58, #9 ) ;
#284 = ORIENTED_EDGE ( 'NONE', *, *, #136, .F. ) ;
#285 = CARTESIAN_POINT ( 'NONE',  ( 0.0000000000000000000, 0.0000000000000000000, 2.244094000000000033 ) ) ;
#286 = ORIENTED_EDGE ( 'NONE', *, *, #197, .F. ) ;
#287 = DIRECTION ( 'NONE',  ( -1.224646799147353207E-16, -0.0000000000000000000, -1.000000000000000000 ) ) ;
#288 = ORIENTED_EDGE ( 'NONE', *, *, #140, .F. ) ;
#289 = DIRECTION ( 'NONE',  ( -1.000000000000000000, 0.0000000000000000000, 0.0000000000000000000 ) ) ;
#290 = CIRCLE ( 'NONE', #183, 0.05899594499999999409 ) ;
#291 = PRESENTATION_STYLE_ASSIGNMENT (( #204 ) ) ;
#292 = LINE ( 'NONE', #156, #141 ) ;
#293 =( GEOMETRIC_REPRESENTATION_CONTEXT ( 3 ) GLOBAL_UNCERTAINTY_ASSIGNED_CONTEXT ( ( #96 ) ) GLOBAL_UNIT_ASSIGNED_CONTEXT ( ( #294, #70, #95 ) ) REPRESENTATION_CONTEXT ( 'NONE', 'WORKASPACE' ) );
#294 =( CONVERSION_BASED_UNIT ( 'INCH', #24 ) LENGTH_UNIT ( ) NAMED_UNIT ( #98 ) );
#295 = DIRECTION ( 'NONE',  ( 0.0000000000000000000, 0.0000000000000000000, 1.000000000000000000 ) ) ;
#296 = CARTESIAN_POINT ( 'NONE',  ( 3.857159805062494824E-17, 0.0000000000000000000, 0.3149609999999999910 ) ) ;
#297 = FILL_AREA_STYLE_COLOUR ( '', #110 ) ;
#298 = CIRCLE ( 'NONE', #126, 0.05899594499999999409 ) ;
#299 = EDGE_CURVE ( 'NONE', #242, #1, #14, .T. ) ;
ENDSEC;
END-ISO-10303-21;
