ISO-10303-21;
HEADER;
FILE_DESCRIPTION (( 'STEP AP214' ),
    '1' );
FILE_NAME ('84633.STEP',
    '2023-06-23T14:17:52',
    ( '' ),
    ( '' ),
    'SwSTEP 2.0',
    'SolidWorks 2023',
    '' );
FILE_SCHEMA (( 'AUTOMOTIVE_DESIGN' ));
ENDSEC;

DATA;
#1 = ORIENTED_EDGE ( 'NONE', *, *, #355, .F. ) ;
#2 = UNCERTAINTY_MEASURE_WITH_UNIT (LENGTH_MEASURE( 1.000000000000000082E-05 ), #199, 'distance_accuracy_value', 'NONE');
#3 = EDGE_LOOP ( 'NONE', ( #337, #142 ) ) ;
#4 = ADVANCED_FACE ( 'NONE', ( #339 ), #101, .T. ) ;
#5 = EDGE_LOOP ( 'NONE', ( #306, #27, #171, #309 ) ) ;
#6 =( CONVERSION_BASED_UNIT ( 'INCH', #235 ) LENGTH_UNIT ( ) NAMED_UNIT ( #323 ) );
#7 = UNCERTAINTY_MEASURE_WITH_UNIT (LENGTH_MEASURE( 1.000000000000000082E-05 ), #348, 'distance_accuracy_value', 'NONE');
#8 = FILL_AREA_STYLE ('',( #240 ) ) ;
#9 =( NAMED_UNIT ( * ) PLANE_ANGLE_UNIT ( ) SI_UNIT ( $, .RADIAN. ) );
#10 =( NAMED_UNIT ( * ) PLANE_ANGLE_UNIT ( ) SI_UNIT ( $, .RADIAN. ) );
#11 = UNCERTAINTY_MEASURE_WITH_UNIT (LENGTH_MEASURE( 1.000000000000000082E-05 ), #274, 'distance_accuracy_value', 'NONE');
#12 = DIRECTION ( 'NONE',  ( 1.000000000000000000, 0.000000000000000000, 0.000000000000000000 ) ) ;
#13 = DIRECTION ( 'NONE',  ( 3.628583108584750472E-17, 1.000000000000000000, -0.000000000000000000 ) ) ;
#14 = VECTOR ( 'NONE', #249, 39.37007874015748143 ) ;
#15 = SURFACE_SIDE_STYLE ('',( #153 ) ) ;
#16 = AXIS2_PLACEMENT_3D ( 'NONE', #43, #151, #12 ) ;
#17 = LINE ( 'NONE', #229, #89 ) ;
#18 = SURFACE_STYLE_USAGE ( .BOTH. , #15 ) ;
#19 =( NAMED_UNIT ( * ) SI_UNIT ( $, .STERADIAN. ) SOLID_ANGLE_UNIT ( ) );
#20 = CARTESIAN_POINT ( 'NONE',  ( 9.564491501340828324E-18, 0.000000000000000000, 0.07810000000000000275 ) ) ;
#21 = AXIS2_PLACEMENT_3D ( 'NONE', #131, #56, #75 ) ;
#22 = CARTESIAN_POINT ( 'NONE',  ( -0.09374999999999997224, 2.000000000000000000, 0.000000000000000000 ) ) ;
#23 = LENGTH_MEASURE_WITH_UNIT ( LENGTH_MEASURE( 0.02539999999999999897 ), #318 );
#24 = FACE_OUTER_BOUND ( 'NONE', #169, .T. ) ;
#25 = COLOUR_RGB ( '',1.000000000000000000, 0.000000000000000000, 0.000000000000000000 ) ;
#26 = MECHANICAL_DESIGN_GEOMETRIC_PRESENTATION_REPRESENTATION (  '', ( #119 ), #351 ) ;
#27 = ORIENTED_EDGE ( 'NONE', *, *, #29, .T. ) ;
#28 = VERTEX_POINT ( 'NONE', #273 ) ;
#29 = EDGE_CURVE ( 'NONE', #140, #28, #254, .T. ) ;
#30 = ORIENTED_EDGE ( 'NONE', *, *, #90, .F. ) ;
#31 = CIRCLE ( 'NONE', #113, 0.09375000000000001388 ) ;
#32 = CARTESIAN_POINT ( 'NONE',  ( 6.123233995736766036E-17, 2.000000000000000000, 0.000000000000000000 ) ) ;
#33 = VERTEX_POINT ( 'NONE', #296 ) ;
#34 = SURFACE_SIDE_STYLE ('',( #147 ) ) ;
#35 = CLOSED_SHELL ( 'NONE', ( #200, #51, #303, #4 ) ) ;
#36 = EDGE_CURVE ( 'NONE', #145, #288, #262, .T. ) ;
#37 =( LENGTH_UNIT ( ) NAMED_UNIT ( * ) SI_UNIT ( $, .METRE. ) );
#38 = PRESENTATION_LAYER_ASSIGNMENT (  '', '', ( #271 ) ) ;
#39 =( LENGTH_UNIT ( ) NAMED_UNIT ( * ) SI_UNIT ( $, .METRE. ) );
#40 = PRODUCT_DEFINITION_CONTEXT ( 'detailed design', #213, 'design' ) ;
#41 = DIRECTION ( 'NONE',  ( -0.3420201433256687129, 0.9396926207859083169, 0.000000000000000000 ) ) ;
#42 =( NAMED_UNIT ( * ) SI_UNIT ( $, .STERADIAN. ) SOLID_ANGLE_UNIT ( ) );
#43 = CARTESIAN_POINT ( 'NONE',  ( 0.000000000000000000, 0.000000000000000000, 0.000000000000000000 ) ) ;
#44 = SURFACE_STYLE_FILL_AREA ( #294 ) ;
#45 = FILL_AREA_STYLE ('',( #329 ) ) ;
#46 =( GEOMETRIC_REPRESENTATION_CONTEXT ( 3 ) GLOBAL_UNCERTAINTY_ASSIGNED_CONTEXT ( ( #198 ) ) GLOBAL_UNIT_ASSIGNED_CONTEXT ( ( #6, #10, #237 ) ) REPRESENTATION_CONTEXT ( 'NONE', 'WORKASPACE' ) );
#47 = EDGE_LOOP ( 'NONE', ( #284, #168, #256, #192 ) ) ;
#48 = DIMENSIONAL_EXPONENTS ( 1.000000000000000000, 0.000000000000000000, 0.000000000000000000, 0.000000000000000000, 0.000000000000000000, 0.000000000000000000, 0.000000000000000000 ) ;
#49 = LINE ( 'NONE', #304, #207 ) ;
#50 = DIRECTION ( 'NONE',  ( -0.000000000000000000, -1.000000000000000000, -0.000000000000000000 ) ) ;
#51 = ADVANCED_FACE ( 'NONE', ( #290 ), #295, .T. ) ;
#52 = DIRECTION ( 'NONE',  ( 3.628583108584750472E-17, 1.000000000000000000, -0.000000000000000000 ) ) ;
#53 = AXIS2_PLACEMENT_3D ( 'NONE', #189, #111, #218 ) ;
#54 = MECHANICAL_DESIGN_GEOMETRIC_PRESENTATION_REPRESENTATION (  '', ( #271 ), #239 ) ;
#55 = PLANE ( 'NONE',  #282 ) ;
#56 = DIRECTION ( 'NONE',  ( 3.628583108584750472E-17, 1.000000000000000000, -0.000000000000000000 ) ) ;
#57 = PRODUCT_RELATED_PRODUCT_CATEGORY ( 'part', '', ( #205 ) ) ;
#58 = ORIENTED_EDGE ( 'NONE', *, *, #152, .T. ) ;
#59 = AXIS2_PLACEMENT_3D ( 'NONE', #133, #324, #245 ) ;
#60 = ORIENTED_EDGE ( 'NONE', *, *, #68, .T. ) ;
#61 = VERTEX_POINT ( 'NONE', #214 ) ;
#62 = CYLINDRICAL_SURFACE ( 'NONE', #98, 0.09375000000000004163 ) ;
#63 = ORIENTED_EDGE ( 'NONE', *, *, #85, .T. ) ;
#64 = LENGTH_MEASURE_WITH_UNIT ( LENGTH_MEASURE( 0.02539999999999999897 ), #276 );
#65 = ORIENTED_EDGE ( 'NONE', *, *, #127, .F. ) ;
#66 = CARTESIAN_POINT ( 'NONE',  ( 0.000000000000000000, 0.000000000000000000, -0.07810000000000000275 ) ) ;
#67 = FILL_AREA_STYLE_COLOUR ( '', #25 ) ;
#68 = EDGE_CURVE ( 'NONE', #112, #83, #74, .T. ) ;
#69 = ORIENTED_EDGE ( 'NONE', *, *, #267, .T. ) ;
#70 = STYLED_ITEM ( 'NONE', ( #300 ), #200 ) ;
#71 = DIRECTION ( 'NONE',  ( 0.000000000000000000, 0.000000000000000000, -1.000000000000000000 ) ) ;
#72 = EDGE_CURVE ( 'NONE', #28, #112, #358, .T. ) ;
#73 = PRESENTATION_STYLE_ASSIGNMENT (( #325 ) ) ;
#74 = CIRCLE ( 'NONE', #21, 0.09375000000000001388 ) ;
#75 = DIRECTION ( 'NONE',  ( -1.000000000000000000, 0.000000000000000000, 0.000000000000000000 ) ) ;
#76 = FILL_AREA_STYLE_COLOUR ( '', #316 ) ;
#77 = EDGE_CURVE ( 'NONE', #288, #145, #136, .T. ) ;
#78 = CARTESIAN_POINT ( 'NONE',  ( 0.000000000000000000, 0.000000000000000000, 0.000000000000000000 ) ) ;
#79 = DIRECTION ( 'NONE',  ( 1.000000000000000000, -3.628583108584750472E-17, 0.000000000000000000 ) ) ;
#80 = FACE_OUTER_BOUND ( 'NONE', #190, .T. ) ;
#81 = MECHANICAL_DESIGN_GEOMETRIC_PRESENTATION_REPRESENTATION (  '', ( #70 ), #110 ) ;
#82 = VECTOR ( 'NONE', #164, 39.37007874015748143 ) ;
#83 = VERTEX_POINT ( 'NONE', #354 ) ;
#84 = STYLED_ITEM ( 'NONE', ( #261 ), #303 ) ;
#85 = EDGE_CURVE ( 'NONE', #83, #112, #31, .T. ) ;
#86 = DIRECTION ( 'NONE',  ( 0.3420201433256688239, 0.9396926207859083169, 4.188538737676992998E-17 ) ) ;
#87 = ORIENTED_EDGE ( 'NONE', *, *, #158, .F. ) ;
#88 = MECHANICAL_DESIGN_GEOMETRIC_PRESENTATION_REPRESENTATION (  '', ( #343 ), #270 ) ;
#89 = VECTOR ( 'NONE', #41, 39.37007874015748854 ) ;
#90 = EDGE_CURVE ( 'NONE', #33, #288, #49, .T. ) ;
#91 = CARTESIAN_POINT ( 'NONE',  ( 0.000000000000000000, 0.000000000000000000, 0.000000000000000000 ) ) ;
#92 =( CONVERSION_BASED_UNIT ( 'INCH', #176 ) LENGTH_UNIT ( ) NAMED_UNIT ( #48 ) );
#93 = SURFACE_STYLE_USAGE ( .BOTH. , #34 ) ;
#94 = LENGTH_MEASURE_WITH_UNIT ( LENGTH_MEASURE( 0.02539999999999999897 ), #204 );
#95 = UNCERTAINTY_MEASURE_WITH_UNIT (LENGTH_MEASURE( 1.000000000000000082E-05 ), #92, 'distance_accuracy_value', 'NONE');
#96 = PRODUCT_CONTEXT ( 'NONE', #194, 'mechanical' ) ;
#97 = DIRECTION ( 'NONE',  ( -1.000000000000000000, 0.000000000000000000, 0.000000000000000000 ) ) ;
#98 = AXIS2_PLACEMENT_3D ( 'NONE', #32, #144, #97 ) ;
#99 = CARTESIAN_POINT ( 'NONE',  ( 0.000000000000000000, 0.000000000000000000, 0.000000000000000000 ) ) ;
#100 = DIRECTION ( 'NONE',  ( -1.000000000000000000, 0.000000000000000000, 0.000000000000000000 ) ) ;
#101 = PLANE ( 'NONE',  #130 ) ;
#102 = DIRECTION ( 'NONE',  ( 3.628583108584750472E-17, 1.000000000000000000, -0.000000000000000000 ) ) ;
#103 =( NAMED_UNIT ( * ) PLANE_ANGLE_UNIT ( ) SI_UNIT ( $, .RADIAN. ) );
#104 = CONICAL_SURFACE ( 'NONE', #302, 0.07810000000000000275, 0.3490658503988659511 ) ;
#105 = DIRECTION ( 'NONE',  ( -1.000000000000000000, 0.000000000000000000, 0.000000000000000000 ) ) ;
#106 = CARTESIAN_POINT ( 'NONE',  ( 0.000000000000000000, 0.000000000000000000, 0.000000000000000000 ) ) ;
#107 = FACE_OUTER_BOUND ( 'NONE', #335, .T. ) ;
#108 = SURFACE_STYLE_FILL_AREA ( #45 ) ;
#109 = DIRECTION ( 'NONE',  ( 3.628583108584750472E-17, 1.000000000000000000, -0.000000000000000000 ) ) ;
#110 =( GEOMETRIC_REPRESENTATION_CONTEXT ( 3 ) GLOBAL_UNCERTAINTY_ASSIGNED_CONTEXT ( ( #311 ) ) GLOBAL_UNIT_ASSIGNED_CONTEXT ( ( #116, #167, #139 ) ) REPRESENTATION_CONTEXT ( 'NONE', 'WORKASPACE' ) );
#111 = DIRECTION ( 'NONE',  ( -0.000000000000000000, -1.000000000000000000, -0.000000000000000000 ) ) ;
#112 = VERTEX_POINT ( 'NONE', #206 ) ;
#113 = AXIS2_PLACEMENT_3D ( 'NONE', #326, #109, #128 ) ;
#114 = CARTESIAN_POINT ( 'NONE',  ( 0.09375000000000011102, 2.000000000000000000, 1.148106374200644171E-17 ) ) ;
#115 = EDGE_LOOP ( 'NONE', ( #65, #87 ) ) ;
#116 =( CONVERSION_BASED_UNIT ( 'INCH', #64 ) LENGTH_UNIT ( ) NAMED_UNIT ( #134 ) );
#117 = EDGE_LOOP ( 'NONE', ( #260, #258, #232, #228 ) ) ;
#118 = PRODUCT_DEFINITION ( 'UNKNOWN', '', #156, #40 ) ;
#119 = STYLED_ITEM ( 'NONE', ( #73 ), #352 ) ;
#120 = DIRECTION ( 'NONE',  ( -0.000000000000000000, -1.000000000000000000, -0.000000000000000000 ) ) ;
#121 =( NAMED_UNIT ( * ) PLANE_ANGLE_UNIT ( ) SI_UNIT ( $, .RADIAN. ) );
#122 = AXIS2_PLACEMENT_3D ( 'NONE', #275, #165, #301 ) ;
#123 = DIRECTION ( 'NONE',  ( -1.000000000000000000, 0.000000000000000000, 0.000000000000000000 ) ) ;
#124 = LINE ( 'NONE', #272, #82 ) ;
#125 = CARTESIAN_POINT ( 'NONE',  ( 0.000000000000000000, 0.3125000000000000000, 0.000000000000000000 ) ) ;
#126 = FILL_AREA_STYLE ('',( #210 ) ) ;
#127 = EDGE_CURVE ( 'NONE', #33, #230, #173, .T. ) ;
#128 = DIRECTION ( 'NONE',  ( -1.000000000000000000, 0.000000000000000000, 0.000000000000000000 ) ) ;
#129 =( NAMED_UNIT ( * ) PLANE_ANGLE_UNIT ( ) SI_UNIT ( $, .RADIAN. ) );
#130 = AXIS2_PLACEMENT_3D ( 'NONE', #91, #197, #182 ) ;
#131 = CARTESIAN_POINT ( 'NONE',  ( 6.123233995736766036E-17, 2.000000000000000000, 0.000000000000000000 ) ) ;
#132 =( GEOMETRIC_REPRESENTATION_CONTEXT ( 3 ) GLOBAL_UNCERTAINTY_ASSIGNED_CONTEXT ( ( #95 ) ) GLOBAL_UNIT_ASSIGNED_CONTEXT ( ( #92, #121, #313 ) ) REPRESENTATION_CONTEXT ( 'NONE', 'WORKASPACE' ) );
#133 = CARTESIAN_POINT ( 'NONE',  ( 0.000000000000000000, 0.3125000000000000000, 0.000000000000000000 ) ) ;
#134 = DIMENSIONAL_EXPONENTS ( 1.000000000000000000, 0.000000000000000000, 0.000000000000000000, 0.000000000000000000, 0.000000000000000000, 0.000000000000000000, 0.000000000000000000 ) ;
#135 = FILL_AREA_STYLE ('',( #76 ) ) ;
#136 = CIRCLE ( 'NONE', #215, 0.07810000000000000275 ) ;
#137 = EDGE_LOOP ( 'NONE', ( #58, #193, #266, #196 ) ) ;
#138 = EDGE_CURVE ( 'NONE', #61, #310, #238, .T. ) ;
#139 =( NAMED_UNIT ( * ) SI_UNIT ( $, .STERADIAN. ) SOLID_ANGLE_UNIT ( ) );
#140 = VERTEX_POINT ( 'NONE', #244 ) ;
#141 =( NAMED_UNIT ( * ) PLANE_ANGLE_UNIT ( ) SI_UNIT ( $, .RADIAN. ) );
#142 = ORIENTED_EDGE ( 'NONE', *, *, #36, .T. ) ;
#143 = AXIS2_PLACEMENT_3D ( 'NONE', #342, #180, #315 ) ;
#144 = DIRECTION ( 'NONE',  ( 3.628583108584750472E-17, 1.000000000000000000, -0.000000000000000000 ) ) ;
#145 = VERTEX_POINT ( 'NONE', #20 ) ;
#146 = ADVANCED_FACE ( 'NONE', ( #80 ), #211, .F. ) ;
#147 = SURFACE_STYLE_FILL_AREA ( #8 ) ;
#148 = SURFACE_SIDE_STYLE ('',( #44 ) ) ;
#149 = AXIS2_PLACEMENT_3D ( 'NONE', #340, #13, #123 ) ;
#150 = COLOUR_RGB ( '',0.7921568627450980005, 0.8196078431372548767, 0.9333333333333333481 ) ;
#151 = DIRECTION ( 'NONE',  ( 0.000000000000000000, 0.000000000000000000, 1.000000000000000000 ) ) ;
#152 = EDGE_CURVE ( 'NONE', #28, #140, #183, .T. ) ;
#153 = SURFACE_STYLE_FILL_AREA ( #345 ) ;
#154 = FACE_OUTER_BOUND ( 'NONE', #47, .T. ) ;
#155 = VECTOR ( 'NONE', #226, 39.37007874015748143 ) ;
#156 = PRODUCT_DEFINITION_FORMATION_WITH_SPECIFIED_SOURCE ( 'ANY', '', #205, .NOT_KNOWN. ) ;
#157 = PRODUCT_DEFINITION_SHAPE ( 'NONE', 'NONE',  #118 ) ;
#158 = EDGE_CURVE ( 'NONE', #230, #33, #350, .T. ) ;
#159 = CARTESIAN_POINT ( 'NONE',  ( 5.141563304291515616E-35, 0.3125000000000000000, 0.000000000000000000 ) ) ;
#160 = SURFACE_STYLE_USAGE ( .BOTH. , #208 ) ;
#161 = PRESENTATION_LAYER_ASSIGNMENT (  '', '', ( #314 ) ) ;
#162 = PRESENTATION_LAYER_ASSIGNMENT (  '', '', ( #70 ) ) ;
#163 = DIRECTION ( 'NONE',  ( 0.000000000000000000, 1.000000000000000000, 0.000000000000000000 ) ) ;
#164 = DIRECTION ( 'NONE',  ( -0.000000000000000000, -1.000000000000000000, -0.000000000000000000 ) ) ;
#165 = DIRECTION ( 'NONE',  ( 3.628583108584750472E-17, 1.000000000000000000, -0.000000000000000000 ) ) ;
#166 = CIRCLE ( 'NONE', #149, 0.07810000000000000275 ) ;
#167 =( NAMED_UNIT ( * ) PLANE_ANGLE_UNIT ( ) SI_UNIT ( $, .RADIAN. ) );
#168 = ORIENTED_EDGE ( 'NONE', *, *, #158, .T. ) ;
#169 = EDGE_LOOP ( 'NONE', ( #60, #63 ) ) ;
#170 = UNCERTAINTY_MEASURE_WITH_UNIT (LENGTH_MEASURE( 1.000000000000000082E-05 ), #353, 'distance_accuracy_value', 'NONE');
#171 = ORIENTED_EDGE ( 'NONE', *, *, #72, .T. ) ;
#172 = AXIS2_PLACEMENT_3D ( 'NONE', #99, #120, #71 ) ;
#173 = CIRCLE ( 'NONE', #287, 0.07810000000000000275 ) ;
#174 = ORIENTED_EDGE ( 'NONE', *, *, #234, .T. ) ;
#175 = DIRECTION ( 'NONE',  ( 3.628583108584750472E-17, 1.000000000000000000, -0.000000000000000000 ) ) ;
#176 = LENGTH_MEASURE_WITH_UNIT ( LENGTH_MEASURE( 0.02539999999999999897 ), #233 );
#177 = ADVANCED_FACE ( 'NONE', ( #24 ), #55, .F. ) ;
#178 = FILL_AREA_STYLE_COLOUR ( '', #277 ) ;
#179 = APPLICATION_PROTOCOL_DEFINITION ( 'draft international standard', 'automotive_design', 1998, #194 ) ;
#180 = DIRECTION ( 'NONE',  ( 3.628583108584750472E-17, 1.000000000000000000, -0.000000000000000000 ) ) ;
#181 = LENGTH_MEASURE_WITH_UNIT ( LENGTH_MEASURE( 0.02539999999999999897 ), #37 );
#182 = DIRECTION ( 'NONE',  ( 0.000000000000000000, 0.000000000000000000, -1.000000000000000000 ) ) ;
#183 = CIRCLE ( 'NONE', #122, 0.09375000000000005551 ) ;
#184 = LENGTH_MEASURE_WITH_UNIT ( LENGTH_MEASURE( 0.02539999999999999897 ), #248 );
#185 = DIRECTION ( 'NONE',  ( -1.000000000000000000, 0.000000000000000000, 0.000000000000000000 ) ) ;
#186 = SURFACE_STYLE_FILL_AREA ( #135 ) ;
#187 = CARTESIAN_POINT ( 'NONE',  ( 0.000000000000000000, 0.3125000000000000000, 0.000000000000000000 ) ) ;
#188 = CARTESIAN_POINT ( 'NONE',  ( 0.000000000000000000, 0.3125000000000000000, 0.000000000000000000 ) ) ;
#189 = CARTESIAN_POINT ( 'NONE',  ( 0.000000000000000000, 0.000000000000000000, 0.000000000000000000 ) ) ;
#190 = EDGE_LOOP ( 'NONE', ( #241, #332 ) ) ;
#191 = COLOUR_RGB ( '',1.000000000000000000, 0.000000000000000000, 0.000000000000000000 ) ;
#192 = ORIENTED_EDGE ( 'NONE', *, *, #36, .F. ) ;
#193 = ORIENTED_EDGE ( 'NONE', *, *, #224, .T. ) ;
#194 = APPLICATION_CONTEXT ( 'automotive_design' ) ;
#195 = ADVANCED_FACE ( 'NONE', ( #349 ), #104, .T. ) ;
#196 = ORIENTED_EDGE ( 'NONE', *, *, #72, .F. ) ;
#197 = DIRECTION ( 'NONE',  ( 0.000000000000000000, -1.000000000000000000, -0.000000000000000000 ) ) ;
#198 = UNCERTAINTY_MEASURE_WITH_UNIT (LENGTH_MEASURE( 1.000000000000000082E-05 ), #6, 'distance_accuracy_value', 'NONE');
#199 =( CONVERSION_BASED_UNIT ( 'INCH', #94 ) LENGTH_UNIT ( ) NAMED_UNIT ( #344 ) );
#200 = ADVANCED_FACE ( 'NONE', ( #107 ), #209, .T. ) ;
#201 = FACE_OUTER_BOUND ( 'NONE', #137, .T. ) ;
#202 = PRESENTATION_STYLE_ASSIGNMENT (( #18 ) ) ;
#203 = ADVANCED_FACE ( 'NONE', ( #308 ), #359, .T. ) ;
#204 =( LENGTH_UNIT ( ) NAMED_UNIT ( * ) SI_UNIT ( $, .METRE. ) );
#205 = PRODUCT ( '84633', '84633', '', ( #96 ) ) ;
#206 = CARTESIAN_POINT ( 'NONE',  ( -0.09374999999999994449, 2.000000000000000000, 0.000000000000000000 ) ) ;
#207 = VECTOR ( 'NONE', #347, 39.37007874015748143 ) ;
#208 = SURFACE_SIDE_STYLE ('',( #250 ) ) ;
#209 = CYLINDRICAL_SURFACE ( 'NONE', #53, 0.07810000000000000275 ) ;
#210 = FILL_AREA_STYLE_COLOUR ( '', #222 ) ;
#211 = PLANE ( 'NONE',  #221 ) ;
#212 = CARTESIAN_POINT ( 'NONE',  ( -0.07810000000000000275, 0.3125000000000000000, 0.000000000000000000 ) ) ;
#213 = APPLICATION_CONTEXT ( 'automotive_design' ) ;
#214 = CARTESIAN_POINT ( 'NONE',  ( 0.07810000000000000275, 0.3125000000000000000, 1.052277762167363810E-17 ) ) ;
#215 = AXIS2_PLACEMENT_3D ( 'NONE', #106, #252, #279 ) ;
#216 = SURFACE_SIDE_STYLE ('',( #108 ) ) ;
#217 = SURFACE_SIDE_STYLE ('',( #186 ) ) ;
#218 = DIRECTION ( 'NONE',  ( 0.000000000000000000, 0.000000000000000000, -1.000000000000000000 ) ) ;
#219 = ORIENTED_EDGE ( 'NONE', *, *, #77, .F. ) ;
#220 = CARTESIAN_POINT ( 'NONE',  ( 0.000000000000000000, 0.3125000000000000000, 0.000000000000000000 ) ) ;
#221 = AXIS2_PLACEMENT_3D ( 'NONE', #159, #102, #299 ) ;
#222 = COLOUR_RGB ( '',0.7921568627450980005, 0.8196078431372548767, 0.9333333333333333481 ) ;
#223 = ORIENTED_EDGE ( 'NONE', *, *, #336, .T. ) ;
#224 = EDGE_CURVE ( 'NONE', #140, #83, #257, .T. ) ;
#225 =( NAMED_UNIT ( * ) SI_UNIT ( $, .STERADIAN. ) SOLID_ANGLE_UNIT ( ) );
#226 = DIRECTION ( 'NONE',  ( 3.628583108584750472E-17, 1.000000000000000000, -0.000000000000000000 ) ) ;
#227 = ADVANCED_BREP_SHAPE_REPRESENTATION ( '84633', ( #352, #341, #16 ), #132 ) ;
#228 = ORIENTED_EDGE ( 'NONE', *, *, #29, .F. ) ;
#229 = CARTESIAN_POINT ( 'NONE',  ( -0.07810000000000000275, 0.3125000000000000000, 0.000000000000000000 ) ) ;
#230 = VERTEX_POINT ( 'NONE', #286 ) ;
#231 = CYLINDRICAL_SURFACE ( 'NONE', #328, 0.07810000000000000275 ) ;
#232 = ORIENTED_EDGE ( 'NONE', *, *, #355, .T. ) ;
#233 =( LENGTH_UNIT ( ) NAMED_UNIT ( * ) SI_UNIT ( $, .METRE. ) );
#234 = EDGE_CURVE ( 'NONE', #61, #140, #334, .T. ) ;
#235 = LENGTH_MEASURE_WITH_UNIT ( LENGTH_MEASURE( 0.02539999999999999897 ), #39 );
#236 = APPLICATION_PROTOCOL_DEFINITION ( 'draft international standard', 'automotive_design', 1998, #213 ) ;
#237 =( NAMED_UNIT ( * ) SI_UNIT ( $, .STERADIAN. ) SOLID_ANGLE_UNIT ( ) );
#238 = CIRCLE ( 'NONE', #307, 0.07810000000000000275 ) ;
#239 =( GEOMETRIC_REPRESENTATION_CONTEXT ( 3 ) GLOBAL_UNCERTAINTY_ASSIGNED_CONTEXT ( ( #11 ) ) GLOBAL_UNIT_ASSIGNED_CONTEXT ( ( #274, #129, #242 ) ) REPRESENTATION_CONTEXT ( 'NONE', 'WORKASPACE' ) );
#240 = FILL_AREA_STYLE_COLOUR ( '', #191 ) ;
#241 = ORIENTED_EDGE ( 'NONE', *, *, #267, .F. ) ;
#242 =( NAMED_UNIT ( * ) SI_UNIT ( $, .STERADIAN. ) SOLID_ANGLE_UNIT ( ) );
#243 = DIMENSIONAL_EXPONENTS ( 1.000000000000000000, 0.000000000000000000, 0.000000000000000000, 0.000000000000000000, 0.000000000000000000, 0.000000000000000000, 0.000000000000000000 ) ;
#244 = CARTESIAN_POINT ( 'NONE',  ( 0.09375000000000006939, 0.3554980216144650873, 1.148106374200644633E-17 ) ) ;
#245 = DIRECTION ( 'NONE',  ( 0.000000000000000000, 0.000000000000000000, -1.000000000000000000 ) ) ;
#246 = AXIS2_PLACEMENT_3D ( 'NONE', #289, #175, #100 ) ;
#247 = MECHANICAL_DESIGN_GEOMETRIC_PRESENTATION_REPRESENTATION (  '', ( #84 ), #263 ) ;
#248 =( LENGTH_UNIT ( ) NAMED_UNIT ( * ) SI_UNIT ( $, .METRE. ) );
#249 = DIRECTION ( 'NONE',  ( 3.628583108584750472E-17, 1.000000000000000000, -0.000000000000000000 ) ) ;
#250 = SURFACE_STYLE_FILL_AREA ( #126 ) ;
#251 = DIRECTION ( 'NONE',  ( -3.628583108584750472E-17, -1.000000000000000000, 0.000000000000000000 ) ) ;
#252 = DIRECTION ( 'NONE',  ( -0.000000000000000000, -1.000000000000000000, -0.000000000000000000 ) ) ;
#253 = ADVANCED_FACE ( 'NONE', ( #312 ), #62, .T. ) ;
#254 = CIRCLE ( 'NONE', #143, 0.09375000000000005551 ) ;
#255 = DIRECTION ( 'NONE',  ( 3.628583108584750472E-17, 1.000000000000000000, -0.000000000000000000 ) ) ;
#256 = ORIENTED_EDGE ( 'NONE', *, *, #90, .T. ) ;
#257 = LINE ( 'NONE', #114, #155 ) ;
#258 = ORIENTED_EDGE ( 'NONE', *, *, #138, .T. ) ;
#259 = CARTESIAN_POINT ( 'NONE',  ( 0.07810000000000000275, 0.3125000000000000000, 9.564491501340828324E-18 ) ) ;
#260 = ORIENTED_EDGE ( 'NONE', *, *, #234, .F. ) ;
#261 = PRESENTATION_STYLE_ASSIGNMENT (( #93 ) ) ;
#262 = CIRCLE ( 'NONE', #172, 0.07810000000000000275 ) ;
#263 =( GEOMETRIC_REPRESENTATION_CONTEXT ( 3 ) GLOBAL_UNCERTAINTY_ASSIGNED_CONTEXT ( ( #7 ) ) GLOBAL_UNIT_ASSIGNED_CONTEXT ( ( #348, #103, #19 ) ) REPRESENTATION_CONTEXT ( 'NONE', 'WORKASPACE' ) );
#264 = SURFACE_STYLE_USAGE ( .BOTH. , #148 ) ;
#265 = SHAPE_DEFINITION_REPRESENTATION ( #157, #227 ) ;
#266 = ORIENTED_EDGE ( 'NONE', *, *, #68, .F. ) ;
#267 = EDGE_CURVE ( 'NONE', #310, #61, #166, .T. ) ;
#268 = CYLINDRICAL_SURFACE ( 'NONE', #246, 0.09375000000000004163 ) ;
#269 = PRESENTATION_STYLE_ASSIGNMENT (( #264 ) ) ;
#270 =( GEOMETRIC_REPRESENTATION_CONTEXT ( 3 ) GLOBAL_UNCERTAINTY_ASSIGNED_CONTEXT ( ( #2 ) ) GLOBAL_UNIT_ASSIGNED_CONTEXT ( ( #199, #9, #42 ) ) REPRESENTATION_CONTEXT ( 'NONE', 'WORKASPACE' ) );
#271 = STYLED_ITEM ( 'NONE', ( #356 ), #341 ) ;
#272 = CARTESIAN_POINT ( 'NONE',  ( 9.564491501340828324E-18, 0.000000000000000000, 0.07810000000000000275 ) ) ;
#273 = CARTESIAN_POINT ( 'NONE',  ( -0.09375000000000006939, 0.3554980216144650873, 0.000000000000000000 ) ) ;
#274 =( CONVERSION_BASED_UNIT ( 'INCH', #23 ) LENGTH_UNIT ( ) NAMED_UNIT ( #330 ) );
#275 = CARTESIAN_POINT ( 'NONE',  ( 1.560218949328098644E-18, 0.3554980216144650873, 0.000000000000000000 ) ) ;
#276 =( LENGTH_UNIT ( ) NAMED_UNIT ( * ) SI_UNIT ( $, .METRE. ) );
#277 = COLOUR_RGB ( '',1.000000000000000000, 0.000000000000000000, 0.000000000000000000 ) ;
#278 = PRESENTATION_LAYER_ASSIGNMENT (  '', '', ( #343 ) ) ;
#279 = DIRECTION ( 'NONE',  ( 0.000000000000000000, 0.000000000000000000, -1.000000000000000000 ) ) ;
#280 = CARTESIAN_POINT ( 'NONE',  ( 0.09375000000000006939, 2.000000000000000000, 0.000000000000000000 ) ) ;
#281 = DIRECTION ( 'NONE',  ( -0.000000000000000000, -1.000000000000000000, -0.000000000000000000 ) ) ;
#282 = AXIS2_PLACEMENT_3D ( 'NONE', #280, #251, #79 ) ;
#283 = ORIENTED_EDGE ( 'NONE', *, *, #152, .F. ) ;
#284 = ORIENTED_EDGE ( 'NONE', *, *, #336, .F. ) ;
#285 = EDGE_LOOP ( 'NONE', ( #69, #174, #283, #1 ) ) ;
#286 = CARTESIAN_POINT ( 'NONE',  ( 9.564491501340828324E-18, 0.3125000000000000000, 0.07810000000000000275 ) ) ;
#287 = AXIS2_PLACEMENT_3D ( 'NONE', #187, #281, #319 ) ;
#288 = VERTEX_POINT ( 'NONE', #66 ) ;
#289 = CARTESIAN_POINT ( 'NONE',  ( 6.123233995736766036E-17, 2.000000000000000000, 0.000000000000000000 ) ) ;
#290 = FACE_OUTER_BOUND ( 'NONE', #115, .T. ) ;
#291 = CLOSED_SHELL ( 'NONE', ( #293, #203, #146, #195, #253, #177 ) ) ;
#292 = PRESENTATION_LAYER_ASSIGNMENT (  '', '', ( #84 ) ) ;
#293 = ADVANCED_FACE ( 'NONE', ( #201 ), #268, .T. ) ;
#294 = FILL_AREA_STYLE ('',( #67 ) ) ;
#295 = PLANE ( 'NONE',  #297 ) ;
#296 = CARTESIAN_POINT ( 'NONE',  ( 0.000000000000000000, 0.3125000000000000000, -0.07810000000000000275 ) ) ;
#297 = AXIS2_PLACEMENT_3D ( 'NONE', #188, #163, #305 ) ;
#298 = DIMENSIONAL_EXPONENTS ( 1.000000000000000000, 0.000000000000000000, 0.000000000000000000, 0.000000000000000000, 0.000000000000000000, 0.000000000000000000, 0.000000000000000000 ) ;
#299 = DIRECTION ( 'NONE',  ( -1.000000000000000000, 3.628583108584750472E-17, 0.000000000000000000 ) ) ;
#300 = PRESENTATION_STYLE_ASSIGNMENT (( #331 ) ) ;
#301 = DIRECTION ( 'NONE',  ( -1.000000000000000000, 0.000000000000000000, 0.000000000000000000 ) ) ;
#302 = AXIS2_PLACEMENT_3D ( 'NONE', #357, #52, #105 ) ;
#303 = ADVANCED_FACE ( 'NONE', ( #154 ), #231, .T. ) ;
#304 = CARTESIAN_POINT ( 'NONE',  ( 0.000000000000000000, 0.000000000000000000, -0.07810000000000000275 ) ) ;
#305 = DIRECTION ( 'NONE',  ( 0.000000000000000000, -0.000000000000000000, 1.000000000000000000 ) ) ;
#306 = ORIENTED_EDGE ( 'NONE', *, *, #224, .F. ) ;
#307 = AXIS2_PLACEMENT_3D ( 'NONE', #125, #322, #185 ) ;
#308 = FACE_OUTER_BOUND ( 'NONE', #285, .T. ) ;
#309 = ORIENTED_EDGE ( 'NONE', *, *, #85, .F. ) ;
#310 = VERTEX_POINT ( 'NONE', #212 ) ;
#311 = UNCERTAINTY_MEASURE_WITH_UNIT (LENGTH_MEASURE( 1.000000000000000082E-05 ), #116, 'distance_accuracy_value', 'NONE');
#312 = FACE_OUTER_BOUND ( 'NONE', #5, .T. ) ;
#313 =( NAMED_UNIT ( * ) SI_UNIT ( $, .STERADIAN. ) SOLID_ANGLE_UNIT ( ) );
#314 = STYLED_ITEM ( 'NONE', ( #202 ), #4 ) ;
#315 = DIRECTION ( 'NONE',  ( -1.000000000000000000, 0.000000000000000000, 0.000000000000000000 ) ) ;
#316 = COLOUR_RGB ( '',1.000000000000000000, 0.000000000000000000, 0.000000000000000000 ) ;
#317 = ORIENTED_EDGE ( 'NONE', *, *, #127, .T. ) ;
#318 =( LENGTH_UNIT ( ) NAMED_UNIT ( * ) SI_UNIT ( $, .METRE. ) );
#319 = DIRECTION ( 'NONE',  ( 0.000000000000000000, 0.000000000000000000, -1.000000000000000000 ) ) ;
#320 = VECTOR ( 'NONE', #86, 39.37007874015748854 ) ;
#321 = PRESENTATION_LAYER_ASSIGNMENT (  '', '', ( #119 ) ) ;
#322 = DIRECTION ( 'NONE',  ( 3.628583108584750472E-17, 1.000000000000000000, -0.000000000000000000 ) ) ;
#323 = DIMENSIONAL_EXPONENTS ( 1.000000000000000000, 0.000000000000000000, 0.000000000000000000, 0.000000000000000000, 0.000000000000000000, 0.000000000000000000, 0.000000000000000000 ) ;
#324 = DIRECTION ( 'NONE',  ( -0.000000000000000000, -1.000000000000000000, -0.000000000000000000 ) ) ;
#325 = SURFACE_STYLE_USAGE ( .BOTH. , #216 ) ;
#326 = CARTESIAN_POINT ( 'NONE',  ( 6.123233995736766036E-17, 2.000000000000000000, 0.000000000000000000 ) ) ;
#327 = MECHANICAL_DESIGN_GEOMETRIC_PRESENTATION_REPRESENTATION (  '', ( #314 ), #46 ) ;
#328 = AXIS2_PLACEMENT_3D ( 'NONE', #78, #50, #346 ) ;
#329 = FILL_AREA_STYLE_COLOUR ( '', #150 ) ;
#330 = DIMENSIONAL_EXPONENTS ( 1.000000000000000000, 0.000000000000000000, 0.000000000000000000, 0.000000000000000000, 0.000000000000000000, 0.000000000000000000, 0.000000000000000000 ) ;
#331 = SURFACE_STYLE_USAGE ( .BOTH. , #217 ) ;
#332 = ORIENTED_EDGE ( 'NONE', *, *, #138, .F. ) ;
#333 = DIRECTION ( 'NONE',  ( -1.000000000000000000, 0.000000000000000000, 0.000000000000000000 ) ) ;
#334 = LINE ( 'NONE', #259, #320 ) ;
#335 = EDGE_LOOP ( 'NONE', ( #317, #223, #219, #30 ) ) ;
#336 = EDGE_CURVE ( 'NONE', #230, #145, #124, .T. ) ;
#337 = ORIENTED_EDGE ( 'NONE', *, *, #77, .T. ) ;
#338 = AXIS2_PLACEMENT_3D ( 'NONE', #220, #255, #333 ) ;
#339 = FACE_OUTER_BOUND ( 'NONE', #3, .T. ) ;
#340 = CARTESIAN_POINT ( 'NONE',  ( 0.000000000000000000, 0.3125000000000000000, 0.000000000000000000 ) ) ;
#341 = MANIFOLD_SOLID_BREP ( 'Revolve - Tool Body (Reduced Cut Diameter)', #291 ) ;
#342 = CARTESIAN_POINT ( 'NONE',  ( 1.560218949328098644E-18, 0.3554980216144650873, 0.000000000000000000 ) ) ;
#343 = STYLED_ITEM ( 'NONE', ( #269 ), #51 ) ;
#344 = DIMENSIONAL_EXPONENTS ( 1.000000000000000000, 0.000000000000000000, 0.000000000000000000, 0.000000000000000000, 0.000000000000000000, 0.000000000000000000, 0.000000000000000000 ) ;
#345 = FILL_AREA_STYLE ('',( #178 ) ) ;
#346 = DIRECTION ( 'NONE',  ( 0.000000000000000000, 0.000000000000000000, -1.000000000000000000 ) ) ;
#347 = DIRECTION ( 'NONE',  ( -0.000000000000000000, -1.000000000000000000, -0.000000000000000000 ) ) ;
#348 =( CONVERSION_BASED_UNIT ( 'INCH', #181 ) LENGTH_UNIT ( ) NAMED_UNIT ( #298 ) );
#349 = FACE_OUTER_BOUND ( 'NONE', #117, .T. ) ;
#350 = CIRCLE ( 'NONE', #59, 0.07810000000000000275 ) ;
#351 =( GEOMETRIC_REPRESENTATION_CONTEXT ( 3 ) GLOBAL_UNCERTAINTY_ASSIGNED_CONTEXT ( ( #170 ) ) GLOBAL_UNIT_ASSIGNED_CONTEXT ( ( #353, #141, #225 ) ) REPRESENTATION_CONTEXT ( 'NONE', 'WORKASPACE' ) );
#352 = MANIFOLD_SOLID_BREP ( 'Revolve - Cutting Edge', #35 ) ;
#353 =( CONVERSION_BASED_UNIT ( 'INCH', #184 ) LENGTH_UNIT ( ) NAMED_UNIT ( #243 ) );
#354 = CARTESIAN_POINT ( 'NONE',  ( 0.09375000000000006939, 2.000000000000000000, 1.148106374200644325E-17 ) ) ;
#355 = EDGE_CURVE ( 'NONE', #310, #28, #17, .T. ) ;
#356 = PRESENTATION_STYLE_ASSIGNMENT (( #160 ) ) ;
#357 = CARTESIAN_POINT ( 'NONE',  ( 0.000000000000000000, 0.3125000000000000000, 0.000000000000000000 ) ) ;
#358 = LINE ( 'NONE', #22, #14 ) ;
#359 = CONICAL_SURFACE ( 'NONE', #338, 0.07810000000000000275, 0.3490658503988659511 ) ;
ENDSEC;
END-ISO-10303-21;
