ISO-10303-21;
HEADER;
FILE_DESCRIPTION (( 'STEP AP214' ),
    '1' );
FILE_NAME ('Micro_SBMM-060-248.STEP',
    '2021-09-02T17:12:40',
    ( '' ),
    ( '' ),
    'SwSTEP 2.0',
    'SolidWorks 2020',
    '' );
FILE_SCHEMA (( 'AUTOMOTIVE_DESIGN' ));
ENDSEC;

DATA;
#1 = CARTESIAN_POINT ( 'NONE',  ( 0.0000000000000000000, 0.0000000000000000000, 0.2061439962741667686 ) ) ;
#2 = VECTOR ( 'NONE', #129, 39.37007874015748854 ) ;
#3 = CARTESIAN_POINT ( 'NONE',  ( 0.1299209999999997589, 0.0000000000000000000, 1.874014999999996212 ) ) ;
#4 = ADVANCED_FACE ( 'NONE', ( #203 ), #308, .T. ) ;
#5 = CARTESIAN_POINT ( 'NONE',  ( 0.1031100000000005484, 1.262733314600842673E-17, 3.937007999999999619 ) ) ;
#6 = DIRECTION ( 'NONE',  ( 0.0000000000000000000, 0.0000000000000000000, 1.000000000000000000 ) ) ;
#7 = CIRCLE ( 'NONE', #75, 0.1181099999999999789 ) ;
#8 = DIRECTION ( 'NONE',  ( -0.0000000000000000000, -0.0000000000000000000, -1.000000000000000000 ) ) ;
#9 = EDGE_CURVE ( 'NONE', #173, #87, #301, .T. ) ;
#10 = SURFACE_STYLE_USAGE ( .BOTH. , #328 ) ;
#11 = SURFACE_STYLE_USAGE ( .BOTH. , #147 ) ;
#12 = EDGE_LOOP ( 'NONE', ( #276, #20, #190, #67, #148 ) ) ;
#13 = VECTOR ( 'NONE', #256, 39.37007874015748143 ) ;
#14 =( GEOMETRIC_REPRESENTATION_CONTEXT ( 3 ) GLOBAL_UNCERTAINTY_ASSIGNED_CONTEXT ( ( #195 ) ) GLOBAL_UNIT_ASSIGNED_CONTEXT ( ( #202, #305, #19 ) ) REPRESENTATION_CONTEXT ( 'NONE', 'WORKASPACE' ) );
#15 = ORIENTED_EDGE ( 'NONE', *, *, #9, .F. ) ;
#16 = EDGE_CURVE ( 'NONE', #113, #61, #335, .T. ) ;
#17 = ORIENTED_EDGE ( 'NONE', *, *, #279, .F. ) ;
#18 = EDGE_CURVE ( 'NONE', #172, #87, #122, .T. ) ;
#19 =( NAMED_UNIT ( * ) SI_UNIT ( $, .STERADIAN. ) SOLID_ANGLE_UNIT ( ) );
#20 = ORIENTED_EDGE ( 'NONE', *, *, #137, .T. ) ;
#21 = CIRCLE ( 'NONE', #300, 0.1181099999999999928 ) ;
#22 = CARTESIAN_POINT ( 'NONE',  ( 0.07873999999999985178, 0.0000000000000000000, 1.259842999999999824 ) ) ;
#23 = DIRECTION ( 'NONE',  ( -0.0000000000000000000, -0.0000000000000000000, -1.000000000000000000 ) ) ;
#24 = CARTESIAN_POINT ( 'NONE',  ( 0.1031100000000005484, 1.354581824536890879E-17, 3.937007999999999619 ) ) ;
#25 = AXIS2_PLACEMENT_3D ( 'NONE', #239, #47, #69 ) ;
#26 = DIRECTION ( 'NONE',  ( 0.0000000000000000000, 1.000000000000000000, 0.0000000000000000000 ) ) ;
#27 = FACE_OUTER_BOUND ( 'NONE', #231, .T. ) ;
#28 = ORIENTED_EDGE ( 'NONE', *, *, #186, .T. ) ;
#29 = ADVANCED_FACE ( 'NONE', ( #177 ), #233, .T. ) ;
#30 = APPLICATION_CONTEXT ( 'automotive_design' ) ;
#31 = CARTESIAN_POINT ( 'NONE',  ( 0.0000000000000000000, 0.0000000000000000000, 1.874014999999996212 ) ) ;
#32 = CARTESIAN_POINT ( 'NONE',  ( 0.1181100000000000344, 0.0000000000000000000, 1.732283000000000017 ) ) ;
#33 = DIRECTION ( 'NONE',  ( 1.000000000000000000, 0.0000000000000000000, 0.0000000000000000000 ) ) ;
#34 = CARTESIAN_POINT ( 'NONE',  ( 0.0000000000000000000, 0.0000000000000000000, 3.937007999999999619 ) ) ;
#35 = LINE ( 'NONE', #5, #2 ) ;
#36 = ORIENTED_EDGE ( 'NONE', *, *, #135, .F. ) ;
#37 = EDGE_LOOP ( 'NONE', ( #302, #118, #334, #28 ) ) ;
#38 = FILL_AREA_STYLE_COLOUR ( '', #131 ) ;
#39 = ADVANCED_FACE ( 'NONE', ( #123 ), #45, .T. ) ;
#40 = VERTEX_POINT ( 'NONE', #312 ) ;
#41 = EDGE_LOOP ( 'NONE', ( #194, #189, #133, #166 ) ) ;
#42 = ORIENTED_EDGE ( 'NONE', *, *, #9, .T. ) ;
#43 = STYLED_ITEM ( 'NONE', ( #191 ), #345 ) ;
#44 = CIRCLE ( 'NONE', #260, 0.07873999999999996280 ) ;
#45 = PLANE ( 'NONE',  #265 ) ;
#46 = PRODUCT_CONTEXT ( 'NONE', #30, 'mechanical' ) ;
#47 = DIRECTION ( 'NONE',  ( -0.0000000000000000000, -0.0000000000000000000, -1.000000000000000000 ) ) ;
#48 = MECHANICAL_DESIGN_GEOMETRIC_PRESENTATION_REPRESENTATION (  '', ( #43 ), #316 ) ;
#49 = DIRECTION ( 'NONE',  ( 1.000000000000000000, 0.0000000000000000000, 0.0000000000000000000 ) ) ;
#50 = EDGE_CURVE ( 'NONE', #40, #113, #120, .T. ) ;
#51 = DIRECTION ( 'NONE',  ( 0.0000000000000000000, 0.0000000000000000000, 1.000000000000000000 ) ) ;
#52 = DIRECTION ( 'NONE',  ( 1.000000000000000000, 1.224646799147353207E-16, -0.0000000000000000000 ) ) ;
#53 = EDGE_CURVE ( 'NONE', #88, #278, #171, .T. ) ;
#54 = DIRECTION ( 'NONE',  ( 0.0000000000000000000, 0.0000000000000000000, -1.000000000000000000 ) ) ;
#55 = AXIS2_PLACEMENT_3D ( 'NONE', #174, #73, #344 ) ;
#56 = FACE_OUTER_BOUND ( 'NONE', #228, .T. ) ;
#57 = CARTESIAN_POINT ( 'NONE',  ( -0.07873999999999992117, 0.0000000000000000000, 0.0000000000000000000 ) ) ;
#58 = FACE_OUTER_BOUND ( 'NONE', #41, .T. ) ;
#59 = AXIS2_PLACEMENT_3D ( 'NONE', #342, #153, #127 ) ;
#60 = PRODUCT_DEFINITION_FORMATION_WITH_SPECIFIED_SOURCE ( 'ANY', '', #208, .NOT_KNOWN. ) ;
#61 = VERTEX_POINT ( 'NONE', #152 ) ;
#62 = ORIENTED_EDGE ( 'NONE', *, *, #255, .F. ) ;
#63 = VERTEX_POINT ( 'NONE', #286 ) ;
#64 = DIMENSIONAL_EXPONENTS ( 1.000000000000000000, 0.0000000000000000000, 0.0000000000000000000, 0.0000000000000000000, 0.0000000000000000000, 0.0000000000000000000, 0.0000000000000000000 ) ;
#65 = ORIENTED_EDGE ( 'NONE', *, *, #294, .F. ) ;
#66 = DIRECTION ( 'NONE',  ( 0.0000000000000000000, 0.0000000000000000000, 1.000000000000000000 ) ) ;
#67 = ORIENTED_EDGE ( 'NONE', *, *, #16, .F. ) ;
#68 = PRODUCT_DEFINITION_CONTEXT ( 'detailed design', #110, 'design' ) ;
#69 = DIRECTION ( 'NONE',  ( -1.000000000000000000, 0.0000000000000000000, 0.0000000000000000000 ) ) ;
#70 = CONICAL_SURFACE ( 'NONE', #207, 0.1031100000000005484, 0.7853981633974410625 ) ;
#71 = CARTESIAN_POINT ( 'NONE',  ( -0.07873999999999985178, 1.205358612060781697E-17, 1.259842999999999824 ) ) ;
#72 = EDGE_CURVE ( 'NONE', #87, #336, #288, .T. ) ;
#73 = DIRECTION ( 'NONE',  ( -0.0000000000000000000, -0.0000000000000000000, -1.000000000000000000 ) ) ;
#74 = FACE_OUTER_BOUND ( 'NONE', #37, .T. ) ;
#75 = AXIS2_PLACEMENT_3D ( 'NONE', #80, #181, #136 ) ;
#76 = DIRECTION ( 'NONE',  ( 1.000000000000000000, 0.0000000000000000000, -0.0000000000000000000 ) ) ;
#77 = DIRECTION ( 'NONE',  ( 0.0000000000000000000, 0.0000000000000000000, 1.000000000000000000 ) ) ;
#78 = DIRECTION ( 'NONE',  ( -0.0000000000000000000, -0.0000000000000000000, -1.000000000000000000 ) ) ;
#79 = DIRECTION ( 'NONE',  ( 0.08304547985374033381, 0.0000000000000000000, 0.9965457582448795648 ) ) ;
#80 = CARTESIAN_POINT ( 'NONE',  ( 0.0000000000000000000, 0.0000000000000000000, 0.1181100000000000066 ) ) ;
#81 = ORIENTED_EDGE ( 'NONE', *, *, #186, .F. ) ;
#82 = DIRECTION ( 'NONE',  ( 1.000000000000000000, 0.0000000000000000000, 0.0000000000000000000 ) ) ;
#83 =( LENGTH_UNIT ( ) NAMED_UNIT ( * ) SI_UNIT ( $, .METRE. ) );
#84 = ORIENTED_EDGE ( 'NONE', *, *, #128, .T. ) ;
#85 = CLOSED_SHELL ( 'NONE', ( #320, #227, #29, #222, #258, #92, #214, #169, #4, #39, #159 ) ) ;
#86 = ORIENTED_EDGE ( 'NONE', *, *, #343, .T. ) ;
#87 = VERTEX_POINT ( 'NONE', #337 ) ;
#88 = VERTEX_POINT ( 'NONE', #24 ) ;
#89 =( LENGTH_UNIT ( ) NAMED_UNIT ( * ) SI_UNIT ( $, .METRE. ) );
#90 = EDGE_LOOP ( 'NONE', ( #86, #170, #199, #81 ) ) ;
#91 = AXIS2_PLACEMENT_3D ( 'NONE', #96, #284, #283 ) ;
#92 = ADVANCED_FACE ( 'NONE', ( #74 ), #259, .T. ) ;
#93 = ORIENTED_EDGE ( 'NONE', *, *, #291, .T. ) ;
#94 = DIRECTION ( 'NONE',  ( 1.000000000000000000, 0.0000000000000000000, 0.0000000000000000000 ) ) ;
#95 = CYLINDRICAL_SURFACE ( 'NONE', #125, 0.07873999999999992117 ) ;
#96 = CARTESIAN_POINT ( 'NONE',  ( 0.0000000000000000000, 0.0000000000000000000, 0.0000000000000000000 ) ) ;
#97 = AXIS2_PLACEMENT_3D ( 'NONE', #34, #6, #163 ) ;
#98 = PRESENTATION_LAYER_ASSIGNMENT (  '', '', ( #254 ) ) ;
#99 = DIRECTION ( 'NONE',  ( 0.0000000000000000000, 0.0000000000000000000, 1.000000000000000000 ) ) ;
#100 = DIRECTION ( 'NONE',  ( -1.000000000000000000, 0.0000000000000000000, 0.0000000000000000000 ) ) ;
#101 = CARTESIAN_POINT ( 'NONE',  ( 0.0000000000000000000, 0.0000000000000000000, 3.937007999999999619 ) ) ;
#102 = AXIS2_PLACEMENT_3D ( 'NONE', #184, #78, #216 ) ;
#103 = MECHANICAL_DESIGN_GEOMETRIC_PRESENTATION_REPRESENTATION (  '', ( #254 ), #261 ) ;
#104 = CARTESIAN_POINT ( 'NONE',  ( 0.1181100000000000344, 1.446430334472939084E-17, 3.922007999999999939 ) ) ;
#105 = CARTESIAN_POINT ( 'NONE',  ( 0.0000000000000000000, 0.0000000000000000000, 0.0000000000000000000 ) ) ;
#106 = CARTESIAN_POINT ( 'NONE',  ( 0.0000000000000000000, 0.0000000000000000000, 3.922007999999999939 ) ) ;
#107 = FACE_OUTER_BOUND ( 'NONE', #248, .T. ) ;
#108 = AXIS2_PLACEMENT_3D ( 'NONE', #178, #314, #309 ) ;
#109 = CARTESIAN_POINT ( 'NONE',  ( 0.0000000000000000000, 0.0000000000000000000, 0.2061439962741667686 ) ) ;
#110 = APPLICATION_CONTEXT ( 'automotive_design' ) ;
#111 = DIRECTION ( 'NONE',  ( -0.0000000000000000000, -0.0000000000000000000, -1.000000000000000000 ) ) ;
#112 = EDGE_CURVE ( 'NONE', #144, #172, #282, .T. ) ;
#113 = VERTEX_POINT ( 'NONE', #179 ) ;
#114 = AXIS2_PLACEMENT_3D ( 'NONE', #318, #82, #322 ) ;
#115 = LENGTH_MEASURE_WITH_UNIT ( LENGTH_MEASURE( 0.02539999999999999897 ), #89 );
#116 = VERTEX_POINT ( 'NONE', #287 ) ;
#117 = LENGTH_MEASURE_WITH_UNIT ( LENGTH_MEASURE( 0.02539999999999999897 ), #83 );
#118 = ORIENTED_EDGE ( 'NONE', *, *, #50, .T. ) ;
#119 = EDGE_LOOP ( 'NONE', ( #36, #330, #42, #331 ) ) ;
#120 = CIRCLE ( 'NONE', #59, 0.07873999999999996280 ) ;
#121 = AXIS2_PLACEMENT_3D ( 'NONE', #1, #8, #213 ) ;
#122 = LINE ( 'NONE', #211, #225 ) ;
#123 = FACE_OUTER_BOUND ( 'NONE', #325, .T. ) ;
#124 = CARTESIAN_POINT ( 'NONE',  ( -0.1181100000000000344, 0.0000000000000000000, 3.937007999999999619 ) ) ;
#125 = AXIS2_PLACEMENT_3D ( 'NONE', #205, #206, #311 ) ;
#126 = DIRECTION ( 'NONE',  ( 0.0000000000000000000, 0.0000000000000000000, -1.000000000000000000 ) ) ;
#127 = DIRECTION ( 'NONE',  ( -1.000000000000000000, 0.0000000000000000000, 0.0000000000000000000 ) ) ;
#128 = EDGE_CURVE ( 'NONE', #336, #87, #244, .T. ) ;
#129 = DIRECTION ( 'NONE',  ( 0.7071067811865422437, 8.659560562354868763E-17, -0.7071067811865526798 ) ) ;
#130 = VECTOR ( 'NONE', #160, 39.37007874015748143 ) ;
#131 = COLOUR_RGB ( '',0.7921568627450980005, 0.8196078431372548767, 0.9333333333333333481 ) ;
#132 = DIRECTION ( 'NONE',  ( -1.000000000000000000, 0.0000000000000000000, 0.0000000000000000000 ) ) ;
#133 = ORIENTED_EDGE ( 'NONE', *, *, #128, .F. ) ;
#134 = DIRECTION ( 'NONE',  ( -1.000000000000000000, 0.0000000000000000000, 0.0000000000000000000 ) ) ;
#135 = EDGE_CURVE ( 'NONE', #251, #336, #156, .T. ) ;
#136 = DIRECTION ( 'NONE',  ( 0.0000000000000000000, 0.0000000000000000000, 1.000000000000000000 ) ) ;
#137 = EDGE_CURVE ( 'NONE', #144, #116, #339, .T. ) ;
#138 = CARTESIAN_POINT ( 'NONE',  ( 0.0000000000000000000, 0.0000000000000000000, 0.1181100000000000066 ) ) ;
#139 = AXIS2_PLACEMENT_3D ( 'NONE', #157, #257, #262 ) ;
#140 = ADVANCED_BREP_SHAPE_REPRESENTATION ( 'Micro_SBMM-060-248', ( #345, #326 ), #14 ) ;
#141 = UNCERTAINTY_MEASURE_WITH_UNIT (LENGTH_MEASURE( 1.000000000000000082E-05 ), #142, 'distance_accuracy_value', 'NONE');
#142 =( CONVERSION_BASED_UNIT ( 'INCH', #117 ) LENGTH_UNIT ( ) NAMED_UNIT ( #201 ) );
#143 = APPLICATION_PROTOCOL_DEFINITION ( 'draft international standard', 'automotive_design', 1998, #30 ) ;
#144 = VERTEX_POINT ( 'NONE', #22 ) ;
#145 = ORIENTED_EDGE ( 'NONE', *, *, #50, .F. ) ;
#146 = VECTOR ( 'NONE', #23, 39.37007874015748143 ) ;
#147 = SURFACE_SIDE_STYLE ('',( #271 ) ) ;
#148 = ORIENTED_EDGE ( 'NONE', *, *, #291, .F. ) ;
#149 = ORIENTED_EDGE ( 'NONE', *, *, #285, .T. ) ;
#150 = ORIENTED_EDGE ( 'NONE', *, *, #255, .T. ) ;
#151 = CONICAL_SURFACE ( 'NONE', #230, 0.1031100000000005484, 0.7853981633974410625 ) ;
#152 = CARTESIAN_POINT ( 'NONE',  ( 0.0000000000000000000, 0.07873999999999996280, 0.2061439962741667686 ) ) ;
#153 = DIRECTION ( 'NONE',  ( -0.0000000000000000000, -0.0000000000000000000, -1.000000000000000000 ) ) ;
#154 = CARTESIAN_POINT ( 'NONE',  ( 0.07873999999999992117, 9.642868896486249264E-18, 0.0000000000000000000 ) ) ;
#155 = CIRCLE ( 'NONE', #197, 0.1181100000000000344 ) ;
#156 = LINE ( 'NONE', #289, #13 ) ;
#157 = CARTESIAN_POINT ( 'NONE',  ( 0.0000000000000000000, 0.0000000000000000000, 1.732283000000000017 ) ) ;
#158 = FACE_OUTER_BOUND ( 'NONE', #90, .T. ) ;
#159 = ADVANCED_FACE ( 'NONE', ( #27 ), #151, .T. ) ;
#160 = DIRECTION ( 'NONE',  ( -0.0000000000000000000, -0.0000000000000000000, -1.000000000000000000 ) ) ;
#161 = SPHERICAL_SURFACE ( 'NONE', #114, 0.1181099999999999928 ) ;
#162 = ORIENTED_EDGE ( 'NONE', *, *, #18, .F. ) ;
#163 = DIRECTION ( 'NONE',  ( 1.000000000000000000, 0.0000000000000000000, 0.0000000000000000000 ) ) ;
#164 = AXIS2_PLACEMENT_3D ( 'NONE', #31, #319, #243 ) ;
#165 = LENGTH_MEASURE_WITH_UNIT ( LENGTH_MEASURE( 0.02539999999999999897 ), #167 );
#166 = ORIENTED_EDGE ( 'NONE', *, *, #297, .F. ) ;
#167 =( LENGTH_UNIT ( ) NAMED_UNIT ( * ) SI_UNIT ( $, .METRE. ) );
#168 = ORIENTED_EDGE ( 'NONE', *, *, #307, .F. ) ;
#169 = ADVANCED_FACE ( 'NONE', ( #210 ), #95, .T. ) ;
#170 = ORIENTED_EDGE ( 'NONE', *, *, #294, .T. ) ;
#171 = CIRCLE ( 'NONE', #212, 0.1031100000000005484 ) ;
#172 = VERTEX_POINT ( 'NONE', #71 ) ;
#173 = VERTEX_POINT ( 'NONE', #313 ) ;
#174 = CARTESIAN_POINT ( 'NONE',  ( 0.0000000000000000000, 0.0000000000000000000, 1.259842999999999824 ) ) ;
#175 = PRESENTATION_LAYER_ASSIGNMENT (  '', '', ( #43 ) ) ;
#176 = CIRCLE ( 'NONE', #97, 0.1031100000000005484 ) ;
#177 = FACE_OUTER_BOUND ( 'NONE', #12, .T. ) ;
#178 = CARTESIAN_POINT ( 'NONE',  ( 0.0000000000000000000, 0.0000000000000000000, 1.732283000000000017 ) ) ;
#179 = CARTESIAN_POINT ( 'NONE',  ( -0.07873999999999996280, 0.0000000000000000000, 0.2061439962741667686 ) ) ;
#180 = CARTESIAN_POINT ( 'NONE',  ( 0.0000000000000000000, 0.0000000000000000000, 3.937007999999999619 ) ) ;
#181 = DIRECTION ( 'NONE',  ( -1.000000000000000000, 0.0000000000000000000, 0.0000000000000000000 ) ) ;
#182 = DIRECTION ( 'NONE',  ( -1.224646799147353207E-16, 1.000000000000000000, 0.0000000000000000000 ) ) ;
#183 = DIRECTION ( 'NONE',  ( 0.0000000000000000000, 0.0000000000000000000, -1.000000000000000000 ) ) ;
#184 = CARTESIAN_POINT ( 'NONE',  ( 0.0000000000000000000, 0.0000000000000000000, 3.937007999999999619 ) ) ;
#185 = DIRECTION ( 'NONE',  ( -1.000000000000000000, 0.0000000000000000000, 0.0000000000000000000 ) ) ;
#186 = EDGE_CURVE ( 'NONE', #61, #63, #7, .T. ) ;
#187 =( NAMED_UNIT ( * ) SI_UNIT ( $, .STERADIAN. ) SOLID_ANGLE_UNIT ( ) );
#188 = CIRCLE ( 'NONE', #310, 0.1181100000000000344 ) ;
#189 = ORIENTED_EDGE ( 'NONE', *, *, #18, .T. ) ;
#190 = ORIENTED_EDGE ( 'NONE', *, *, #343, .F. ) ;
#191 = PRESENTATION_STYLE_ASSIGNMENT (( #10 ) ) ;
#192 = ORIENTED_EDGE ( 'NONE', *, *, #297, .T. ) ;
#193 =( CONVERSION_BASED_UNIT ( 'INCH', #115 ) LENGTH_UNIT ( ) NAMED_UNIT ( #64 ) );
#194 = ORIENTED_EDGE ( 'NONE', *, *, #220, .F. ) ;
#195 = UNCERTAINTY_MEASURE_WITH_UNIT (LENGTH_MEASURE( 1.000000000000000082E-05 ), #202, 'distance_accuracy_value', 'NONE');
#196 =( NAMED_UNIT ( * ) PLANE_ANGLE_UNIT ( ) SI_UNIT ( $, .RADIAN. ) );
#197 = AXIS2_PLACEMENT_3D ( 'NONE', #298, #183, #267 ) ;
#198 = ORIENTED_EDGE ( 'NONE', *, *, #112, .F. ) ;
#199 = ORIENTED_EDGE ( 'NONE', *, *, #232, .T. ) ;
#200 = PRODUCT_DEFINITION_SHAPE ( 'NONE', 'NONE',  #238 ) ;
#201 = DIMENSIONAL_EXPONENTS ( 1.000000000000000000, 0.0000000000000000000, 0.0000000000000000000, 0.0000000000000000000, 0.0000000000000000000, 0.0000000000000000000, 0.0000000000000000000 ) ;
#202 =( CONVERSION_BASED_UNIT ( 'INCH', #165 ) LENGTH_UNIT ( ) NAMED_UNIT ( #223 ) );
#203 = FACE_OUTER_BOUND ( 'NONE', #119, .T. ) ;
#204 = SHAPE_DEFINITION_REPRESENTATION ( #200, #140 ) ;
#205 = CARTESIAN_POINT ( 'NONE',  ( 0.0000000000000000000, 0.0000000000000000000, 0.0000000000000000000 ) ) ;
#206 = DIRECTION ( 'NONE',  ( -0.0000000000000000000, -0.0000000000000000000, -1.000000000000000000 ) ) ;
#207 = AXIS2_PLACEMENT_3D ( 'NONE', #245, #263, #132 ) ;
#208 = PRODUCT ( 'Micro_SBMM-060-248', 'Micro_SBMM-060-248', '', ( #46 ) ) ;
#209 = CARTESIAN_POINT ( 'NONE',  ( 0.0000000000000000000, 0.0000000000000000000, 0.1181100000000000066 ) ) ;
#210 = FACE_OUTER_BOUND ( 'NONE', #247, .T. ) ;
#211 = CARTESIAN_POINT ( 'NONE',  ( -0.1299209999999997589, 1.591073367920229727E-17, 1.874014999999996212 ) ) ;
#212 = AXIS2_PLACEMENT_3D ( 'NONE', #180, #99, #237 ) ;
#213 = DIRECTION ( 'NONE',  ( -1.000000000000000000, 0.0000000000000000000, 0.0000000000000000000 ) ) ;
#214 = ADVANCED_FACE ( 'NONE', ( #107 ), #270, .T. ) ;
#215 = FACE_OUTER_BOUND ( 'NONE', #272, .T. ) ;
#216 = DIRECTION ( 'NONE',  ( -1.000000000000000000, 0.0000000000000000000, 0.0000000000000000000 ) ) ;
#217 = AXIS2_PLACEMENT_3D ( 'NONE', #253, #111, #224 ) ;
#218 = AXIS2_PLACEMENT_3D ( 'NONE', #209, #49, #26 ) ;
#219 = CYLINDRICAL_SURFACE ( 'NONE', #102, 0.1181100000000000344 ) ;
#220 = EDGE_CURVE ( 'NONE', #172, #144, #340, .T. ) ;
#221 = DIRECTION ( 'NONE',  ( -0.0000000000000000000, -0.0000000000000000000, -1.000000000000000000 ) ) ;
#222 = ADVANCED_FACE ( 'NONE', ( #58 ), #241, .T. ) ;
#223 = DIMENSIONAL_EXPONENTS ( 1.000000000000000000, 0.0000000000000000000, 0.0000000000000000000, 0.0000000000000000000, 0.0000000000000000000, 0.0000000000000000000, 0.0000000000000000000 ) ;
#224 = DIRECTION ( 'NONE',  ( -1.000000000000000000, 0.0000000000000000000, 0.0000000000000000000 ) ) ;
#225 = VECTOR ( 'NONE', #341, 39.37007874015748854 ) ;
#226 = ORIENTED_EDGE ( 'NONE', *, *, #324, .F. ) ;
#227 = ADVANCED_FACE ( 'NONE', ( #215 ), #219, .T. ) ;
#228 = EDGE_LOOP ( 'NONE', ( #280, #275, #306, #62 ) ) ;
#229 = ORIENTED_EDGE ( 'NONE', *, *, #324, .T. ) ;
#230 = AXIS2_PLACEMENT_3D ( 'NONE', #101, #126, #100 ) ;
#231 = EDGE_LOOP ( 'NONE', ( #17, #226, #150, #168 ) ) ;
#232 = EDGE_CURVE ( 'NONE', #40, #63, #21, .T. ) ;
#233 = CYLINDRICAL_SURFACE ( 'NONE', #91, 0.07873999999999992117 ) ;
#234 = DIRECTION ( 'NONE',  ( -0.0000000000000000000, -0.0000000000000000000, -1.000000000000000000 ) ) ;
#235 = CARTESIAN_POINT ( 'NONE',  ( 0.0000000000000000000, 0.0000000000000000000, 3.937007999999999619 ) ) ;
#236 = VECTOR ( 'NONE', #234, 39.37007874015748143 ) ;
#237 = DIRECTION ( 'NONE',  ( 1.000000000000000000, 0.0000000000000000000, 0.0000000000000000000 ) ) ;
#238 = PRODUCT_DEFINITION ( 'UNKNOWN', '', #60, #68 ) ;
#239 = CARTESIAN_POINT ( 'NONE',  ( 0.0000000000000000000, 0.0000000000000000000, 0.2061439962741667686 ) ) ;
#240 = CARTESIAN_POINT ( 'NONE',  ( 0.0000000000000000000, 0.0000000000000000000, 1.259842999999999824 ) ) ;
#241 = CONICAL_SURFACE ( 'NONE', #164, 0.1299209999999997589, 0.08314123188844159407 ) ;
#242 = FILL_AREA_STYLE_COLOUR ( '', #266 ) ;
#243 = DIRECTION ( 'NONE',  ( 1.000000000000000000, 0.0000000000000000000, 0.0000000000000000000 ) ) ;
#244 = CIRCLE ( 'NONE', #108, 0.1181100000000000344 ) ;
#245 = CARTESIAN_POINT ( 'NONE',  ( 0.0000000000000000000, 0.0000000000000000000, 3.937007999999999619 ) ) ;
#246 =( NAMED_UNIT ( * ) SI_UNIT ( $, .STERADIAN. ) SOLID_ANGLE_UNIT ( ) );
#247 = EDGE_LOOP ( 'NONE', ( #299, #274, #93, #145, #65 ) ) ;
#248 = EDGE_LOOP ( 'NONE', ( #162, #198, #192, #303 ) ) ;
#249 = PRESENTATION_STYLE_ASSIGNMENT (( #11 ) ) ;
#250 = ORIENTED_EDGE ( 'NONE', *, *, #53, .T. ) ;
#251 = VERTEX_POINT ( 'NONE', #104 ) ;
#252 = AXIS2_PLACEMENT_3D ( 'NONE', #290, #77, #33 ) ;
#253 = CARTESIAN_POINT ( 'NONE',  ( 0.0000000000000000000, 0.0000000000000000000, 3.937007999999999619 ) ) ;
#254 = STYLED_ITEM ( 'NONE', ( #249 ), #140 ) ;
#255 = EDGE_CURVE ( 'NONE', #278, #173, #269, .T. ) ;
#256 = DIRECTION ( 'NONE',  ( -0.0000000000000000000, -0.0000000000000000000, -1.000000000000000000 ) ) ;
#257 = DIRECTION ( 'NONE',  ( 0.0000000000000000000, 0.0000000000000000000, 1.000000000000000000 ) ) ;
#258 = ADVANCED_FACE ( 'NONE', ( #158 ), #161, .T. ) ;
#259 = SPHERICAL_SURFACE ( 'NONE', #218, 0.1181099999999999928 ) ;
#260 = AXIS2_PLACEMENT_3D ( 'NONE', #109, #268, #185 ) ;
#261 =( GEOMETRIC_REPRESENTATION_CONTEXT ( 3 ) GLOBAL_UNCERTAINTY_ASSIGNED_CONTEXT ( ( #141 ) ) GLOBAL_UNIT_ASSIGNED_CONTEXT ( ( #142, #273, #187 ) ) REPRESENTATION_CONTEXT ( 'NONE', 'WORKASPACE' ) );
#262 = DIRECTION ( 'NONE',  ( 1.000000000000000000, 0.0000000000000000000, 0.0000000000000000000 ) ) ;
#263 = DIRECTION ( 'NONE',  ( 0.0000000000000000000, 0.0000000000000000000, -1.000000000000000000 ) ) ;
#264 = LINE ( 'NONE', #3, #327 ) ;
#265 = AXIS2_PLACEMENT_3D ( 'NONE', #235, #51, #76 ) ;
#266 = COLOUR_RGB ( '',0.7921568627450980005, 0.8196078431372548767, 0.9333333333333333481 ) ;
#267 = DIRECTION ( 'NONE',  ( 1.000000000000000000, 0.0000000000000000000, 0.0000000000000000000 ) ) ;
#268 = DIRECTION ( 'NONE',  ( -0.0000000000000000000, -0.0000000000000000000, -1.000000000000000000 ) ) ;
#269 = LINE ( 'NONE', #296, #304 ) ;
#270 = CONICAL_SURFACE ( 'NONE', #252, 0.1299209999999997589, 0.08314123188844159407 ) ;
#271 = SURFACE_STYLE_FILL_AREA ( #323 ) ;
#272 = EDGE_LOOP ( 'NONE', ( #149, #329, #84, #15 ) ) ;
#273 =( NAMED_UNIT ( * ) PLANE_ANGLE_UNIT ( ) SI_UNIT ( $, .RADIAN. ) );
#274 = ORIENTED_EDGE ( 'NONE', *, *, #112, .T. ) ;
#275 = ORIENTED_EDGE ( 'NONE', *, *, #279, .T. ) ;
#276 = ORIENTED_EDGE ( 'NONE', *, *, #220, .T. ) ;
#277 = SURFACE_STYLE_FILL_AREA ( #333 ) ;
#278 = VERTEX_POINT ( 'NONE', #295 ) ;
#279 = EDGE_CURVE ( 'NONE', #88, #251, #35, .T. ) ;
#280 = ORIENTED_EDGE ( 'NONE', *, *, #53, .F. ) ;
#281 = PRODUCT_RELATED_PRODUCT_CATEGORY ( 'part', '', ( #208 ) ) ;
#282 = CIRCLE ( 'NONE', #55, 0.07873999999999985178 ) ;
#283 = DIRECTION ( 'NONE',  ( -1.000000000000000000, 0.0000000000000000000, 0.0000000000000000000 ) ) ;
#284 = DIRECTION ( 'NONE',  ( -0.0000000000000000000, -0.0000000000000000000, -1.000000000000000000 ) ) ;
#285 = EDGE_CURVE ( 'NONE', #173, #251, #188, .T. ) ;
#286 = CARTESIAN_POINT ( 'NONE',  ( 0.0000000000000000000, 7.232151672364693882E-18, 1.707404996040164512E-17 ) ) ;
#287 = CARTESIAN_POINT ( 'NONE',  ( 0.07873999999999996280, 9.642868896486255427E-18, 0.2061439962741667686 ) ) ;
#288 = CIRCLE ( 'NONE', #139, 0.1181100000000000344 ) ;
#289 = CARTESIAN_POINT ( 'NONE',  ( 0.1181100000000000344, 1.446430334472939084E-17, 3.937007999999999619 ) ) ;
#290 = CARTESIAN_POINT ( 'NONE',  ( 0.0000000000000000000, 0.0000000000000000000, 1.874014999999996212 ) ) ;
#291 = EDGE_CURVE ( 'NONE', #172, #113, #317, .T. ) ;
#292 = DIRECTION ( 'NONE',  ( 1.000000000000000000, 0.0000000000000000000, 0.0000000000000000000 ) ) ;
#293 = CIRCLE ( 'NONE', #121, 0.07873999999999996280 ) ;
#294 = EDGE_CURVE ( 'NONE', #116, #40, #44, .T. ) ;
#295 = CARTESIAN_POINT ( 'NONE',  ( -0.1031100000000005484, 0.0000000000000000000, 3.937007999999999619 ) ) ;
#296 = CARTESIAN_POINT ( 'NONE',  ( -0.1031100000000005484, 0.0000000000000000000, 3.937007999999999619 ) ) ;
#297 = EDGE_CURVE ( 'NONE', #144, #336, #264, .T. ) ;
#298 = CARTESIAN_POINT ( 'NONE',  ( 0.0000000000000000000, 0.0000000000000000000, 3.922007999999999939 ) ) ;
#299 = ORIENTED_EDGE ( 'NONE', *, *, #137, .F. ) ;
#300 = AXIS2_PLACEMENT_3D ( 'NONE', #138, #52, #182 ) ;
#301 = LINE ( 'NONE', #124, #236 ) ;
#302 = ORIENTED_EDGE ( 'NONE', *, *, #232, .F. ) ;
#303 = ORIENTED_EDGE ( 'NONE', *, *, #72, .F. ) ;
#304 = VECTOR ( 'NONE', #321, 39.37007874015748854 ) ;
#305 =( NAMED_UNIT ( * ) PLANE_ANGLE_UNIT ( ) SI_UNIT ( $, .RADIAN. ) );
#306 = ORIENTED_EDGE ( 'NONE', *, *, #285, .F. ) ;
#307 = EDGE_CURVE ( 'NONE', #251, #173, #155, .T. ) ;
#308 = CYLINDRICAL_SURFACE ( 'NONE', #217, 0.1181100000000000344 ) ;
#309 = DIRECTION ( 'NONE',  ( 1.000000000000000000, 0.0000000000000000000, 0.0000000000000000000 ) ) ;
#310 = AXIS2_PLACEMENT_3D ( 'NONE', #106, #54, #292 ) ;
#311 = DIRECTION ( 'NONE',  ( -1.000000000000000000, 0.0000000000000000000, 0.0000000000000000000 ) ) ;
#312 = CARTESIAN_POINT ( 'NONE',  ( 9.642868896486255427E-18, -0.07873999999999996280, 0.2061439962741667686 ) ) ;
#313 = CARTESIAN_POINT ( 'NONE',  ( -0.1181100000000000344, 0.0000000000000000000, 3.922007999999999939 ) ) ;
#314 = DIRECTION ( 'NONE',  ( 0.0000000000000000000, 0.0000000000000000000, 1.000000000000000000 ) ) ;
#315 = AXIS2_PLACEMENT_3D ( 'NONE', #240, #221, #134 ) ;
#316 =( GEOMETRIC_REPRESENTATION_CONTEXT ( 3 ) GLOBAL_UNCERTAINTY_ASSIGNED_CONTEXT ( ( #332 ) ) GLOBAL_UNIT_ASSIGNED_CONTEXT ( ( #193, #196, #246 ) ) REPRESENTATION_CONTEXT ( 'NONE', 'WORKASPACE' ) );
#317 = LINE ( 'NONE', #57, #130 ) ;
#318 = CARTESIAN_POINT ( 'NONE',  ( 0.0000000000000000000, 0.0000000000000000000, 0.1181100000000000066 ) ) ;
#319 = DIRECTION ( 'NONE',  ( 0.0000000000000000000, 0.0000000000000000000, 1.000000000000000000 ) ) ;
#320 = ADVANCED_FACE ( 'NONE', ( #56 ), #70, .T. ) ;
#321 = DIRECTION ( 'NONE',  ( -0.7071067811865422437, 0.0000000000000000000, -0.7071067811865526798 ) ) ;
#322 = DIRECTION ( 'NONE',  ( 0.0000000000000000000, 1.000000000000000000, 0.0000000000000000000 ) ) ;
#323 = FILL_AREA_STYLE ('',( #38 ) ) ;
#324 = EDGE_CURVE ( 'NONE', #278, #88, #176, .T. ) ;
#325 = EDGE_LOOP ( 'NONE', ( #229, #250 ) ) ;
#326 = AXIS2_PLACEMENT_3D ( 'NONE', #105, #66, #94 ) ;
#327 = VECTOR ( 'NONE', #79, 39.37007874015748854 ) ;
#328 = SURFACE_SIDE_STYLE ('',( #277 ) ) ;
#329 = ORIENTED_EDGE ( 'NONE', *, *, #135, .T. ) ;
#330 = ORIENTED_EDGE ( 'NONE', *, *, #307, .T. ) ;
#331 = ORIENTED_EDGE ( 'NONE', *, *, #72, .T. ) ;
#332 = UNCERTAINTY_MEASURE_WITH_UNIT (LENGTH_MEASURE( 1.000000000000000082E-05 ), #193, 'distance_accuracy_value', 'NONE');
#333 = FILL_AREA_STYLE ('',( #242 ) ) ;
#334 = ORIENTED_EDGE ( 'NONE', *, *, #16, .T. ) ;
#335 = CIRCLE ( 'NONE', #25, 0.07873999999999996280 ) ;
#336 = VERTEX_POINT ( 'NONE', #32 ) ;
#337 = CARTESIAN_POINT ( 'NONE',  ( -0.1181100000000000344, 1.446430334472939084E-17, 1.732283000000000017 ) ) ;
#338 = APPLICATION_PROTOCOL_DEFINITION ( 'draft international standard', 'automotive_design', 1998, #110 ) ;
#339 = LINE ( 'NONE', #154, #146 ) ;
#340 = CIRCLE ( 'NONE', #315, 0.07873999999999985178 ) ;
#341 = DIRECTION ( 'NONE',  ( -0.08304547985374033381, 1.017013810865391032E-17, 0.9965457582448795648 ) ) ;
#342 = CARTESIAN_POINT ( 'NONE',  ( 0.0000000000000000000, 0.0000000000000000000, 0.2061439962741667686 ) ) ;
#343 = EDGE_CURVE ( 'NONE', #61, #116, #293, .T. ) ;
#344 = DIRECTION ( 'NONE',  ( -1.000000000000000000, 0.0000000000000000000, 0.0000000000000000000 ) ) ;
#345 = MANIFOLD_SOLID_BREP ( 'Cut-Revolve3', #85 ) ;
ENDSEC;
END-ISO-10303-21;
