ISO-10303-21;
HEADER;
FILE_DESCRIPTION (( 'STEP AP214' ),
    '1' );
FILE_NAME ('82950.STEP',
    '2023-06-23T07:29:27',
    ( '' ),
    ( '' ),
    'SwSTEP 2.0',
    'SolidWorks 2023',
    '' );
FILE_SCHEMA (( 'AUTOMOTIVE_DESIGN' ));
ENDSEC;

DATA;
#1 = CARTESIAN_POINT ( 'NONE',  ( 1.452617642477886412E-18, 0.2304980216144651706, 0.000000000000000000 ) ) ;
#2 = PLANE ( 'NONE',  #286 ) ;
#3 = DIRECTION ( 'NONE',  ( -0.000000000000000000, -1.000000000000000000, -0.000000000000000000 ) ) ;
#4 = CARTESIAN_POINT ( 'NONE',  ( 0.000000000000000000, 0.1875000000000001110, 0.000000000000000000 ) ) ;
#5 = AXIS2_PLACEMENT_3D ( 'NONE', #312, #178, #123 ) ;
#6 = CIRCLE ( 'NONE', #195, 0.07810000000000000275 ) ;
#7 = EDGE_LOOP ( 'NONE', ( #212, #120, #330, #227 ) ) ;
#8 =( CONVERSION_BASED_UNIT ( 'INCH', #253 ) LENGTH_UNIT ( ) NAMED_UNIT ( #45 ) );
#9 = SURFACE_STYLE_FILL_AREA ( #201 ) ;
#10 = AXIS2_PLACEMENT_3D ( 'NONE', #1, #53, #217 ) ;
#11 = EDGE_CURVE ( 'NONE', #166, #168, #341, .T. ) ;
#12 = FILL_AREA_STYLE ('',( #65 ) ) ;
#13 = LINE ( 'NONE', #129, #295 ) ;
#14 = DIMENSIONAL_EXPONENTS ( 1.000000000000000000, 0.000000000000000000, 0.000000000000000000, 0.000000000000000000, 0.000000000000000000, 0.000000000000000000, 0.000000000000000000 ) ;
#15 = EDGE_CURVE ( 'NONE', #171, #166, #86, .T. ) ;
#16 = CIRCLE ( 'NONE', #33, 0.07810000000000000275 ) ;
#17 = PLANE ( 'NONE',  #184 ) ;
#18 = VERTEX_POINT ( 'NONE', #346 ) ;
#19 = SURFACE_STYLE_FILL_AREA ( #101 ) ;
#20 = ORIENTED_EDGE ( 'NONE', *, *, #237, .F. ) ;
#21 = CARTESIAN_POINT ( 'NONE',  ( -0.09375000000000005551, 0.2304980216144651706, 0.000000000000000000 ) ) ;
#22 = SURFACE_STYLE_USAGE ( .BOTH. , #267 ) ;
#23 = AXIS2_PLACEMENT_3D ( 'NONE', #302, #51, #28 ) ;
#24 = ORIENTED_EDGE ( 'NONE', *, *, #257, .F. ) ;
#25 = DIRECTION ( 'NONE',  ( -0.000000000000000000, -1.000000000000000000, -0.000000000000000000 ) ) ;
#26 = CARTESIAN_POINT ( 'NONE',  ( 0.07810000000000000275, 0.1875000000000001110, 1.052277762167363656E-17 ) ) ;
#27 = DIRECTION ( 'NONE',  ( 0.000000000000000000, 0.000000000000000000, -1.000000000000000000 ) ) ;
#28 = DIRECTION ( 'NONE',  ( 1.000000000000000000, 0.000000000000000000, 0.000000000000000000 ) ) ;
#29 = ADVANCED_FACE ( 'NONE', ( #320 ), #329, .T. ) ;
#30 = CARTESIAN_POINT ( 'NONE',  ( 0.000000000000000000, 0.1874999999999999722, -0.07810000000000000275 ) ) ;
#31 = LENGTH_MEASURE_WITH_UNIT ( LENGTH_MEASURE( 0.02539999999999999897 ), #340 );
#32 = COLOUR_RGB ( '',1.000000000000000000, 0.000000000000000000, 0.000000000000000000 ) ;
#33 = AXIS2_PLACEMENT_3D ( 'NONE', #87, #141, #223 ) ;
#34 = DIRECTION ( 'NONE',  ( 3.378335997647870959E-17, 1.000000000000000000, -0.000000000000000000 ) ) ;
#35 = CARTESIAN_POINT ( 'NONE',  ( 6.123233995736766036E-17, 2.000000000000000000, 0.000000000000000000 ) ) ;
#36 = ORIENTED_EDGE ( 'NONE', *, *, #66, .T. ) ;
#37 =( NAMED_UNIT ( * ) PLANE_ANGLE_UNIT ( ) SI_UNIT ( $, .RADIAN. ) );
#38 = ORIENTED_EDGE ( 'NONE', *, *, #222, .F. ) ;
#39 = STYLED_ITEM ( 'NONE', ( #268 ), #29 ) ;
#40 = PRESENTATION_LAYER_ASSIGNMENT (  '', '', ( #317 ) ) ;
#41 = COLOUR_RGB ( '',1.000000000000000000, 0.000000000000000000, 0.000000000000000000 ) ;
#42 = SURFACE_STYLE_USAGE ( .BOTH. , #233 ) ;
#43 = AXIS2_PLACEMENT_3D ( 'NONE', #35, #249, #358 ) ;
#44 = MECHANICAL_DESIGN_GEOMETRIC_PRESENTATION_REPRESENTATION (  '', ( #210 ), #127 ) ;
#45 = DIMENSIONAL_EXPONENTS ( 1.000000000000000000, 0.000000000000000000, 0.000000000000000000, 0.000000000000000000, 0.000000000000000000, 0.000000000000000000, 0.000000000000000000 ) ;
#46 = ORIENTED_EDGE ( 'NONE', *, *, #322, .F. ) ;
#47 = ADVANCED_FACE ( 'NONE', ( #134 ), #17, .F. ) ;
#48 = ORIENTED_EDGE ( 'NONE', *, *, #159, .T. ) ;
#49 = CARTESIAN_POINT ( 'NONE',  ( 0.000000000000000000, 0.1874999999999999722, 0.000000000000000000 ) ) ;
#50 = VERTEX_POINT ( 'NONE', #26 ) ;
#51 = DIRECTION ( 'NONE',  ( 0.000000000000000000, 0.000000000000000000, 1.000000000000000000 ) ) ;
#52 = DIRECTION ( 'NONE',  ( -1.000000000000000000, 0.000000000000000000, 0.000000000000000000 ) ) ;
#53 = DIRECTION ( 'NONE',  ( 3.378335997647870959E-17, 1.000000000000000000, -0.000000000000000000 ) ) ;
#54 = PRESENTATION_STYLE_ASSIGNMENT (( #306 ) ) ;
#55 = CARTESIAN_POINT ( 'NONE',  ( -0.07810000000000000275, 0.1875000000000001110, 0.000000000000000000 ) ) ;
#56 = CARTESIAN_POINT ( 'NONE',  ( 9.564491501340828324E-18, 0.000000000000000000, 0.07810000000000000275 ) ) ;
#57 = CARTESIAN_POINT ( 'NONE',  ( 0.000000000000000000, 0.1875000000000001110, 0.000000000000000000 ) ) ;
#58 = VECTOR ( 'NONE', #177, 39.37007874015748143 ) ;
#59 = CYLINDRICAL_SURFACE ( 'NONE', #75, 0.09375000000000002776 ) ;
#60 = CARTESIAN_POINT ( 'NONE',  ( 0.000000000000000000, 0.000000000000000000, 0.000000000000000000 ) ) ;
#61 = DIRECTION ( 'NONE',  ( -0.000000000000000000, -1.000000000000000000, -0.000000000000000000 ) ) ;
#62 = DIRECTION ( 'NONE',  ( 3.378335997647870959E-17, 1.000000000000000000, -0.000000000000000000 ) ) ;
#63 = AXIS2_PLACEMENT_3D ( 'NONE', #208, #62, #258 ) ;
#64 = APPLICATION_CONTEXT ( 'automotive_design' ) ;
#65 = FILL_AREA_STYLE_COLOUR ( '', #163 ) ;
#66 = EDGE_CURVE ( 'NONE', #168, #80, #343, .T. ) ;
#67 = CYLINDRICAL_SURFACE ( 'NONE', #99, 0.07810000000000000275 ) ;
#68 =( CONVERSION_BASED_UNIT ( 'INCH', #256 ) LENGTH_UNIT ( ) NAMED_UNIT ( #107 ) );
#69 = PRODUCT ( '82950', '82950', '', ( #221 ) ) ;
#70 =( CONVERSION_BASED_UNIT ( 'INCH', #156 ) LENGTH_UNIT ( ) NAMED_UNIT ( #160 ) );
#71 = MANIFOLD_SOLID_BREP ( 'Revolve - Cutting Edge', #301 ) ;
#72 = DIMENSIONAL_EXPONENTS ( 1.000000000000000000, 0.000000000000000000, 0.000000000000000000, 0.000000000000000000, 0.000000000000000000, 0.000000000000000000, 0.000000000000000000 ) ;
#73 = ORIENTED_EDGE ( 'NONE', *, *, #159, .F. ) ;
#74 = LENGTH_MEASURE_WITH_UNIT ( LENGTH_MEASURE( 0.02539999999999999897 ), #292 );
#75 = AXIS2_PLACEMENT_3D ( 'NONE', #308, #180, #203 ) ;
#76 = CARTESIAN_POINT ( 'NONE',  ( 0.000000000000000000, 0.000000000000000000, 0.000000000000000000 ) ) ;
#77 = DIRECTION ( 'NONE',  ( 0.000000000000000000, 1.000000000000000000, 0.000000000000000000 ) ) ;
#78 = ADVANCED_FACE ( 'NONE', ( #230 ), #243, .F. ) ;
#79 = VERTEX_POINT ( 'NONE', #88 ) ;
#80 = VERTEX_POINT ( 'NONE', #147 ) ;
#81 = STYLED_ITEM ( 'NONE', ( #265 ), #71 ) ;
#82 =( NAMED_UNIT ( * ) SI_UNIT ( $, .STERADIAN. ) SOLID_ANGLE_UNIT ( ) );
#83 = PRESENTATION_LAYER_ASSIGNMENT (  '', '', ( #210 ) ) ;
#84 = ORIENTED_EDGE ( 'NONE', *, *, #215, .F. ) ;
#85 = SURFACE_SIDE_STYLE ('',( #121 ) ) ;
#86 = LINE ( 'NONE', #55, #58 ) ;
#87 = CARTESIAN_POINT ( 'NONE',  ( 0.000000000000000000, 0.1875000000000001110, 0.000000000000000000 ) ) ;
#88 = CARTESIAN_POINT ( 'NONE',  ( 0.000000000000000000, 0.000000000000000000, -0.07810000000000000275 ) ) ;
#89 = SURFACE_STYLE_FILL_AREA ( #226 ) ;
#90 = DIRECTION ( 'NONE',  ( 3.378335997647870959E-17, 1.000000000000000000, -0.000000000000000000 ) ) ;
#91 = EDGE_CURVE ( 'NONE', #269, #79, #332, .T. ) ;
#92 = FACE_OUTER_BOUND ( 'NONE', #242, .T. ) ;
#93 = CARTESIAN_POINT ( 'NONE',  ( -0.09374999999999995837, 2.000000000000000000, 0.000000000000000000 ) ) ;
#94 = DIRECTION ( 'NONE',  ( 0.000000000000000000, 0.000000000000000000, -1.000000000000000000 ) ) ;
#95 = VECTOR ( 'NONE', #270, 39.37007874015748143 ) ;
#96 = APPLICATION_CONTEXT ( 'automotive_design' ) ;
#97 =( NAMED_UNIT ( * ) PLANE_ANGLE_UNIT ( ) SI_UNIT ( $, .RADIAN. ) );
#98 = AXIS2_PLACEMENT_3D ( 'NONE', #57, #90, #52 ) ;
#99 = AXIS2_PLACEMENT_3D ( 'NONE', #60, #61, #182 ) ;
#100 = SHAPE_DEFINITION_REPRESENTATION ( #290, #266 ) ;
#101 = FILL_AREA_STYLE ('',( #353 ) ) ;
#102 = VERTEX_POINT ( 'NONE', #149 ) ;
#103 = UNCERTAINTY_MEASURE_WITH_UNIT (LENGTH_MEASURE( 1.000000000000000082E-05 ), #68, 'distance_accuracy_value', 'NONE');
#104 = ORIENTED_EDGE ( 'NONE', *, *, #91, .T. ) ;
#105 = CIRCLE ( 'NONE', #350, 0.07810000000000000275 ) ;
#106 = DIRECTION ( 'NONE',  ( 0.000000000000000000, 0.000000000000000000, -1.000000000000000000 ) ) ;
#107 = DIMENSIONAL_EXPONENTS ( 1.000000000000000000, 0.000000000000000000, 0.000000000000000000, 0.000000000000000000, 0.000000000000000000, 0.000000000000000000, 0.000000000000000000 ) ;
#108 =( LENGTH_UNIT ( ) NAMED_UNIT ( * ) SI_UNIT ( $, .METRE. ) );
#109 = ORIENTED_EDGE ( 'NONE', *, *, #309, .T. ) ;
#110 = DIRECTION ( 'NONE',  ( -3.378335997647870959E-17, -1.000000000000000000, 0.000000000000000000 ) ) ;
#111 = AXIS2_PLACEMENT_3D ( 'NONE', #342, #3, #94 ) ;
#112 = FACE_OUTER_BOUND ( 'NONE', #323, .T. ) ;
#113 =( GEOMETRIC_REPRESENTATION_CONTEXT ( 3 ) GLOBAL_UNCERTAINTY_ASSIGNED_CONTEXT ( ( #162 ) ) GLOBAL_UNIT_ASSIGNED_CONTEXT ( ( #70, #97, #126 ) ) REPRESENTATION_CONTEXT ( 'NONE', 'WORKASPACE' ) );
#114 = SURFACE_SIDE_STYLE ('',( #331 ) ) ;
#115 = DIRECTION ( 'NONE',  ( 3.378335997647870959E-17, 1.000000000000000000, -0.000000000000000000 ) ) ;
#116 = DIRECTION ( 'NONE',  ( -1.000000000000000000, 0.000000000000000000, 0.000000000000000000 ) ) ;
#117 = PRODUCT_RELATED_PRODUCT_CATEGORY ( 'part', '', ( #69 ) ) ;
#118 = CARTESIAN_POINT ( 'NONE',  ( 0.000000000000000000, 0.000000000000000000, 0.000000000000000000 ) ) ;
#119 = ADVANCED_FACE ( 'NONE', ( #273 ), #59, .T. ) ;
#120 = ORIENTED_EDGE ( 'NONE', *, *, #345, .T. ) ;
#121 = SURFACE_STYLE_FILL_AREA ( #314 ) ;
#122 = DIRECTION ( 'NONE',  ( -0.000000000000000000, -1.000000000000000000, -0.000000000000000000 ) ) ;
#123 = DIRECTION ( 'NONE',  ( -1.000000000000000000, 3.378335997647870959E-17, 0.000000000000000000 ) ) ;
#124 = PRESENTATION_STYLE_ASSIGNMENT (( #181 ) ) ;
#125 = ADVANCED_FACE ( 'NONE', ( #198 ), #204, .T. ) ;
#126 =( NAMED_UNIT ( * ) SI_UNIT ( $, .STERADIAN. ) SOLID_ANGLE_UNIT ( ) );
#127 =( GEOMETRIC_REPRESENTATION_CONTEXT ( 3 ) GLOBAL_UNCERTAINTY_ASSIGNED_CONTEXT ( ( #103 ) ) GLOBAL_UNIT_ASSIGNED_CONTEXT ( ( #68, #284, #151 ) ) REPRESENTATION_CONTEXT ( 'NONE', 'WORKASPACE' ) );
#128 = CARTESIAN_POINT ( 'NONE',  ( 0.000000000000000000, 0.000000000000000000, 0.000000000000000000 ) ) ;
#129 = CARTESIAN_POINT ( 'NONE',  ( 0.000000000000000000, 0.000000000000000000, -0.07810000000000000275 ) ) ;
#130 = CARTESIAN_POINT ( 'NONE',  ( 0.09375000000000009714, 2.000000000000000000, 1.148106374200644017E-17 ) ) ;
#131 = VECTOR ( 'NONE', #324, 39.37007874015748143 ) ;
#132 = SURFACE_STYLE_FILL_AREA ( #241 ) ;
#133 = EDGE_CURVE ( 'NONE', #79, #269, #105, .T. ) ;
#134 = FACE_OUTER_BOUND ( 'NONE', #239, .T. ) ;
#135 = ORIENTED_EDGE ( 'NONE', *, *, #11, .T. ) ;
#136 = CIRCLE ( 'NONE', #10, 0.09375000000000005551 ) ;
#137 = DIRECTION ( 'NONE',  ( -1.000000000000000000, 0.000000000000000000, 0.000000000000000000 ) ) ;
#138 =( NAMED_UNIT ( * ) PLANE_ANGLE_UNIT ( ) SI_UNIT ( $, .RADIAN. ) );
#139 = FILL_AREA_STYLE_COLOUR ( '', #236 ) ;
#140 = ORIENTED_EDGE ( 'NONE', *, *, #215, .T. ) ;
#141 = DIRECTION ( 'NONE',  ( 3.378335997647870959E-17, 1.000000000000000000, -0.000000000000000000 ) ) ;
#142 = DIRECTION ( 'NONE',  ( 3.378335997647870959E-17, 1.000000000000000000, -0.000000000000000000 ) ) ;
#143 = CARTESIAN_POINT ( 'NONE',  ( 0.000000000000000000, 0.1875000000000001110, 0.000000000000000000 ) ) ;
#144 = PRESENTATION_LAYER_ASSIGNMENT (  '', '', ( #231 ) ) ;
#145 = ORIENTED_EDGE ( 'NONE', *, *, #322, .T. ) ;
#146 = EDGE_CURVE ( 'NONE', #102, #166, #359, .T. ) ;
#147 = CARTESIAN_POINT ( 'NONE',  ( 0.09375000000000006939, 2.000000000000000000, 1.148106374200644171E-17 ) ) ;
#148 = UNCERTAINTY_MEASURE_WITH_UNIT (LENGTH_MEASURE( 1.000000000000000082E-05 ), #328, 'distance_accuracy_value', 'NONE');
#149 = CARTESIAN_POINT ( 'NONE',  ( 0.09375000000000005551, 0.2304980216144651706, 1.148106374200644325E-17 ) ) ;
#150 = LINE ( 'NONE', #130, #131 ) ;
#151 =( NAMED_UNIT ( * ) SI_UNIT ( $, .STERADIAN. ) SOLID_ANGLE_UNIT ( ) );
#152 = FILL_AREA_STYLE_COLOUR ( '', #344 ) ;
#153 = DIRECTION ( 'NONE',  ( 3.378335997647870959E-17, 1.000000000000000000, -0.000000000000000000 ) ) ;
#154 = FACE_OUTER_BOUND ( 'NONE', #349, .T. ) ;
#155 =( NAMED_UNIT ( * ) SI_UNIT ( $, .STERADIAN. ) SOLID_ANGLE_UNIT ( ) );
#156 = LENGTH_MEASURE_WITH_UNIT ( LENGTH_MEASURE( 0.02539999999999999897 ), #285 );
#157 = AXIS2_PLACEMENT_3D ( 'NONE', #297, #304, #137 ) ;
#158 = MECHANICAL_DESIGN_GEOMETRIC_PRESENTATION_REPRESENTATION (  '', ( #317 ), #113 ) ;
#159 = EDGE_CURVE ( 'NONE', #80, #168, #347, .T. ) ;
#160 = DIMENSIONAL_EXPONENTS ( 1.000000000000000000, 0.000000000000000000, 0.000000000000000000, 0.000000000000000000, 0.000000000000000000, 0.000000000000000000, 0.000000000000000000 ) ;
#161 = ADVANCED_FACE ( 'NONE', ( #112 ), #224, .T. ) ;
#162 = UNCERTAINTY_MEASURE_WITH_UNIT (LENGTH_MEASURE( 1.000000000000000082E-05 ), #70, 'distance_accuracy_value', 'NONE');
#163 = COLOUR_RGB ( '',1.000000000000000000, 0.000000000000000000, 0.000000000000000000 ) ;
#164 =( NAMED_UNIT ( * ) PLANE_ANGLE_UNIT ( ) SI_UNIT ( $, .RADIAN. ) );
#165 = ORIENTED_EDGE ( 'NONE', *, *, #91, .F. ) ;
#166 = VERTEX_POINT ( 'NONE', #21 ) ;
#167 = LENGTH_MEASURE_WITH_UNIT ( LENGTH_MEASURE( 0.02539999999999999897 ), #108 );
#168 = VERTEX_POINT ( 'NONE', #298 ) ;
#169 = VECTOR ( 'NONE', #153, 39.37007874015748143 ) ;
#170 = DIRECTION ( 'NONE',  ( 0.000000000000000000, -0.000000000000000000, 1.000000000000000000 ) ) ;
#171 = VERTEX_POINT ( 'NONE', #338 ) ;
#172 = UNCERTAINTY_MEASURE_WITH_UNIT (LENGTH_MEASURE( 1.000000000000000082E-05 ), #8, 'distance_accuracy_value', 'NONE');
#173 =( NAMED_UNIT ( * ) PLANE_ANGLE_UNIT ( ) SI_UNIT ( $, .RADIAN. ) );
#174 = APPLICATION_PROTOCOL_DEFINITION ( 'draft international standard', 'automotive_design', 1998, #96 ) ;
#175 = CARTESIAN_POINT ( 'NONE',  ( 0.000000000000000000, 0.1874999999999999722, 0.000000000000000000 ) ) ;
#176 =( LENGTH_UNIT ( ) NAMED_UNIT ( * ) SI_UNIT ( $, .METRE. ) );
#177 = DIRECTION ( 'NONE',  ( -0.3420201433256683243, 0.9396926207859085389, 0.000000000000000000 ) ) ;
#178 = DIRECTION ( 'NONE',  ( 3.378335997647870959E-17, 1.000000000000000000, -0.000000000000000000 ) ) ;
#179 = DIRECTION ( 'NONE',  ( -0.000000000000000000, -1.000000000000000000, -0.000000000000000000 ) ) ;
#180 = DIRECTION ( 'NONE',  ( 3.378335997647870959E-17, 1.000000000000000000, -0.000000000000000000 ) ) ;
#181 = SURFACE_STYLE_USAGE ( .BOTH. , #114 ) ;
#182 = DIRECTION ( 'NONE',  ( 0.000000000000000000, 0.000000000000000000, -1.000000000000000000 ) ) ;
#183 = DIRECTION ( 'NONE',  ( 0.000000000000000000, 0.000000000000000000, -1.000000000000000000 ) ) ;
#184 = AXIS2_PLACEMENT_3D ( 'NONE', #214, #110, #348 ) ;
#185 = PRODUCT_DEFINITION ( 'UNKNOWN', '', #240, #334 ) ;
#186 = MECHANICAL_DESIGN_GEOMETRIC_PRESENTATION_REPRESENTATION (  '', ( #81 ), #259 ) ;
#187 = PRESENTATION_LAYER_ASSIGNMENT (  '', '', ( #213 ) ) ;
#188 = EDGE_CURVE ( 'NONE', #50, #171, #254, .T. ) ;
#189 = ORIENTED_EDGE ( 'NONE', *, *, #309, .F. ) ;
#190 = PRESENTATION_LAYER_ASSIGNMENT (  '', '', ( #39 ) ) ;
#191 =( GEOMETRIC_REPRESENTATION_CONTEXT ( 3 ) GLOBAL_UNCERTAINTY_ASSIGNED_CONTEXT ( ( #172 ) ) GLOBAL_UNIT_ASSIGNED_CONTEXT ( ( #8, #138, #207 ) ) REPRESENTATION_CONTEXT ( 'NONE', 'WORKASPACE' ) );
#192 = ORIENTED_EDGE ( 'NONE', *, *, #146, .T. ) ;
#193 = UNCERTAINTY_MEASURE_WITH_UNIT (LENGTH_MEASURE( 1.000000000000000082E-05 ), #248, 'distance_accuracy_value', 'NONE');
#194 = MECHANICAL_DESIGN_GEOMETRIC_PRESENTATION_REPRESENTATION (  '', ( #231 ), #260 ) ;
#195 = AXIS2_PLACEMENT_3D ( 'NONE', #175, #275, #197 ) ;
#196 = FILL_AREA_STYLE_COLOUR ( '', #228 ) ;
#197 = DIRECTION ( 'NONE',  ( 0.000000000000000000, 0.000000000000000000, -1.000000000000000000 ) ) ;
#198 = FACE_OUTER_BOUND ( 'NONE', #296, .T. ) ;
#199 = MECHANICAL_DESIGN_GEOMETRIC_PRESENTATION_REPRESENTATION (  '', ( #39 ), #232 ) ;
#200 =( CONVERSION_BASED_UNIT ( 'INCH', #247 ) LENGTH_UNIT ( ) NAMED_UNIT ( #14 ) );
#201 = FILL_AREA_STYLE ('',( #152 ) ) ;
#202 = ORIENTED_EDGE ( 'NONE', *, *, #133, .T. ) ;
#203 = DIRECTION ( 'NONE',  ( -1.000000000000000000, 0.000000000000000000, 0.000000000000000000 ) ) ;
#204 = CONICAL_SURFACE ( 'NONE', #98, 0.07810000000000000275, 0.3490658503988654515 ) ;
#205 = MECHANICAL_DESIGN_GEOMETRIC_PRESENTATION_REPRESENTATION (  '', ( #213 ), #191 ) ;
#206 =( LENGTH_UNIT ( ) NAMED_UNIT ( * ) SI_UNIT ( $, .METRE. ) );
#207 =( NAMED_UNIT ( * ) SI_UNIT ( $, .STERADIAN. ) SOLID_ANGLE_UNIT ( ) );
#208 = CARTESIAN_POINT ( 'NONE',  ( 6.123233995736766036E-17, 2.000000000000000000, 0.000000000000000000 ) ) ;
#209 = DIRECTION ( 'NONE',  ( 0.000000000000000000, -1.000000000000000000, -0.000000000000000000 ) ) ;
#210 = STYLED_ITEM ( 'NONE', ( #250 ), #318 ) ;
#211 = SURFACE_SIDE_STYLE ('',( #19 ) ) ;
#212 = ORIENTED_EDGE ( 'NONE', *, *, #237, .T. ) ;
#213 = STYLED_ITEM ( 'NONE', ( #352 ), #339 ) ;
#214 = CARTESIAN_POINT ( 'NONE',  ( 0.09375000000000006939, 2.000000000000000000, 0.000000000000000000 ) ) ;
#215 = EDGE_CURVE ( 'NONE', #171, #50, #16, .T. ) ;
#216 = VERTEX_POINT ( 'NONE', #30 ) ;
#217 = DIRECTION ( 'NONE',  ( -1.000000000000000000, 0.000000000000000000, 0.000000000000000000 ) ) ;
#218 =( LENGTH_UNIT ( ) NAMED_UNIT ( * ) SI_UNIT ( $, .METRE. ) );
#219 = SURFACE_STYLE_USAGE ( .BOTH. , #355 ) ;
#220 = ORIENTED_EDGE ( 'NONE', *, *, #146, .F. ) ;
#221 = PRODUCT_CONTEXT ( 'NONE', #64, 'mechanical' ) ;
#222 = EDGE_CURVE ( 'NONE', #50, #102, #305, .T. ) ;
#223 = DIRECTION ( 'NONE',  ( -1.000000000000000000, 0.000000000000000000, 0.000000000000000000 ) ) ;
#224 = CYLINDRICAL_SURFACE ( 'NONE', #303, 0.07810000000000000275 ) ;
#225 = UNCERTAINTY_MEASURE_WITH_UNIT (LENGTH_MEASURE( 1.000000000000000082E-05 ), #271, 'distance_accuracy_value', 'NONE');
#226 = FILL_AREA_STYLE ('',( #196 ) ) ;
#227 = ORIENTED_EDGE ( 'NONE', *, *, #11, .F. ) ;
#228 = COLOUR_RGB ( '',1.000000000000000000, 0.000000000000000000, 0.000000000000000000 ) ;
#229 = ORIENTED_EDGE ( 'NONE', *, *, #188, .T. ) ;
#230 = FACE_OUTER_BOUND ( 'NONE', #316, .T. ) ;
#231 = STYLED_ITEM ( 'NONE', ( #54 ), #161 ) ;
#232 =( GEOMETRIC_REPRESENTATION_CONTEXT ( 3 ) GLOBAL_UNCERTAINTY_ASSIGNED_CONTEXT ( ( #225 ) ) GLOBAL_UNIT_ASSIGNED_CONTEXT ( ( #271, #164, #82 ) ) REPRESENTATION_CONTEXT ( 'NONE', 'WORKASPACE' ) );
#233 = SURFACE_SIDE_STYLE ('',( #9 ) ) ;
#234 =( GEOMETRIC_REPRESENTATION_CONTEXT ( 3 ) GLOBAL_UNCERTAINTY_ASSIGNED_CONTEXT ( ( #148 ) ) GLOBAL_UNIT_ASSIGNED_CONTEXT ( ( #328, #351, #261 ) ) REPRESENTATION_CONTEXT ( 'NONE', 'WORKASPACE' ) );
#235 = CYLINDRICAL_SURFACE ( 'NONE', #63, 0.09375000000000002776 ) ;
#236 = COLOUR_RGB ( '',0.7921568627450980005, 0.8196078431372548767, 0.9333333333333333481 ) ;
#237 = EDGE_CURVE ( 'NONE', #166, #102, #136, .T. ) ;
#238 = DIMENSIONAL_EXPONENTS ( 1.000000000000000000, 0.000000000000000000, 0.000000000000000000, 0.000000000000000000, 0.000000000000000000, 0.000000000000000000, 0.000000000000000000 ) ;
#239 = EDGE_LOOP ( 'NONE', ( #36, #48 ) ) ;
#240 = PRODUCT_DEFINITION_FORMATION_WITH_SPECIFIED_SOURCE ( 'ANY', '', #69, .NOT_KNOWN. ) ;
#241 = FILL_AREA_STYLE ('',( #139 ) ) ;
#242 = EDGE_LOOP ( 'NONE', ( #202, #104 ) ) ;
#243 = PLANE ( 'NONE',  #5 ) ;
#244 = ORIENTED_EDGE ( 'NONE', *, *, #257, .T. ) ;
#245 = ORIENTED_EDGE ( 'NONE', *, *, #188, .F. ) ;
#246 = CARTESIAN_POINT ( 'NONE',  ( 9.564491501340828324E-18, 0.000000000000000000, 0.07810000000000000275 ) ) ;
#247 = LENGTH_MEASURE_WITH_UNIT ( LENGTH_MEASURE( 0.02539999999999999897 ), #176 );
#248 =( CONVERSION_BASED_UNIT ( 'INCH', #31 ) LENGTH_UNIT ( ) NAMED_UNIT ( #238 ) );
#249 = DIRECTION ( 'NONE',  ( 3.378335997647870959E-17, 1.000000000000000000, -0.000000000000000000 ) ) ;
#250 = PRESENTATION_STYLE_ASSIGNMENT (( #42 ) ) ;
#251 = DIRECTION ( 'NONE',  ( 0.3420201433256684354, 0.9396926207859085389, 4.188538737676987451E-17 ) ) ;
#252 = AXIS2_PLACEMENT_3D ( 'NONE', #49, #77, #170 ) ;
#253 = LENGTH_MEASURE_WITH_UNIT ( LENGTH_MEASURE( 0.02539999999999999897 ), #218 );
#254 = CIRCLE ( 'NONE', #319, 0.07810000000000000275 ) ;
#255 =( NAMED_UNIT ( * ) SI_UNIT ( $, .STERADIAN. ) SOLID_ANGLE_UNIT ( ) );
#256 = LENGTH_MEASURE_WITH_UNIT ( LENGTH_MEASURE( 0.02539999999999999897 ), #206 );
#257 = EDGE_CURVE ( 'NONE', #18, #216, #6, .T. ) ;
#258 = DIRECTION ( 'NONE',  ( -1.000000000000000000, 0.000000000000000000, 0.000000000000000000 ) ) ;
#259 =( GEOMETRIC_REPRESENTATION_CONTEXT ( 3 ) GLOBAL_UNCERTAINTY_ASSIGNED_CONTEXT ( ( #193 ) ) GLOBAL_UNIT_ASSIGNED_CONTEXT ( ( #248, #173, #255 ) ) REPRESENTATION_CONTEXT ( 'NONE', 'WORKASPACE' ) );
#260 =( GEOMETRIC_REPRESENTATION_CONTEXT ( 3 ) GLOBAL_UNCERTAINTY_ASSIGNED_CONTEXT ( ( #325 ) ) GLOBAL_UNIT_ASSIGNED_CONTEXT ( ( #200, #37, #155 ) ) REPRESENTATION_CONTEXT ( 'NONE', 'WORKASPACE' ) );
#261 =( NAMED_UNIT ( * ) SI_UNIT ( $, .STERADIAN. ) SOLID_ANGLE_UNIT ( ) );
#262 = CLOSED_SHELL ( 'NONE', ( #280, #315, #78, #125, #119, #47 ) ) ;
#263 = LINE ( 'NONE', #246, #95 ) ;
#264 = ORIENTED_EDGE ( 'NONE', *, *, #15, .T. ) ;
#265 = PRESENTATION_STYLE_ASSIGNMENT (( #219 ) ) ;
#266 = ADVANCED_BREP_SHAPE_REPRESENTATION ( '82950', ( #71, #318, #23 ), #234 ) ;
#267 = SURFACE_SIDE_STYLE ('',( #89 ) ) ;
#268 = PRESENTATION_STYLE_ASSIGNMENT (( #293 ) ) ;
#269 = VERTEX_POINT ( 'NONE', #56 ) ;
#270 = DIRECTION ( 'NONE',  ( -0.000000000000000000, -1.000000000000000000, -0.000000000000000000 ) ) ;
#271 =( CONVERSION_BASED_UNIT ( 'INCH', #167 ) LENGTH_UNIT ( ) NAMED_UNIT ( #291 ) );
#272 = ORIENTED_EDGE ( 'NONE', *, *, #287, .F. ) ;
#273 = FACE_OUTER_BOUND ( 'NONE', #307, .T. ) ;
#274 = EDGE_LOOP ( 'NONE', ( #46, #244, #356, #165 ) ) ;
#275 = DIRECTION ( 'NONE',  ( -0.000000000000000000, -1.000000000000000000, -0.000000000000000000 ) ) ;
#276 = DIRECTION ( 'NONE',  ( -0.000000000000000000, -1.000000000000000000, -0.000000000000000000 ) ) ;
#277 = CONICAL_SURFACE ( 'NONE', #289, 0.07810000000000000275, 0.3490658503988654515 ) ;
#278 = FACE_OUTER_BOUND ( 'NONE', #7, .T. ) ;
#279 = ORIENTED_EDGE ( 'NONE', *, *, #345, .F. ) ;
#280 = ADVANCED_FACE ( 'NONE', ( #278 ), #235, .T. ) ;
#281 = CARTESIAN_POINT ( 'NONE',  ( 0.000000000000000000, 0.1874999999999999722, 0.000000000000000000 ) ) ;
#282 = DIRECTION ( 'NONE',  ( 0.000000000000000000, 0.000000000000000000, -1.000000000000000000 ) ) ;
#283 = CARTESIAN_POINT ( 'NONE',  ( 1.452617642477886412E-18, 0.2304980216144651706, 0.000000000000000000 ) ) ;
#284 =( NAMED_UNIT ( * ) PLANE_ANGLE_UNIT ( ) SI_UNIT ( $, .RADIAN. ) );
#285 =( LENGTH_UNIT ( ) NAMED_UNIT ( * ) SI_UNIT ( $, .METRE. ) );
#286 = AXIS2_PLACEMENT_3D ( 'NONE', #128, #209, #282 ) ;
#287 = EDGE_CURVE ( 'NONE', #216, #79, #13, .T. ) ;
#288 = AXIS2_PLACEMENT_3D ( 'NONE', #283, #142, #116 ) ;
#289 = AXIS2_PLACEMENT_3D ( 'NONE', #4, #115, #299 ) ;
#290 = PRODUCT_DEFINITION_SHAPE ( 'NONE', 'NONE',  #185 ) ;
#291 = DIMENSIONAL_EXPONENTS ( 1.000000000000000000, 0.000000000000000000, 0.000000000000000000, 0.000000000000000000, 0.000000000000000000, 0.000000000000000000, 0.000000000000000000 ) ;
#292 =( LENGTH_UNIT ( ) NAMED_UNIT ( * ) SI_UNIT ( $, .METRE. ) );
#293 = SURFACE_STYLE_USAGE ( .BOTH. , #211 ) ;
#294 = ADVANCED_FACE ( 'NONE', ( #321 ), #67, .T. ) ;
#295 = VECTOR ( 'NONE', #179, 39.37007874015748143 ) ;
#296 = EDGE_LOOP ( 'NONE', ( #38, #229, #264, #220 ) ) ;
#297 = CARTESIAN_POINT ( 'NONE',  ( 6.123233995736766036E-17, 2.000000000000000000, 0.000000000000000000 ) ) ;
#298 = CARTESIAN_POINT ( 'NONE',  ( -0.09374999999999994449, 2.000000000000000000, 0.000000000000000000 ) ) ;
#299 = DIRECTION ( 'NONE',  ( -1.000000000000000000, 0.000000000000000000, 0.000000000000000000 ) ) ;
#300 = ORIENTED_EDGE ( 'NONE', *, *, #222, .T. ) ;
#301 = CLOSED_SHELL ( 'NONE', ( #161, #29, #294, #339 ) ) ;
#302 = CARTESIAN_POINT ( 'NONE',  ( 0.000000000000000000, 0.000000000000000000, 0.000000000000000000 ) ) ;
#303 = AXIS2_PLACEMENT_3D ( 'NONE', #76, #25, #106 ) ;
#304 = DIRECTION ( 'NONE',  ( 3.378335997647870959E-17, 1.000000000000000000, -0.000000000000000000 ) ) ;
#305 = LINE ( 'NONE', #357, #311 ) ;
#306 = SURFACE_STYLE_USAGE ( .BOTH. , #85 ) ;
#307 = EDGE_LOOP ( 'NONE', ( #279, #192, #135, #73 ) ) ;
#308 = CARTESIAN_POINT ( 'NONE',  ( 6.123233995736766036E-17, 2.000000000000000000, 0.000000000000000000 ) ) ;
#309 = EDGE_CURVE ( 'NONE', #216, #18, #333, .T. ) ;
#310 = PRESENTATION_LAYER_ASSIGNMENT (  '', '', ( #81 ) ) ;
#311 = VECTOR ( 'NONE', #251, 39.37007874015748143 ) ;
#312 = CARTESIAN_POINT ( 'NONE',  ( 4.456836681127841203E-35, 0.1874999999999999722, 0.000000000000000000 ) ) ;
#313 = DIRECTION ( 'NONE',  ( -1.000000000000000000, 0.000000000000000000, 0.000000000000000000 ) ) ;
#314 = FILL_AREA_STYLE ('',( #335 ) ) ;
#315 = ADVANCED_FACE ( 'NONE', ( #154 ), #277, .T. ) ;
#316 = EDGE_LOOP ( 'NONE', ( #84, #245 ) ) ;
#317 = STYLED_ITEM ( 'NONE', ( #124 ), #294 ) ;
#318 = MANIFOLD_SOLID_BREP ( 'Revolve - Tool Body (Reduced Cut Diameter)', #262 ) ;
#319 = AXIS2_PLACEMENT_3D ( 'NONE', #143, #34, #313 ) ;
#320 = FACE_OUTER_BOUND ( 'NONE', #327, .T. ) ;
#321 = FACE_OUTER_BOUND ( 'NONE', #274, .T. ) ;
#322 = EDGE_CURVE ( 'NONE', #18, #269, #263, .T. ) ;
#323 = EDGE_LOOP ( 'NONE', ( #109, #145, #336, #272 ) ) ;
#324 = DIRECTION ( 'NONE',  ( 3.378335997647870959E-17, 1.000000000000000000, -0.000000000000000000 ) ) ;
#325 = UNCERTAINTY_MEASURE_WITH_UNIT (LENGTH_MEASURE( 1.000000000000000082E-05 ), #200, 'distance_accuracy_value', 'NONE');
#326 = AXIS2_PLACEMENT_3D ( 'NONE', #281, #122, #183 ) ;
#327 = EDGE_LOOP ( 'NONE', ( #189, #24 ) ) ;
#328 =( CONVERSION_BASED_UNIT ( 'INCH', #74 ) LENGTH_UNIT ( ) NAMED_UNIT ( #72 ) );
#329 = PLANE ( 'NONE',  #252 ) ;
#330 = ORIENTED_EDGE ( 'NONE', *, *, #66, .F. ) ;
#331 = SURFACE_STYLE_FILL_AREA ( #12 ) ;
#332 = CIRCLE ( 'NONE', #111, 0.07810000000000000275 ) ;
#333 = CIRCLE ( 'NONE', #326, 0.07810000000000000275 ) ;
#334 = PRODUCT_DEFINITION_CONTEXT ( 'detailed design', #96, 'design' ) ;
#335 = FILL_AREA_STYLE_COLOUR ( '', #32 ) ;
#336 = ORIENTED_EDGE ( 'NONE', *, *, #133, .F. ) ;
#337 = APPLICATION_PROTOCOL_DEFINITION ( 'draft international standard', 'automotive_design', 1998, #64 ) ;
#338 = CARTESIAN_POINT ( 'NONE',  ( -0.07810000000000000275, 0.1875000000000001110, 0.000000000000000000 ) ) ;
#339 = ADVANCED_FACE ( 'NONE', ( #92 ), #2, .T. ) ;
#340 =( LENGTH_UNIT ( ) NAMED_UNIT ( * ) SI_UNIT ( $, .METRE. ) );
#341 = LINE ( 'NONE', #93, #169 ) ;
#342 = CARTESIAN_POINT ( 'NONE',  ( 0.000000000000000000, 0.000000000000000000, 0.000000000000000000 ) ) ;
#343 = CIRCLE ( 'NONE', #157, 0.09375000000000001388 ) ;
#344 = COLOUR_RGB ( '',0.7921568627450980005, 0.8196078431372548767, 0.9333333333333333481 ) ;
#345 = EDGE_CURVE ( 'NONE', #102, #80, #150, .T. ) ;
#346 = CARTESIAN_POINT ( 'NONE',  ( 9.564491501340828324E-18, 0.1874999999999999722, 0.07810000000000000275 ) ) ;
#347 = CIRCLE ( 'NONE', #43, 0.09375000000000001388 ) ;
#348 = DIRECTION ( 'NONE',  ( 1.000000000000000000, -3.378335997647870959E-17, 0.000000000000000000 ) ) ;
#349 = EDGE_LOOP ( 'NONE', ( #140, #300, #20, #354 ) ) ;
#350 = AXIS2_PLACEMENT_3D ( 'NONE', #118, #276, #27 ) ;
#351 =( NAMED_UNIT ( * ) PLANE_ANGLE_UNIT ( ) SI_UNIT ( $, .RADIAN. ) );
#352 = PRESENTATION_STYLE_ASSIGNMENT (( #22 ) ) ;
#353 = FILL_AREA_STYLE_COLOUR ( '', #41 ) ;
#354 = ORIENTED_EDGE ( 'NONE', *, *, #15, .F. ) ;
#355 = SURFACE_SIDE_STYLE ('',( #132 ) ) ;
#356 = ORIENTED_EDGE ( 'NONE', *, *, #287, .T. ) ;
#357 = CARTESIAN_POINT ( 'NONE',  ( 0.07810000000000000275, 0.1875000000000001110, 9.564491501340828324E-18 ) ) ;
#358 = DIRECTION ( 'NONE',  ( -1.000000000000000000, 0.000000000000000000, 0.000000000000000000 ) ) ;
#359 = CIRCLE ( 'NONE', #288, 0.09375000000000005551 ) ;
ENDSEC;
END-ISO-10303-21;
