ISO-10303-21;
HEADER;
FILE_DESCRIPTION (( 'STEP AP214' ),
    '1' );
FILE_NAME ('83304.STEP',
    '2023-06-23T09:01:18',
    ( '' ),
    ( '' ),
    'SwSTEP 2.0',
    'SolidWorks 2023',
    '' );
FILE_SCHEMA (( 'AUTOMOTIVE_DESIGN' ));
ENDSEC;

DATA;
#1 = STYLED_ITEM ( 'NONE', ( #17 ), #134 ) ;
#2 = STYLED_ITEM ( 'NONE', ( #191 ), #289 ) ;
#3 =( NAMED_UNIT ( * ) SI_UNIT ( $, .STERADIAN. ) SOLID_ANGLE_UNIT ( ) );
#4 = PRESENTATION_STYLE_ASSIGNMENT (( #28 ) ) ;
#5 =( NAMED_UNIT ( * ) SI_UNIT ( $, .STERADIAN. ) SOLID_ANGLE_UNIT ( ) );
#6 = PLANE ( 'NONE',  #136 ) ;
#7 = PRODUCT ( '83304', '83304', '', ( #56 ) ) ;
#8 =( CONVERSION_BASED_UNIT ( 'INCH', #261 ) LENGTH_UNIT ( ) NAMED_UNIT ( #262 ) );
#9 =( NAMED_UNIT ( * ) PLANE_ANGLE_UNIT ( ) SI_UNIT ( $, .RADIAN. ) );
#10 = ADVANCED_FACE ( 'NONE', ( #309 ), #208, .T. ) ;
#11 = LENGTH_MEASURE_WITH_UNIT ( LENGTH_MEASURE( 0.02539999999999999897 ), #202 );
#12 = SURFACE_SIDE_STYLE ('',( #178 ) ) ;
#13 = STYLED_ITEM ( 'NONE', ( #197 ), #117 ) ;
#14 = ORIENTED_EDGE ( 'NONE', *, *, #91, .F. ) ;
#15 = DIRECTION ( 'NONE',  ( 0.000000000000000000, 0.000000000000000000, -1.000000000000000000 ) ) ;
#16 = ORIENTED_EDGE ( 'NONE', *, *, #245, .T. ) ;
#17 = PRESENTATION_STYLE_ASSIGNMENT (( #273 ) ) ;
#18 = VERTEX_POINT ( 'NONE', #150 ) ;
#19 = STYLED_ITEM ( 'NONE', ( #166 ), #221 ) ;
#20 = CARTESIAN_POINT ( 'NONE',  ( 0.000000000000000000, 0.000000000000000000, 0.000000000000000000 ) ) ;
#21 = CYLINDRICAL_SURFACE ( 'NONE', #77, 0.1250000000000000000 ) ;
#22 = FACE_OUTER_BOUND ( 'NONE', #277, .T. ) ;
#23 = ORIENTED_EDGE ( 'NONE', *, *, #230, .F. ) ;
#24 =( GEOMETRIC_REPRESENTATION_CONTEXT ( 3 ) GLOBAL_UNCERTAINTY_ASSIGNED_CONTEXT ( ( #260 ) ) GLOBAL_UNIT_ASSIGNED_CONTEXT ( ( #162, #60, #107 ) ) REPRESENTATION_CONTEXT ( 'NONE', 'WORKASPACE' ) );
#25 = LINE ( 'NONE', #131, #34 ) ;
#26 = ADVANCED_FACE ( 'NONE', ( #300 ), #187, .T. ) ;
#27 = DIMENSIONAL_EXPONENTS ( 1.000000000000000000, 0.000000000000000000, 0.000000000000000000, 0.000000000000000000, 0.000000000000000000, 0.000000000000000000, 0.000000000000000000 ) ;
#28 = SURFACE_STYLE_USAGE ( .BOTH. , #100 ) ;
#29 = DIRECTION ( 'NONE',  ( 0.000000000000000000, 0.000000000000000000, -1.000000000000000000 ) ) ;
#30 = FILL_AREA_STYLE ('',( #218 ) ) ;
#31 = AXIS2_PLACEMENT_3D ( 'NONE', #290, #128, #78 ) ;
#32 = FILL_AREA_STYLE ('',( #180 ) ) ;
#33 = FILL_AREA_STYLE ('',( #64 ) ) ;
#34 = VECTOR ( 'NONE', #102, 39.37007874015748143 ) ;
#35 = VERTEX_POINT ( 'NONE', #193 ) ;
#36 = CARTESIAN_POINT ( 'NONE',  ( 0.000000000000000000, 1.500000000000000222, 0.000000000000000000 ) ) ;
#37 = DIRECTION ( 'NONE',  ( 0.000000000000000000, 0.000000000000000000, -1.000000000000000000 ) ) ;
#38 = ORIENTED_EDGE ( 'NONE', *, *, #85, .T. ) ;
#39 = LENGTH_MEASURE_WITH_UNIT ( LENGTH_MEASURE( 0.02539999999999999897 ), #95 );
#40 = AXIS2_PLACEMENT_3D ( 'NONE', #58, #129, #130 ) ;
#41 = ORIENTED_EDGE ( 'NONE', *, *, #245, .F. ) ;
#42 = SURFACE_SIDE_STYLE ('',( #82 ) ) ;
#43 = EDGE_LOOP ( 'NONE', ( #203, #111, #212, #294 ) ) ;
#44 = SURFACE_STYLE_FILL_AREA ( #236 ) ;
#45 = DIRECTION ( 'NONE',  ( -1.000000000000000000, 0.000000000000000000, 0.000000000000000000 ) ) ;
#46 = MECHANICAL_DESIGN_GEOMETRIC_PRESENTATION_REPRESENTATION (  '', ( #227 ), #205 ) ;
#47 =( GEOMETRIC_REPRESENTATION_CONTEXT ( 3 ) GLOBAL_UNCERTAINTY_ASSIGNED_CONTEXT ( ( #151 ) ) GLOBAL_UNIT_ASSIGNED_CONTEXT ( ( #282, #69, #233 ) ) REPRESENTATION_CONTEXT ( 'NONE', 'WORKASPACE' ) );
#48 = DIRECTION ( 'NONE',  ( -2.449293598294706907E-16, -1.000000000000000000, 0.000000000000000000 ) ) ;
#49 = DIRECTION ( 'NONE',  ( 2.449293598294706907E-16, 1.000000000000000000, -0.000000000000000000 ) ) ;
#50 = SURFACE_STYLE_FILL_AREA ( #155 ) ;
#51 = COLOUR_RGB ( '',1.000000000000000000, 0.000000000000000000, 0.000000000000000000 ) ;
#52 =( CONVERSION_BASED_UNIT ( 'INCH', #264 ) LENGTH_UNIT ( ) NAMED_UNIT ( #27 ) );
#53 = EDGE_CURVE ( 'NONE', #67, #61, #229, .T. ) ;
#54 = APPLICATION_PROTOCOL_DEFINITION ( 'draft international standard', 'automotive_design', 1998, #280 ) ;
#55 =( CONVERSION_BASED_UNIT ( 'INCH', #266 ) LENGTH_UNIT ( ) NAMED_UNIT ( #97 ) );
#56 = PRODUCT_CONTEXT ( 'NONE', #285, 'mechanical' ) ;
#57 =( GEOMETRIC_REPRESENTATION_CONTEXT ( 3 ) GLOBAL_UNCERTAINTY_ASSIGNED_CONTEXT ( ( #90 ) ) GLOBAL_UNIT_ASSIGNED_CONTEXT ( ( #8, #242, #5 ) ) REPRESENTATION_CONTEXT ( 'NONE', 'WORKASPACE' ) );
#58 = CARTESIAN_POINT ( 'NONE',  ( 0.000000000000000000, 1.500000000000000222, 0.000000000000000000 ) ) ;
#59 = AXIS2_PLACEMENT_3D ( 'NONE', #135, #116, #252 ) ;
#60 =( NAMED_UNIT ( * ) PLANE_ANGLE_UNIT ( ) SI_UNIT ( $, .RADIAN. ) );
#61 = VERTEX_POINT ( 'NONE', #164 ) ;
#62 = SURFACE_STYLE_USAGE ( .BOTH. , #12 ) ;
#63 = EDGE_CURVE ( 'NONE', #67, #190, #298, .T. ) ;
#64 = FILL_AREA_STYLE_COLOUR ( '', #73 ) ;
#65 = DIRECTION ( 'NONE',  ( -1.000000000000000000, 2.449293598294706907E-16, 0.000000000000000000 ) ) ;
#66 = EDGE_LOOP ( 'NONE', ( #87, #142, #235, #23 ) ) ;
#67 = VERTEX_POINT ( 'NONE', #98 ) ;
#68 = DIRECTION ( 'NONE',  ( 2.449293598294706907E-16, 1.000000000000000000, -0.000000000000000000 ) ) ;
#69 =( NAMED_UNIT ( * ) PLANE_ANGLE_UNIT ( ) SI_UNIT ( $, .RADIAN. ) );
#70 = DIRECTION ( 'NONE',  ( 2.449293598294706907E-16, 1.000000000000000000, -0.000000000000000000 ) ) ;
#71 = FACE_OUTER_BOUND ( 'NONE', #89, .T. ) ;
#72 = DIRECTION ( 'NONE',  ( -0.000000000000000000, -1.000000000000000000, -0.000000000000000000 ) ) ;
#73 = COLOUR_RGB ( '',1.000000000000000000, 0.000000000000000000, 0.000000000000000000 ) ;
#74 =( NAMED_UNIT ( * ) SI_UNIT ( $, .STERADIAN. ) SOLID_ANGLE_UNIT ( ) );
#75 = EDGE_LOOP ( 'NONE', ( #306, #14 ) ) ;
#76 = SURFACE_STYLE_FILL_AREA ( #30 ) ;
#77 = AXIS2_PLACEMENT_3D ( 'NONE', #143, #307, #118 ) ;
#78 = DIRECTION ( 'NONE',  ( 1.000000000000000000, 0.000000000000000000, 0.000000000000000000 ) ) ;
#79 = SURFACE_SIDE_STYLE ('',( #76 ) ) ;
#80 = CIRCLE ( 'NONE', #169, 0.1250000000000000000 ) ;
#81 = EDGE_CURVE ( 'NONE', #254, #18, #152, .T. ) ;
#82 = SURFACE_STYLE_FILL_AREA ( #32 ) ;
#83 = CYLINDRICAL_SURFACE ( 'NONE', #251, 0.1250000000000000000 ) ;
#84 = LINE ( 'NONE', #112, #123 ) ;
#85 = EDGE_CURVE ( 'NONE', #190, #113, #25, .T. ) ;
#86 = DIRECTION ( 'NONE',  ( 2.449293598294706907E-16, 1.000000000000000000, -0.000000000000000000 ) ) ;
#87 = ORIENTED_EDGE ( 'NONE', *, *, #85, .F. ) ;
#88 = CARTESIAN_POINT ( 'NONE',  ( -6.065921084684207584E-32, 1.500000000000000222, 0.000000000000000000 ) ) ;
#89 = EDGE_LOOP ( 'NONE', ( #259, #281, #225, #186 ) ) ;
#90 = UNCERTAINTY_MEASURE_WITH_UNIT (LENGTH_MEASURE( 1.000000000000000082E-05 ), #8, 'distance_accuracy_value', 'NONE');
#91 = EDGE_CURVE ( 'NONE', #18, #254, #210, .T. ) ;
#92 = ORIENTED_EDGE ( 'NONE', *, *, #53, .F. ) ;
#93 = PRESENTATION_LAYER_ASSIGNMENT (  '', '', ( #1 ) ) ;
#94 = MECHANICAL_DESIGN_GEOMETRIC_PRESENTATION_REPRESENTATION (  '', ( #2 ), #47 ) ;
#95 =( LENGTH_UNIT ( ) NAMED_UNIT ( * ) SI_UNIT ( $, .METRE. ) );
#96 = EDGE_LOOP ( 'NONE', ( #226, #303 ) ) ;
#97 = DIMENSIONAL_EXPONENTS ( 1.000000000000000000, 0.000000000000000000, 0.000000000000000000, 0.000000000000000000, 0.000000000000000000, 0.000000000000000000, 0.000000000000000000 ) ;
#98 = CARTESIAN_POINT ( 'NONE',  ( -0.1250000000000000000, 1.500000000000000222, 0.000000000000000000 ) ) ;
#99 = DIRECTION ( 'NONE',  ( -1.000000000000000000, 0.000000000000000000, 0.000000000000000000 ) ) ;
#100 = SURFACE_SIDE_STYLE ('',( #50 ) ) ;
#101 = UNCERTAINTY_MEASURE_WITH_UNIT (LENGTH_MEASURE( 1.000000000000000082E-05 ), #231, 'distance_accuracy_value', 'NONE');
#102 = DIRECTION ( 'NONE',  ( 2.449293598294706907E-16, 1.000000000000000000, -0.000000000000000000 ) ) ;
#103 = AXIS2_PLACEMENT_3D ( 'NONE', #36, #293, #109 ) ;
#104 = SHAPE_DEFINITION_REPRESENTATION ( #308, #270 ) ;
#105 =( LENGTH_UNIT ( ) NAMED_UNIT ( * ) SI_UNIT ( $, .METRE. ) );
#106 = SURFACE_STYLE_FILL_AREA ( #174 ) ;
#107 =( NAMED_UNIT ( * ) SI_UNIT ( $, .STERADIAN. ) SOLID_ANGLE_UNIT ( ) );
#108 = VECTOR ( 'NONE', #70, 39.37007874015748143 ) ;
#109 = DIRECTION ( 'NONE',  ( 0.000000000000000000, -0.000000000000000000, 1.000000000000000000 ) ) ;
#110 = DIRECTION ( 'NONE',  ( -0.000000000000000000, -1.000000000000000000, -0.000000000000000000 ) ) ;
#111 = ORIENTED_EDGE ( 'NONE', *, *, #188, .T. ) ;
#112 = CARTESIAN_POINT ( 'NONE',  ( 1.530808498934191509E-17, 0.000000000000000000, 0.1250000000000000000 ) ) ;
#113 = VERTEX_POINT ( 'NONE', #176 ) ;
#114 =( NAMED_UNIT ( * ) PLANE_ANGLE_UNIT ( ) SI_UNIT ( $, .RADIAN. ) );
#115 = COLOUR_RGB ( '',1.000000000000000000, 0.000000000000000000, 0.000000000000000000 ) ;
#116 = DIRECTION ( 'NONE',  ( 2.449293598294706907E-16, 1.000000000000000000, -0.000000000000000000 ) ) ;
#117 = ADVANCED_FACE ( 'NONE', ( #286 ), #6, .T. ) ;
#118 = DIRECTION ( 'NONE',  ( 0.000000000000000000, 0.000000000000000000, -1.000000000000000000 ) ) ;
#119 =( NAMED_UNIT ( * ) PLANE_ANGLE_UNIT ( ) SI_UNIT ( $, .RADIAN. ) );
#120 = DIMENSIONAL_EXPONENTS ( 1.000000000000000000, 0.000000000000000000, 0.000000000000000000, 0.000000000000000000, 0.000000000000000000, 0.000000000000000000, 0.000000000000000000 ) ;
#121 = EDGE_LOOP ( 'NONE', ( #276, #145 ) ) ;
#122 = CIRCLE ( 'NONE', #288, 0.1250000000000000000 ) ;
#123 = VECTOR ( 'NONE', #269, 39.37007874015748143 ) ;
#124 = EDGE_CURVE ( 'NONE', #254, #35, #217, .T. ) ;
#125 = DIRECTION ( 'NONE',  ( 2.449293598294706907E-16, 1.000000000000000000, -0.000000000000000000 ) ) ;
#126 = CARTESIAN_POINT ( 'NONE',  ( 3.673940397442060361E-16, 3.000000000000000444, 0.000000000000000000 ) ) ;
#127 = MANIFOLD_SOLID_BREP ( 'Revolve - Cutting Edge', #247 ) ;
#128 = DIRECTION ( 'NONE',  ( 0.000000000000000000, 0.000000000000000000, 1.000000000000000000 ) ) ;
#129 = DIRECTION ( 'NONE',  ( -0.000000000000000000, -1.000000000000000000, -0.000000000000000000 ) ) ;
#130 = DIRECTION ( 'NONE',  ( 0.000000000000000000, 0.000000000000000000, -1.000000000000000000 ) ) ;
#131 = CARTESIAN_POINT ( 'NONE',  ( 0.1250000000000001943, 3.000000000000000444, 1.530808498934189352E-17 ) ) ;
#132 = AXIS2_PLACEMENT_3D ( 'NONE', #284, #72, #149 ) ;
#133 = CARTESIAN_POINT ( 'NONE',  ( 0.000000000000000000, 0.000000000000000000, 0.000000000000000000 ) ) ;
#134 = ADVANCED_FACE ( 'NONE', ( #201 ), #198, .T. ) ;
#135 = CARTESIAN_POINT ( 'NONE',  ( 3.673940397442060361E-16, 3.000000000000000444, 0.000000000000000000 ) ) ;
#136 = AXIS2_PLACEMENT_3D ( 'NONE', #133, #154, #29 ) ;
#137 = MECHANICAL_DESIGN_GEOMETRIC_PRESENTATION_REPRESENTATION (  '', ( #158 ), #24 ) ;
#138 =( NAMED_UNIT ( * ) SI_UNIT ( $, .STERADIAN. ) SOLID_ANGLE_UNIT ( ) );
#139 = ORIENTED_EDGE ( 'NONE', *, *, #63, .T. ) ;
#140 = EDGE_CURVE ( 'NONE', #35, #297, #122, .T. ) ;
#141 = FACE_OUTER_BOUND ( 'NONE', #43, .T. ) ;
#142 = ORIENTED_EDGE ( 'NONE', *, *, #304, .T. ) ;
#143 = CARTESIAN_POINT ( 'NONE',  ( 0.000000000000000000, 0.000000000000000000, 0.000000000000000000 ) ) ;
#144 = PRODUCT_DEFINITION_FORMATION_WITH_SPECIFIED_SOURCE ( 'ANY', '', #7, .NOT_KNOWN. ) ;
#145 = ORIENTED_EDGE ( 'NONE', *, *, #304, .F. ) ;
#146 =( LENGTH_UNIT ( ) NAMED_UNIT ( * ) SI_UNIT ( $, .METRE. ) );
#147 = SURFACE_STYLE_USAGE ( .BOTH. , #148 ) ;
#148 = SURFACE_SIDE_STYLE ('',( #44 ) ) ;
#149 = DIRECTION ( 'NONE',  ( 0.000000000000000000, 0.000000000000000000, -1.000000000000000000 ) ) ;
#150 = CARTESIAN_POINT ( 'NONE',  ( 1.530808498934191509E-17, 1.500000000000000222, 0.1250000000000000000 ) ) ;
#151 = UNCERTAINTY_MEASURE_WITH_UNIT (LENGTH_MEASURE( 1.000000000000000082E-05 ), #282, 'distance_accuracy_value', 'NONE');
#152 = CIRCLE ( 'NONE', #132, 0.1250000000000000000 ) ;
#153 = PRESENTATION_LAYER_ASSIGNMENT (  '', '', ( #158 ) ) ;
#154 = DIRECTION ( 'NONE',  ( 0.000000000000000000, -1.000000000000000000, -0.000000000000000000 ) ) ;
#155 = FILL_AREA_STYLE ('',( #287 ) ) ;
#156 =( LENGTH_UNIT ( ) NAMED_UNIT ( * ) SI_UNIT ( $, .METRE. ) );
#157 =( LENGTH_UNIT ( ) NAMED_UNIT ( * ) SI_UNIT ( $, .METRE. ) );
#158 = STYLED_ITEM ( 'NONE', ( #275 ), #165 ) ;
#159 =( GEOMETRIC_REPRESENTATION_CONTEXT ( 3 ) GLOBAL_UNCERTAINTY_ASSIGNED_CONTEXT ( ( #172 ) ) GLOBAL_UNIT_ASSIGNED_CONTEXT ( ( #206, #114, #138 ) ) REPRESENTATION_CONTEXT ( 'NONE', 'WORKASPACE' ) );
#160 = AXIS2_PLACEMENT_3D ( 'NONE', #296, #86, #65 ) ;
#161 = DIRECTION ( 'NONE',  ( -0.000000000000000000, -1.000000000000000000, -0.000000000000000000 ) ) ;
#162 =( CONVERSION_BASED_UNIT ( 'INCH', #11 ) LENGTH_UNIT ( ) NAMED_UNIT ( #258 ) );
#163 = PLANE ( 'NONE',  #268 ) ;
#164 = CARTESIAN_POINT ( 'NONE',  ( -0.1249999999999992506, 3.000000000000000444, 0.000000000000000000 ) ) ;
#165 = ADVANCED_FACE ( 'NONE', ( #141 ), #83, .T. ) ;
#166 = PRESENTATION_STYLE_ASSIGNMENT (( #189 ) ) ;
#167 = DIMENSIONAL_EXPONENTS ( 1.000000000000000000, 0.000000000000000000, 0.000000000000000000, 0.000000000000000000, 0.000000000000000000, 0.000000000000000000, 0.000000000000000000 ) ;
#168 = PRESENTATION_LAYER_ASSIGNMENT (  '', '', ( #13 ) ) ;
#169 = AXIS2_PLACEMENT_3D ( 'NONE', #20, #207, #299 ) ;
#170 = CARTESIAN_POINT ( 'NONE',  ( 3.673940397442060361E-16, 3.000000000000000444, 0.000000000000000000 ) ) ;
#171 = PRODUCT_DEFINITION ( 'UNKNOWN', '', #144, #271 ) ;
#172 = UNCERTAINTY_MEASURE_WITH_UNIT (LENGTH_MEASURE( 1.000000000000000082E-05 ), #206, 'distance_accuracy_value', 'NONE');
#173 = DIMENSIONAL_EXPONENTS ( 1.000000000000000000, 0.000000000000000000, 0.000000000000000000, 0.000000000000000000, 0.000000000000000000, 0.000000000000000000, 0.000000000000000000 ) ;
#174 = FILL_AREA_STYLE ('',( #243 ) ) ;
#175 = UNCERTAINTY_MEASURE_WITH_UNIT (LENGTH_MEASURE( 1.000000000000000082E-05 ), #52, 'distance_accuracy_value', 'NONE');
#176 = CARTESIAN_POINT ( 'NONE',  ( 0.1250000000000000278, 3.000000000000000444, 1.530808498934190585E-17 ) ) ;
#177 = MECHANICAL_DESIGN_GEOMETRIC_PRESENTATION_REPRESENTATION (  '', ( #1 ), #159 ) ;
#178 = SURFACE_STYLE_FILL_AREA ( #33 ) ;
#179 = AXIS2_PLACEMENT_3D ( 'NONE', #126, #237, #45 ) ;
#180 = FILL_AREA_STYLE_COLOUR ( '', #292 ) ;
#181 = ORIENTED_EDGE ( 'NONE', *, *, #230, .T. ) ;
#182 = CARTESIAN_POINT ( 'NONE',  ( 0.1250000000000000278, 1.500000000000000222, 1.530808498934190585E-17 ) ) ;
#183 = DIRECTION ( 'NONE',  ( 2.449293598294706907E-16, 1.000000000000000000, -0.000000000000000000 ) ) ;
#184 = PRESENTATION_LAYER_ASSIGNMENT (  '', '', ( #227 ) ) ;
#185 =( GEOMETRIC_REPRESENTATION_CONTEXT ( 3 ) GLOBAL_UNCERTAINTY_ASSIGNED_CONTEXT ( ( #101 ) ) GLOBAL_UNIT_ASSIGNED_CONTEXT ( ( #231, #119, #74 ) ) REPRESENTATION_CONTEXT ( 'NONE', 'WORKASPACE' ) );
#186 = ORIENTED_EDGE ( 'NONE', *, *, #295, .F. ) ;
#187 = CYLINDRICAL_SURFACE ( 'NONE', #179, 0.1249999999999998057 ) ;
#188 = EDGE_CURVE ( 'NONE', #18, #297, #84, .T. ) ;
#189 = SURFACE_STYLE_USAGE ( .BOTH. , #42 ) ;
#190 = VERTEX_POINT ( 'NONE', #182 ) ;
#191 = PRESENTATION_STYLE_ASSIGNMENT (( #147 ) ) ;
#192 = VECTOR ( 'NONE', #220, 39.37007874015748143 ) ;
#193 = CARTESIAN_POINT ( 'NONE',  ( 0.000000000000000000, 0.000000000000000000, -0.1250000000000000000 ) ) ;
#194 = AXIS2_PLACEMENT_3D ( 'NONE', #88, #183, #301 ) ;
#195 = CIRCLE ( 'NONE', #194, 0.1250000000000000000 ) ;
#196 = ADVANCED_FACE ( 'NONE', ( #204 ), #291, .F. ) ;
#197 = PRESENTATION_STYLE_ASSIGNMENT (( #215 ) ) ;
#198 = PLANE ( 'NONE',  #103 ) ;
#199 = CLOSED_SHELL ( 'NONE', ( #26, #196, #10, #278 ) ) ;
#200 = CIRCLE ( 'NONE', #59, 0.1249999999999996253 ) ;
#201 = FACE_OUTER_BOUND ( 'NONE', #75, .T. ) ;
#202 =( LENGTH_UNIT ( ) NAMED_UNIT ( * ) SI_UNIT ( $, .METRE. ) );
#203 = ORIENTED_EDGE ( 'NONE', *, *, #81, .T. ) ;
#204 = FACE_OUTER_BOUND ( 'NONE', #121, .T. ) ;
#205 =( GEOMETRIC_REPRESENTATION_CONTEXT ( 3 ) GLOBAL_UNCERTAINTY_ASSIGNED_CONTEXT ( ( #175 ) ) GLOBAL_UNIT_ASSIGNED_CONTEXT ( ( #52, #9, #240 ) ) REPRESENTATION_CONTEXT ( 'NONE', 'WORKASPACE' ) );
#206 =( CONVERSION_BASED_UNIT ( 'INCH', #249 ) LENGTH_UNIT ( ) NAMED_UNIT ( #167 ) );
#207 = DIRECTION ( 'NONE',  ( -0.000000000000000000, -1.000000000000000000, -0.000000000000000000 ) ) ;
#208 = CYLINDRICAL_SURFACE ( 'NONE', #263, 0.1249999999999998057 ) ;
#209 = CARTESIAN_POINT ( 'NONE',  ( 1.530808498934191509E-17, 0.000000000000000000, 0.1250000000000000000 ) ) ;
#210 = CIRCLE ( 'NONE', #40, 0.1250000000000000000 ) ;
#211 = LENGTH_MEASURE_WITH_UNIT ( LENGTH_MEASURE( 0.02539999999999999897 ), #146 );
#212 = ORIENTED_EDGE ( 'NONE', *, *, #140, .F. ) ;
#213 = DIRECTION ( 'NONE',  ( -1.000000000000000000, 0.000000000000000000, 0.000000000000000000 ) ) ;
#214 = PRODUCT_RELATED_PRODUCT_CATEGORY ( 'part', '', ( #7 ) ) ;
#215 = SURFACE_STYLE_USAGE ( .BOTH. , #79 ) ;
#216 = CARTESIAN_POINT ( 'NONE',  ( 0.000000000000000000, 0.000000000000000000, -0.1250000000000000000 ) ) ;
#217 = LINE ( 'NONE', #216, #192 ) ;
#218 = FILL_AREA_STYLE_COLOUR ( '', #115 ) ;
#219 = MECHANICAL_DESIGN_GEOMETRIC_PRESENTATION_REPRESENTATION (  '', ( #19 ), #185 ) ;
#220 = DIRECTION ( 'NONE',  ( -0.000000000000000000, -1.000000000000000000, -0.000000000000000000 ) ) ;
#221 = MANIFOLD_SOLID_BREP ( 'Revolve - Tool Body (Straight Shanked)', #199 ) ;
#222 = COLOUR_RGB ( '',0.7921568627450980005, 0.8196078431372548767, 0.9333333333333333481 ) ;
#223 = COLOUR_RGB ( '',1.000000000000000000, 0.000000000000000000, 0.000000000000000000 ) ;
#224 = CARTESIAN_POINT ( 'NONE',  ( 0.000000000000000000, 0.000000000000000000, 0.000000000000000000 ) ) ;
#225 = ORIENTED_EDGE ( 'NONE', *, *, #124, .T. ) ;
#226 = ORIENTED_EDGE ( 'NONE', *, *, #140, .T. ) ;
#227 = STYLED_ITEM ( 'NONE', ( #4 ), #127 ) ;
#228 = FILL_AREA_STYLE_COLOUR ( '', #223 ) ;
#229 = LINE ( 'NONE', #279, #108 ) ;
#230 = EDGE_CURVE ( 'NONE', #113, #61, #200, .T. ) ;
#231 =( CONVERSION_BASED_UNIT ( 'INCH', #211 ) LENGTH_UNIT ( ) NAMED_UNIT ( #173 ) );
#232 = AXIS2_PLACEMENT_3D ( 'NONE', #253, #49, #99 ) ;
#233 =( NAMED_UNIT ( * ) SI_UNIT ( $, .STERADIAN. ) SOLID_ANGLE_UNIT ( ) );
#234 = CIRCLE ( 'NONE', #248, 0.1249999999999996253 ) ;
#235 = ORIENTED_EDGE ( 'NONE', *, *, #53, .T. ) ;
#236 = FILL_AREA_STYLE ('',( #228 ) ) ;
#237 = DIRECTION ( 'NONE',  ( 2.449293598294706907E-16, 1.000000000000000000, -0.000000000000000000 ) ) ;
#238 = MECHANICAL_DESIGN_GEOMETRIC_PRESENTATION_REPRESENTATION (  '', ( #13 ), #274 ) ;
#239 = APPLICATION_PROTOCOL_DEFINITION ( 'draft international standard', 'automotive_design', 1998, #285 ) ;
#240 =( NAMED_UNIT ( * ) SI_UNIT ( $, .STERADIAN. ) SOLID_ANGLE_UNIT ( ) );
#241 =( NAMED_UNIT ( * ) PLANE_ANGLE_UNIT ( ) SI_UNIT ( $, .RADIAN. ) );
#242 =( NAMED_UNIT ( * ) PLANE_ANGLE_UNIT ( ) SI_UNIT ( $, .RADIAN. ) );
#243 = FILL_AREA_STYLE_COLOUR ( '', #51 ) ;
#244 = PRESENTATION_LAYER_ASSIGNMENT (  '', '', ( #2 ) ) ;
#245 = EDGE_CURVE ( 'NONE', #61, #113, #234, .T. ) ;
#246 = CARTESIAN_POINT ( 'NONE',  ( 0.000000000000000000, 0.000000000000000000, 0.000000000000000000 ) ) ;
#247 = CLOSED_SHELL ( 'NONE', ( #165, #134, #289, #117 ) ) ;
#248 = AXIS2_PLACEMENT_3D ( 'NONE', #305, #125, #213 ) ;
#249 = LENGTH_MEASURE_WITH_UNIT ( LENGTH_MEASURE( 0.02539999999999999897 ), #272 );
#250 = EDGE_LOOP ( 'NONE', ( #139, #38, #41, #92 ) ) ;
#251 = AXIS2_PLACEMENT_3D ( 'NONE', #224, #161, #15 ) ;
#252 = DIRECTION ( 'NONE',  ( -1.000000000000000000, 0.000000000000000000, 0.000000000000000000 ) ) ;
#253 = CARTESIAN_POINT ( 'NONE',  ( -6.065921084684207584E-32, 1.500000000000000222, 0.000000000000000000 ) ) ;
#254 = VERTEX_POINT ( 'NONE', #255 ) ;
#255 = CARTESIAN_POINT ( 'NONE',  ( 0.000000000000000000, 1.500000000000000222, -0.1250000000000000000 ) ) ;
#256 = PRESENTATION_LAYER_ASSIGNMENT (  '', '', ( #19 ) ) ;
#257 = DIRECTION ( 'NONE',  ( -1.000000000000000000, 0.000000000000000000, 0.000000000000000000 ) ) ;
#258 = DIMENSIONAL_EXPONENTS ( 1.000000000000000000, 0.000000000000000000, 0.000000000000000000, 0.000000000000000000, 0.000000000000000000, 0.000000000000000000, 0.000000000000000000 ) ;
#259 = ORIENTED_EDGE ( 'NONE', *, *, #188, .F. ) ;
#260 = UNCERTAINTY_MEASURE_WITH_UNIT (LENGTH_MEASURE( 1.000000000000000082E-05 ), #162, 'distance_accuracy_value', 'NONE');
#261 = LENGTH_MEASURE_WITH_UNIT ( LENGTH_MEASURE( 0.02539999999999999897 ), #156 );
#262 = DIMENSIONAL_EXPONENTS ( 1.000000000000000000, 0.000000000000000000, 0.000000000000000000, 0.000000000000000000, 0.000000000000000000, 0.000000000000000000, 0.000000000000000000 ) ;
#263 = AXIS2_PLACEMENT_3D ( 'NONE', #170, #68, #257 ) ;
#264 = LENGTH_MEASURE_WITH_UNIT ( LENGTH_MEASURE( 0.02539999999999999897 ), #157 );
#265 = SURFACE_SIDE_STYLE ('',( #106 ) ) ;
#266 = LENGTH_MEASURE_WITH_UNIT ( LENGTH_MEASURE( 0.02539999999999999897 ), #105 );
#267 = UNCERTAINTY_MEASURE_WITH_UNIT (LENGTH_MEASURE( 1.000000000000000082E-05 ), #55, 'distance_accuracy_value', 'NONE');
#268 = AXIS2_PLACEMENT_3D ( 'NONE', #302, #48, #283 ) ;
#269 = DIRECTION ( 'NONE',  ( -0.000000000000000000, -1.000000000000000000, -0.000000000000000000 ) ) ;
#270 = ADVANCED_BREP_SHAPE_REPRESENTATION ( '83304', ( #127, #221, #31 ), #57 ) ;
#271 = PRODUCT_DEFINITION_CONTEXT ( 'detailed design', #280, 'design' ) ;
#272 =( LENGTH_UNIT ( ) NAMED_UNIT ( * ) SI_UNIT ( $, .METRE. ) );
#273 = SURFACE_STYLE_USAGE ( .BOTH. , #265 ) ;
#274 =( GEOMETRIC_REPRESENTATION_CONTEXT ( 3 ) GLOBAL_UNCERTAINTY_ASSIGNED_CONTEXT ( ( #267 ) ) GLOBAL_UNIT_ASSIGNED_CONTEXT ( ( #55, #241, #3 ) ) REPRESENTATION_CONTEXT ( 'NONE', 'WORKASPACE' ) );
#275 = PRESENTATION_STYLE_ASSIGNMENT (( #62 ) ) ;
#276 = ORIENTED_EDGE ( 'NONE', *, *, #63, .F. ) ;
#277 = EDGE_LOOP ( 'NONE', ( #16, #181 ) ) ;
#278 = ADVANCED_FACE ( 'NONE', ( #22 ), #163, .F. ) ;
#279 = CARTESIAN_POINT ( 'NONE',  ( -0.1249999999999994310, 3.000000000000000444, 0.000000000000000000 ) ) ;
#280 = APPLICATION_CONTEXT ( 'automotive_design' ) ;
#281 = ORIENTED_EDGE ( 'NONE', *, *, #91, .T. ) ;
#282 =( CONVERSION_BASED_UNIT ( 'INCH', #39 ) LENGTH_UNIT ( ) NAMED_UNIT ( #120 ) );
#283 = DIRECTION ( 'NONE',  ( 1.000000000000000000, -2.449293598294706907E-16, 0.000000000000000000 ) ) ;
#284 = CARTESIAN_POINT ( 'NONE',  ( 0.000000000000000000, 1.500000000000000222, 0.000000000000000000 ) ) ;
#285 = APPLICATION_CONTEXT ( 'automotive_design' ) ;
#286 = FACE_OUTER_BOUND ( 'NONE', #96, .T. ) ;
#287 = FILL_AREA_STYLE_COLOUR ( '', #222 ) ;
#288 = AXIS2_PLACEMENT_3D ( 'NONE', #246, #110, #37 ) ;
#289 = ADVANCED_FACE ( 'NONE', ( #71 ), #21, .T. ) ;
#290 = CARTESIAN_POINT ( 'NONE',  ( 0.000000000000000000, 0.000000000000000000, 0.000000000000000000 ) ) ;
#291 = PLANE ( 'NONE',  #160 ) ;
#292 = COLOUR_RGB ( '',0.7921568627450980005, 0.8196078431372548767, 0.9333333333333333481 ) ;
#293 = DIRECTION ( 'NONE',  ( 0.000000000000000000, 1.000000000000000000, 0.000000000000000000 ) ) ;
#294 = ORIENTED_EDGE ( 'NONE', *, *, #124, .F. ) ;
#295 = EDGE_CURVE ( 'NONE', #297, #35, #80, .T. ) ;
#296 = CARTESIAN_POINT ( 'NONE',  ( 3.749399456654646072E-33, 1.500000000000000222, 0.000000000000000000 ) ) ;
#297 = VERTEX_POINT ( 'NONE', #209 ) ;
#298 = CIRCLE ( 'NONE', #232, 0.1250000000000000000 ) ;
#299 = DIRECTION ( 'NONE',  ( 0.000000000000000000, 0.000000000000000000, -1.000000000000000000 ) ) ;
#300 = FACE_OUTER_BOUND ( 'NONE', #250, .T. ) ;
#301 = DIRECTION ( 'NONE',  ( -1.000000000000000000, 0.000000000000000000, 0.000000000000000000 ) ) ;
#302 = CARTESIAN_POINT ( 'NONE',  ( 0.1250000000000000000, 3.000000000000000444, 0.000000000000000000 ) ) ;
#303 = ORIENTED_EDGE ( 'NONE', *, *, #295, .T. ) ;
#304 = EDGE_CURVE ( 'NONE', #190, #67, #195, .T. ) ;
#305 = CARTESIAN_POINT ( 'NONE',  ( 3.673940397442060361E-16, 3.000000000000000444, 0.000000000000000000 ) ) ;
#306 = ORIENTED_EDGE ( 'NONE', *, *, #81, .F. ) ;
#307 = DIRECTION ( 'NONE',  ( -0.000000000000000000, -1.000000000000000000, -0.000000000000000000 ) ) ;
#308 = PRODUCT_DEFINITION_SHAPE ( 'NONE', 'NONE',  #171 ) ;
#309 = FACE_OUTER_BOUND ( 'NONE', #66, .T. ) ;
ENDSEC;
END-ISO-10303-21;
