ISO-10303-21;
HEADER;
FILE_DESCRIPTION (( 'STEP AP214' ),
    '1' );
FILE_NAME ('Micro_SEM-281-04.STEP',
    '2021-09-02T02:42:26',
    ( '' ),
    ( '' ),
    'SwSTEP 2.0',
    'SolidWorks 2020',
    '' );
FILE_SCHEMA (( 'AUTOMOTIVE_DESIGN' ));
ENDSEC;

DATA;
#1 = CARTESIAN_POINT ( 'NONE',  ( 0.1562500000000000000, 1.913510623667739463E-17, 1.984999999999999654 ) ) ;
#2 = FACE_OUTER_BOUND ( 'NONE', #206, .T. ) ;
#3 = CARTESIAN_POINT ( 'NONE',  ( 7.219941242065049268E-17, 0.0000000000000000000, 0.5895529427008547874 ) ) ;
#4 = EDGE_CURVE ( 'NONE', #267, #61, #30, .T. ) ;
#5 = FACE_OUTER_BOUND ( 'NONE', #58, .T. ) ;
#6 = DIRECTION ( 'NONE',  ( -0.0000000000000000000, -0.0000000000000000000, -1.000000000000000000 ) ) ;
#7 = DIRECTION ( 'NONE',  ( -1.000000000000000000, 0.0000000000000000000, 0.0000000000000000000 ) ) ;
#8 = ADVANCED_FACE ( 'NONE', ( #295 ), #55, .T. ) ;
#9 = STYLED_ITEM ( 'NONE', ( #219 ), #248 ) ;
#10 =( LENGTH_UNIT ( ) NAMED_UNIT ( * ) SI_UNIT ( $, .METRE. ) );
#11 = FACE_OUTER_BOUND ( 'NONE', #35, .T. ) ;
#12 = ORIENTED_EDGE ( 'NONE', *, *, #275, .T. ) ;
#13 = FACE_OUTER_BOUND ( 'NONE', #180, .T. ) ;
#14 = DIRECTION ( 'NONE',  ( 1.000000000000000000, 0.0000000000000000000, 0.0000000000000000000 ) ) ;
#15 = DIRECTION ( 'NONE',  ( 0.0000000000000000000, 0.0000000000000000000, -1.000000000000000000 ) ) ;
#16 = AXIS2_PLACEMENT_3D ( 'NONE', #156, #86, #276 ) ;
#17 = CARTESIAN_POINT ( 'NONE',  ( 6.123233995736766036E-17, 0.0000000000000000000, 0.5000000000000000000 ) ) ;
#18 = VERTEX_POINT ( 'NONE', #134 ) ;
#19 = CARTESIAN_POINT ( 'NONE',  ( 0.0000000000000000000, 0.0000000000000000000, 0.0000000000000000000 ) ) ;
#20 = VECTOR ( 'NONE', #119, 39.37007874015748143 ) ;
#21 = DIRECTION ( 'NONE',  ( -1.224646799147353207E-16, -0.0000000000000000000, -1.000000000000000000 ) ) ;
#22 = CYLINDRICAL_SURFACE ( 'NONE', #91, 0.1562500000000000000 ) ;
#23 = EDGE_CURVE ( 'NONE', #101, #282, #247, .T. ) ;
#24 = LINE ( 'NONE', #43, #244 ) ;
#25 = CARTESIAN_POINT ( 'NONE',  ( 0.0000000000000000000, 0.0000000000000000000, 2.000000000000000000 ) ) ;
#26 = AXIS2_PLACEMENT_3D ( 'NONE', #288, #239, #143 ) ;
#27 = EDGE_CURVE ( 'NONE', #56, #282, #77, .T. ) ;
#28 = CARTESIAN_POINT ( 'NONE',  ( 0.0000000000000000000, 0.0000000000000000000, 2.000000000000000000 ) ) ;
#29 = APPLICATION_CONTEXT ( 'automotive_design' ) ;
#30 = CIRCLE ( 'NONE', #38, 0.1562500000000000000 ) ;
#31 = DIRECTION ( 'NONE',  ( 1.000000000000000000, 0.0000000000000000000, 0.0000000000000000000 ) ) ;
#32 = SURFACE_SIDE_STYLE ('',( #240 ) ) ;
#33 = AXIS2_PLACEMENT_3D ( 'NONE', #37, #297, #245 ) ;
#34 = CIRCLE ( 'NONE', #218, 0.1412499999999997646 ) ;
#35 = EDGE_LOOP ( 'NONE', ( #259, #202 ) ) ;
#36 = ORIENTED_EDGE ( 'NONE', *, *, #4, .T. ) ;
#37 = CARTESIAN_POINT ( 'NONE',  ( 2.106553592168149428E-33, 0.0000000000000000000, 1.720131546201577623E-17 ) ) ;
#38 = AXIS2_PLACEMENT_3D ( 'NONE', #222, #15, #42 ) ;
#39 = MECHANICAL_DESIGN_GEOMETRIC_PRESENTATION_REPRESENTATION (  '', ( #227 ), #196 ) ;
#40 = ORIENTED_EDGE ( 'NONE', *, *, #115, .T. ) ;
#41 = EDGE_CURVE ( 'NONE', #267, #271, #131, .T. ) ;
#42 = DIRECTION ( 'NONE',  ( 1.000000000000000000, 0.0000000000000000000, 0.0000000000000000000 ) ) ;
#43 = CARTESIAN_POINT ( 'NONE',  ( 0.1404594000000000953, 0.0000000000000000000, 0.5000000000000000000 ) ) ;
#44 = CARTESIAN_POINT ( 'NONE',  ( 0.1404594000000000953, 0.0000000000000000000, 0.5000000000000000000 ) ) ;
#45 = DIRECTION ( 'NONE',  ( -0.7071067811865475727, 0.0000000000000000000, -0.7071067811865474617 ) ) ;
#46 = FILL_AREA_STYLE_COLOUR ( '', #195 ) ;
#47 = CYLINDRICAL_SURFACE ( 'NONE', #102, 0.1562500000000000000 ) ;
#48 = COLOUR_RGB ( '',0.7921568627450980005, 0.8196078431372548767, 0.9333333333333333481 ) ;
#49 =( LENGTH_UNIT ( ) NAMED_UNIT ( * ) SI_UNIT ( $, .METRE. ) );
#50 = CIRCLE ( 'NONE', #279, 0.1562500000000000000 ) ;
#51 = CIRCLE ( 'NONE', #167, 0.1562500000000000000 ) ;
#52 = DIRECTION ( 'NONE',  ( 0.0000000000000000000, 0.0000000000000000000, 1.000000000000000000 ) ) ;
#53 = VERTEX_POINT ( 'NONE', #229 ) ;
#54 = ORIENTED_EDGE ( 'NONE', *, *, #182, .F. ) ;
#55 = CONICAL_SURFACE ( 'NONE', #294, 0.1404594000000000120, 0.1745329251994338637 ) ;
#56 = VERTEX_POINT ( 'NONE', #129 ) ;
#57 = ORIENTED_EDGE ( 'NONE', *, *, #121, .F. ) ;
#58 = EDGE_LOOP ( 'NONE', ( #75, #12, #268, #54 ) ) ;
#59 = AXIS2_PLACEMENT_3D ( 'NONE', #92, #191, #65 ) ;
#60 = DIRECTION ( 'NONE',  ( -1.000000000000000000, 0.0000000000000000000, 1.224646799147353207E-16 ) ) ;
#61 = VERTEX_POINT ( 'NONE', #1 ) ;
#62 = PRODUCT_DEFINITION ( 'UNKNOWN', '', #173, #98 ) ;
#63 = LINE ( 'NONE', #66, #145 ) ;
#64 = DIRECTION ( 'NONE',  ( -0.0000000000000000000, -0.0000000000000000000, -1.000000000000000000 ) ) ;
#65 = DIRECTION ( 'NONE',  ( 1.000000000000000000, 0.0000000000000000000, -0.0000000000000000000 ) ) ;
#66 = CARTESIAN_POINT ( 'NONE',  ( -0.1412499999999997646, 0.0000000000000000000, 2.000000000000000000 ) ) ;
#67 = ORIENTED_EDGE ( 'NONE', *, *, #121, .T. ) ;
#68 = AXIS2_PLACEMENT_3D ( 'NONE', #19, #299, #60 ) ;
#69 = DIMENSIONAL_EXPONENTS ( 1.000000000000000000, 0.0000000000000000000, 0.0000000000000000000, 0.0000000000000000000, 0.0000000000000000000, 0.0000000000000000000, 0.0000000000000000000 ) ;
#70 = LINE ( 'NONE', #149, #236 ) ;
#71 =( GEOMETRIC_REPRESENTATION_CONTEXT ( 3 ) GLOBAL_UNCERTAINTY_ASSIGNED_CONTEXT ( ( #258 ) ) GLOBAL_UNIT_ASSIGNED_CONTEXT ( ( #170, #144, #242 ) ) REPRESENTATION_CONTEXT ( 'NONE', 'WORKASPACE' ) );
#72 = LENGTH_MEASURE_WITH_UNIT ( LENGTH_MEASURE( 0.02539999999999999897 ), #49 );
#73 = EDGE_LOOP ( 'NONE', ( #36, #192, #120, #226 ) ) ;
#74 = ADVANCED_FACE ( 'NONE', ( #13 ), #208, .T. ) ;
#75 = ORIENTED_EDGE ( 'NONE', *, *, #110, .F. ) ;
#76 = DIRECTION ( 'NONE',  ( 0.0000000000000000000, 0.0000000000000000000, -1.000000000000000000 ) ) ;
#77 = CIRCLE ( 'NONE', #33, 0.1404594000000000120 ) ;
#78 = ORIENTED_EDGE ( 'NONE', *, *, #228, .F. ) ;
#79 =( CONVERSION_BASED_UNIT ( 'INCH', #105 ) LENGTH_UNIT ( ) NAMED_UNIT ( #187 ) );
#80 = EDGE_CURVE ( 'NONE', #53, #18, #189, .T. ) ;
#81 = ORIENTED_EDGE ( 'NONE', *, *, #23, .T. ) ;
#82 = PRODUCT_DEFINITION_SHAPE ( 'NONE', 'NONE',  #62 ) ;
#83 = APPLICATION_PROTOCOL_DEFINITION ( 'draft international standard', 'automotive_design', 1998, #29 ) ;
#84 = ORIENTED_EDGE ( 'NONE', *, *, #286, .T. ) ;
#85 = CIRCLE ( 'NONE', #26, 0.1404594000000000120 ) ;
#86 = DIRECTION ( 'NONE',  ( 0.0000000000000000000, 0.0000000000000000000, 1.000000000000000000 ) ) ;
#87 = UNCERTAINTY_MEASURE_WITH_UNIT (LENGTH_MEASURE( 1.000000000000000082E-05 ), #262, 'distance_accuracy_value', 'NONE');
#88 = ADVANCED_FACE ( 'NONE', ( #204 ), #255, .T. ) ;
#89 = PLANE ( 'NONE',  #59 ) ;
#90 = CARTESIAN_POINT ( 'NONE',  ( 0.1562500000000000000, 1.913510623667739463E-17, 2.000000000000000000 ) ) ;
#91 = AXIS2_PLACEMENT_3D ( 'NONE', #253, #64, #257 ) ;
#92 = CARTESIAN_POINT ( 'NONE',  ( 0.0000000000000000000, 0.0000000000000000000, 0.0000000000000000000 ) ) ;
#93 = DIRECTION ( 'NONE',  ( -1.224646799147353207E-16, -0.0000000000000000000, -1.000000000000000000 ) ) ;
#94 = UNCERTAINTY_MEASURE_WITH_UNIT (LENGTH_MEASURE( 1.000000000000000082E-05 ), #79, 'distance_accuracy_value', 'NONE');
#95 = ADVANCED_FACE ( 'NONE', ( #234 ), #225, .T. ) ;
#96 = ADVANCED_BREP_SHAPE_REPRESENTATION ( 'Micro_SEM-281-04', ( #248, #190 ), #128 ) ;
#97 = CARTESIAN_POINT ( 'NONE',  ( 0.1404594000000000120, 1.720131546201577623E-17, -1.720131546201577623E-17 ) ) ;
#98 = PRODUCT_DEFINITION_CONTEXT ( 'detailed design', #29, 'design' ) ;
#99 = AXIS2_PLACEMENT_3D ( 'NONE', #118, #93, #216 ) ;
#100 = SURFACE_SIDE_STYLE ('',( #235 ) ) ;
#101 = VERTEX_POINT ( 'NONE', #231 ) ;
#102 = AXIS2_PLACEMENT_3D ( 'NONE', #141, #256, #7 ) ;
#103 = PLANE ( 'NONE',  #273 ) ;
#104 = ORIENTED_EDGE ( 'NONE', *, *, #228, .T. ) ;
#105 = LENGTH_MEASURE_WITH_UNIT ( LENGTH_MEASURE( 0.02539999999999999897 ), #296 );
#106 = ORIENTED_EDGE ( 'NONE', *, *, #142, .F. ) ;
#107 = SHAPE_DEFINITION_REPRESENTATION ( #82, #96 ) ;
#108 = DIRECTION ( 'NONE',  ( 1.000000000000000000, 0.0000000000000000000, 0.0000000000000000000 ) ) ;
#109 = AXIS2_PLACEMENT_3D ( 'NONE', #213, #138, #260 ) ;
#110 = EDGE_CURVE ( 'NONE', #61, #289, #135, .T. ) ;
#111 = PRODUCT_CONTEXT ( 'NONE', #185, 'mechanical' ) ;
#112 = CARTESIAN_POINT ( 'NONE',  ( -0.1404594000000000120, 0.0000000000000000000, 1.720131546201577623E-17 ) ) ;
#113 = ORIENTED_EDGE ( 'NONE', *, *, #27, .T. ) ;
#114 = ORIENTED_EDGE ( 'NONE', *, *, #203, .T. ) ;
#115 = EDGE_CURVE ( 'NONE', #271, #289, #51, .T. ) ;
#116 = DIRECTION ( 'NONE',  ( -1.000000000000000000, 0.0000000000000000000, 0.0000000000000000000 ) ) ;
#117 = DIMENSIONAL_EXPONENTS ( 1.000000000000000000, 0.0000000000000000000, 0.0000000000000000000, 0.0000000000000000000, 0.0000000000000000000, 0.0000000000000000000, 0.0000000000000000000 ) ;
#118 = CARTESIAN_POINT ( 'NONE',  ( 6.123233995736766036E-17, 0.0000000000000000000, 0.5000000000000000000 ) ) ;
#119 = DIRECTION ( 'NONE',  ( -1.224646799147353207E-16, -0.0000000000000000000, -1.000000000000000000 ) ) ;
#120 = ORIENTED_EDGE ( 'NONE', *, *, #115, .F. ) ;
#121 = EDGE_CURVE ( 'NONE', #18, #61, #165, .T. ) ;
#122 = DIRECTION ( 'NONE',  ( -1.224646799147353207E-16, -0.0000000000000000000, -1.000000000000000000 ) ) ;
#123 = LINE ( 'NONE', #97, #20 ) ;
#124 = PRODUCT_RELATED_PRODUCT_CATEGORY ( 'part', '', ( #132 ) ) ;
#125 = APPLICATION_PROTOCOL_DEFINITION ( 'draft international standard', 'automotive_design', 1998, #185 ) ;
#126 = CONICAL_SURFACE ( 'NONE', #290, 0.1412499999999997646, 0.7853981633974482790 ) ;
#127 = DIRECTION ( 'NONE',  ( 1.000000000000000000, 0.0000000000000000000, -0.0000000000000000000 ) ) ;
#128 =( GEOMETRIC_REPRESENTATION_CONTEXT ( 3 ) GLOBAL_UNCERTAINTY_ASSIGNED_CONTEXT ( ( #87 ) ) GLOBAL_UNIT_ASSIGNED_CONTEXT ( ( #262, #201, #217 ) ) REPRESENTATION_CONTEXT ( 'NONE', 'WORKASPACE' ) );
#129 = CARTESIAN_POINT ( 'NONE',  ( 0.1404594000000000120, 1.720131546201577623E-17, 0.0000000000000000000 ) ) ;
#130 = VERTEX_POINT ( 'NONE', #44 ) ;
#131 = LINE ( 'NONE', #154, #232 ) ;
#132 = PRODUCT ( 'Micro_SEM-281-04', 'Micro_SEM-281-04', '', ( #111 ) ) ;
#133 = ORIENTED_EDGE ( 'NONE', *, *, #281, .T. ) ;
#134 = CARTESIAN_POINT ( 'NONE',  ( 0.1412499999999997646, 1.821662113731686019E-17, 2.000000000000000000 ) ) ;
#135 = LINE ( 'NONE', #90, #249 ) ;
#136 = CIRCLE ( 'NONE', #183, 0.1404594000000000120 ) ;
#137 = CARTESIAN_POINT ( 'NONE',  ( 0.1412499999999997646, 1.729813603795632883E-17, 2.000000000000000000 ) ) ;
#138 = DIRECTION ( 'NONE',  ( 1.224646799147353207E-16, 0.0000000000000000000, 1.000000000000000000 ) ) ;
#139 = EDGE_CURVE ( 'NONE', #130, #56, #123, .T. ) ;
#140 = FILL_AREA_STYLE ('',( #46 ) ) ;
#141 = CARTESIAN_POINT ( 'NONE',  ( 0.0000000000000000000, 0.0000000000000000000, 2.000000000000000000 ) ) ;
#142 = EDGE_CURVE ( 'NONE', #130, #101, #171, .T. ) ;
#143 = DIRECTION ( 'NONE',  ( -1.000000000000000000, 0.0000000000000000000, 1.224646799147353207E-16 ) ) ;
#144 =( NAMED_UNIT ( * ) PLANE_ANGLE_UNIT ( ) SI_UNIT ( $, .RADIAN. ) );
#145 = VECTOR ( 'NONE', #45, 39.37007874015748143 ) ;
#146 = CARTESIAN_POINT ( 'NONE',  ( -0.1562499999999999445, 0.0000000000000000000, 0.5895529427008547874 ) ) ;
#147 = ORIENTED_EDGE ( 'NONE', *, *, #162, .F. ) ;
#148 = ADVANCED_FACE ( 'NONE', ( #277 ), #126, .T. ) ;
#149 = CARTESIAN_POINT ( 'NONE',  ( -0.1404593999999999565, 1.720131546201577623E-17, 0.5000000000000000000 ) ) ;
#150 = ORIENTED_EDGE ( 'NONE', *, *, #207, .F. ) ;
#151 = ORIENTED_EDGE ( 'NONE', *, *, #281, .F. ) ;
#152 = ORIENTED_EDGE ( 'NONE', *, *, #139, .F. ) ;
#153 =( NAMED_UNIT ( * ) PLANE_ANGLE_UNIT ( ) SI_UNIT ( $, .RADIAN. ) );
#154 = CARTESIAN_POINT ( 'NONE',  ( -0.1562500000000000000, 0.0000000000000000000, 2.000000000000000000 ) ) ;
#155 = AXIS2_PLACEMENT_3D ( 'NONE', #291, #198, #31 ) ;
#156 = CARTESIAN_POINT ( 'NONE',  ( 0.0000000000000000000, 0.0000000000000000000, 2.000000000000000000 ) ) ;
#157 = DIRECTION ( 'NONE',  ( 1.000000000000000000, 0.0000000000000000000, 0.0000000000000000000 ) ) ;
#158 = DIRECTION ( 'NONE',  ( 0.0000000000000000000, 0.0000000000000000000, 1.000000000000000000 ) ) ;
#159 = VECTOR ( 'NONE', #272, 39.37007874015748143 ) ;
#160 = PRESENTATION_LAYER_ASSIGNMENT (  '', '', ( #227 ) ) ;
#161 = DIRECTION ( 'NONE',  ( -1.000000000000000000, 0.0000000000000000000, 1.224646799147353207E-16 ) ) ;
#162 = EDGE_CURVE ( 'NONE', #101, #130, #136, .T. ) ;
#163 = CARTESIAN_POINT ( 'NONE',  ( -0.1562500000000000000, 0.0000000000000000000, 1.984999999999999654 ) ) ;
#164 = ORIENTED_EDGE ( 'NONE', *, *, #275, .F. ) ;
#165 = LINE ( 'NONE', #137, #285 ) ;
#166 = ADVANCED_FACE ( 'NONE', ( #5 ), #47, .T. ) ;
#167 = AXIS2_PLACEMENT_3D ( 'NONE', #215, #21, #254 ) ;
#168 = CARTESIAN_POINT ( 'NONE',  ( 0.1562500000000000833, 1.913510623667740080E-17, 0.5895529427008547874 ) ) ;
#169 = FILL_AREA_STYLE ('',( #221 ) ) ;
#170 =( CONVERSION_BASED_UNIT ( 'INCH', #72 ) LENGTH_UNIT ( ) NAMED_UNIT ( #69 ) );
#171 = CIRCLE ( 'NONE', #99, 0.1404594000000000120 ) ;
#172 = DIRECTION ( 'NONE',  ( -0.1736481776669311639, 2.126576849575783008E-17, 0.9848077530122080203 ) ) ;
#173 = PRODUCT_DEFINITION_FORMATION_WITH_SPECIFIED_SOURCE ( 'ANY', '', #132, .NOT_KNOWN. ) ;
#174 = ORIENTED_EDGE ( 'NONE', *, *, #162, .T. ) ;
#175 = ADVANCED_FACE ( 'NONE', ( #238 ), #283, .T. ) ;
#176 = DIRECTION ( 'NONE',  ( -1.000000000000000000, 0.0000000000000000000, 0.0000000000000000000 ) ) ;
#177 = AXIS2_PLACEMENT_3D ( 'NONE', #293, #76, #176 ) ;
#178 = DIRECTION ( 'NONE',  ( 0.0000000000000000000, 0.0000000000000000000, 1.000000000000000000 ) ) ;
#179 = ORIENTED_EDGE ( 'NONE', *, *, #203, .F. ) ;
#180 = EDGE_LOOP ( 'NONE', ( #152, #243, #81, #270 ) ) ;
#181 = ORIENTED_EDGE ( 'NONE', *, *, #139, .T. ) ;
#182 = EDGE_CURVE ( 'NONE', #289, #271, #50, .T. ) ;
#183 = AXIS2_PLACEMENT_3D ( 'NONE', #186, #122, #280 ) ;
#184 = ORIENTED_EDGE ( 'NONE', *, *, #23, .F. ) ;
#185 = APPLICATION_CONTEXT ( 'automotive_design' ) ;
#186 = CARTESIAN_POINT ( 'NONE',  ( 6.123233995736766036E-17, 0.0000000000000000000, 0.5000000000000000000 ) ) ;
#187 = DIMENSIONAL_EXPONENTS ( 1.000000000000000000, 0.0000000000000000000, 0.0000000000000000000, 0.0000000000000000000, 0.0000000000000000000, 0.0000000000000000000, 0.0000000000000000000 ) ;
#188 = DIRECTION ( 'NONE',  ( 0.0000000000000000000, 0.0000000000000000000, -1.000000000000000000 ) ) ;
#189 = CIRCLE ( 'NONE', #16, 0.1412499999999997646 ) ;
#190 = AXIS2_PLACEMENT_3D ( 'NONE', #223, #178, #14 ) ;
#191 = DIRECTION ( 'NONE',  ( 0.0000000000000000000, 0.0000000000000000000, 1.000000000000000000 ) ) ;
#192 = ORIENTED_EDGE ( 'NONE', *, *, #110, .T. ) ;
#193 = DIRECTION ( 'NONE',  ( 0.7071067811865475727, 8.659560562354932858E-17, -0.7071067811865474617 ) ) ;
#194 = CARTESIAN_POINT ( 'NONE',  ( 0.0000000000000000000, 0.0000000000000000000, 0.0000000000000000000 ) ) ;
#195 = COLOUR_RGB ( '',0.7921568627450980005, 0.8196078431372548767, 0.9333333333333333481 ) ;
#196 =( GEOMETRIC_REPRESENTATION_CONTEXT ( 3 ) GLOBAL_UNCERTAINTY_ASSIGNED_CONTEXT ( ( #94 ) ) GLOBAL_UNIT_ASSIGNED_CONTEXT ( ( #79, #153, #298 ) ) REPRESENTATION_CONTEXT ( 'NONE', 'WORKASPACE' ) );
#197 = SURFACE_STYLE_USAGE ( .BOTH. , #32 ) ;
#198 = DIRECTION ( 'NONE',  ( 0.0000000000000000000, 0.0000000000000000000, -1.000000000000000000 ) ) ;
#199 = ORIENTED_EDGE ( 'NONE', *, *, #80, .F. ) ;
#200 = LENGTH_MEASURE_WITH_UNIT ( LENGTH_MEASURE( 0.02539999999999999897 ), #10 );
#201 =( NAMED_UNIT ( * ) PLANE_ANGLE_UNIT ( ) SI_UNIT ( $, .RADIAN. ) );
#202 = ORIENTED_EDGE ( 'NONE', *, *, #207, .T. ) ;
#203 = EDGE_CURVE ( 'NONE', #53, #267, #63, .T. ) ;
#204 = FACE_OUTER_BOUND ( 'NONE', #224, .T. ) ;
#205 = DIRECTION ( 'NONE',  ( 1.224646799147353207E-16, 0.0000000000000000000, 1.000000000000000000 ) ) ;
#206 = EDGE_LOOP ( 'NONE', ( #133, #113 ) ) ;
#207 = EDGE_CURVE ( 'NONE', #18, #53, #34, .T. ) ;
#208 = CYLINDRICAL_SURFACE ( 'NONE', #68, 0.1404594000000000120 ) ;
#209 = ORIENTED_EDGE ( 'NONE', *, *, #182, .T. ) ;
#210 = DIRECTION ( 'NONE',  ( 0.1736481776669313581, 0.0000000000000000000, 0.9848077530122077983 ) ) ;
#211 = ADVANCED_FACE ( 'NONE', ( #233 ), #22, .T. ) ;
#212 = DIRECTION ( 'NONE',  ( -1.224646799147353207E-16, -0.0000000000000000000, -1.000000000000000000 ) ) ;
#213 = CARTESIAN_POINT ( 'NONE',  ( 6.123233995736766036E-17, 0.0000000000000000000, 0.5000000000000000000 ) ) ;
#214 = EDGE_LOOP ( 'NONE', ( #174, #181, #151, #184 ) ) ;
#215 = CARTESIAN_POINT ( 'NONE',  ( 7.219941242065049268E-17, 0.0000000000000000000, 0.5895529427008547874 ) ) ;
#216 = DIRECTION ( 'NONE',  ( -1.000000000000000000, 0.0000000000000000000, 0.0000000000000000000 ) ) ;
#217 =( NAMED_UNIT ( * ) SI_UNIT ( $, .STERADIAN. ) SOLID_ANGLE_UNIT ( ) );
#218 = AXIS2_PLACEMENT_3D ( 'NONE', #25, #158, #157 ) ;
#219 = PRESENTATION_STYLE_ASSIGNMENT (( #264 ) ) ;
#220 = CIRCLE ( 'NONE', #155, 0.1562500000000000000 ) ;
#221 = FILL_AREA_STYLE_COLOUR ( '', #48 ) ;
#222 = CARTESIAN_POINT ( 'NONE',  ( 0.0000000000000000000, 0.0000000000000000000, 1.984999999999999654 ) ) ;
#223 = CARTESIAN_POINT ( 'NONE',  ( 0.0000000000000000000, 0.0000000000000000000, 0.0000000000000000000 ) ) ;
#224 = EDGE_LOOP ( 'NONE', ( #57, #199, #114, #164 ) ) ;
#225 = CONICAL_SURFACE ( 'NONE', #109, 0.1404594000000000120, 0.1745329251994338637 ) ;
#226 = ORIENTED_EDGE ( 'NONE', *, *, #41, .F. ) ;
#227 = STYLED_ITEM ( 'NONE', ( #287 ), #96 ) ;
#228 = EDGE_CURVE ( 'NONE', #130, #289, #24, .T. ) ;
#229 = CARTESIAN_POINT ( 'NONE',  ( -0.1412499999999997646, 0.0000000000000000000, 2.000000000000000000 ) ) ;
#230 = EDGE_LOOP ( 'NONE', ( #251, #106, #104, #209 ) ) ;
#231 = CARTESIAN_POINT ( 'NONE',  ( -0.1404593999999999565, 1.816821084934658389E-17, 0.5000000000000000000 ) ) ;
#232 = VECTOR ( 'NONE', #250, 39.37007874015748143 ) ;
#233 = FACE_OUTER_BOUND ( 'NONE', #73, .T. ) ;
#234 = FACE_OUTER_BOUND ( 'NONE', #246, .T. ) ;
#235 = SURFACE_STYLE_FILL_AREA ( #140 ) ;
#236 = VECTOR ( 'NONE', #172, 39.37007874015747433 ) ;
#237 = ADVANCED_FACE ( 'NONE', ( #2 ), #89, .F. ) ;
#238 = FACE_OUTER_BOUND ( 'NONE', #214, .T. ) ;
#239 = DIRECTION ( 'NONE',  ( -1.224646799147353207E-16, -0.0000000000000000000, -1.000000000000000000 ) ) ;
#240 = SURFACE_STYLE_FILL_AREA ( #169 ) ;
#241 = AXIS2_PLACEMENT_3D ( 'NONE', #194, #212, #161 ) ;
#242 =( NAMED_UNIT ( * ) SI_UNIT ( $, .STERADIAN. ) SOLID_ANGLE_UNIT ( ) );
#243 = ORIENTED_EDGE ( 'NONE', *, *, #142, .T. ) ;
#244 = VECTOR ( 'NONE', #210, 39.37007874015748143 ) ;
#245 = DIRECTION ( 'NONE',  ( -1.000000000000000000, 0.0000000000000000000, 1.224646799147353207E-16 ) ) ;
#246 = EDGE_LOOP ( 'NONE', ( #147, #84, #40, #78 ) ) ;
#247 = LINE ( 'NONE', #112, #159 ) ;
#248 = MANIFOLD_SOLID_BREP ( 'Cut-Revolve1', #252 ) ;
#249 = VECTOR ( 'NONE', #6, 39.37007874015748143 ) ;
#250 = DIRECTION ( 'NONE',  ( -0.0000000000000000000, -0.0000000000000000000, -1.000000000000000000 ) ) ;
#251 = ORIENTED_EDGE ( 'NONE', *, *, #286, .F. ) ;
#252 = CLOSED_SHELL ( 'NONE', ( #175, #95, #148, #211, #166, #292, #88, #8, #74, #237 ) ) ;
#253 = CARTESIAN_POINT ( 'NONE',  ( 0.0000000000000000000, 0.0000000000000000000, 2.000000000000000000 ) ) ;
#254 = DIRECTION ( 'NONE',  ( 1.000000000000000000, 0.0000000000000000000, 0.0000000000000000000 ) ) ;
#255 = CONICAL_SURFACE ( 'NONE', #177, 0.1412499999999997646, 0.7853981633974482790 ) ;
#256 = DIRECTION ( 'NONE',  ( -0.0000000000000000000, -0.0000000000000000000, -1.000000000000000000 ) ) ;
#257 = DIRECTION ( 'NONE',  ( -1.000000000000000000, 0.0000000000000000000, 0.0000000000000000000 ) ) ;
#258 = UNCERTAINTY_MEASURE_WITH_UNIT (LENGTH_MEASURE( 1.000000000000000082E-05 ), #170, 'distance_accuracy_value', 'NONE');
#259 = ORIENTED_EDGE ( 'NONE', *, *, #80, .T. ) ;
#260 = DIRECTION ( 'NONE',  ( 1.000000000000000000, 0.0000000000000000000, 0.0000000000000000000 ) ) ;
#261 = ORIENTED_EDGE ( 'NONE', *, *, #4, .F. ) ;
#262 =( CONVERSION_BASED_UNIT ( 'INCH', #200 ) LENGTH_UNIT ( ) NAMED_UNIT ( #117 ) );
#263 = CARTESIAN_POINT ( 'NONE',  ( -0.1404594000000000120, 0.0000000000000000000, 3.440263092403155245E-17 ) ) ;
#264 = SURFACE_STYLE_USAGE ( .BOTH. , #100 ) ;
#265 = PRESENTATION_LAYER_ASSIGNMENT (  '', '', ( #9 ) ) ;
#266 = CARTESIAN_POINT ( 'NONE',  ( 0.0000000000000000000, 0.0000000000000000000, 2.000000000000000000 ) ) ;
#267 = VERTEX_POINT ( 'NONE', #163 ) ;
#268 = ORIENTED_EDGE ( 'NONE', *, *, #41, .T. ) ;
#269 = MECHANICAL_DESIGN_GEOMETRIC_PRESENTATION_REPRESENTATION (  '', ( #9 ), #71 ) ;
#270 = ORIENTED_EDGE ( 'NONE', *, *, #27, .F. ) ;
#271 = VERTEX_POINT ( 'NONE', #146 ) ;
#272 = DIRECTION ( 'NONE',  ( -1.224646799147353207E-16, -0.0000000000000000000, -1.000000000000000000 ) ) ;
#273 = AXIS2_PLACEMENT_3D ( 'NONE', #266, #52, #127 ) ;
#274 = EDGE_LOOP ( 'NONE', ( #150, #67, #261, #179 ) ) ;
#275 = EDGE_CURVE ( 'NONE', #61, #267, #220, .T. ) ;
#276 = DIRECTION ( 'NONE',  ( 1.000000000000000000, 0.0000000000000000000, 0.0000000000000000000 ) ) ;
#277 = FACE_OUTER_BOUND ( 'NONE', #274, .T. ) ;
#278 = DIRECTION ( 'NONE',  ( 1.000000000000000000, 0.0000000000000000000, 0.0000000000000000000 ) ) ;
#279 = AXIS2_PLACEMENT_3D ( 'NONE', #3, #284, #278 ) ;
#280 = DIRECTION ( 'NONE',  ( -1.000000000000000000, 0.0000000000000000000, 0.0000000000000000000 ) ) ;
#281 = EDGE_CURVE ( 'NONE', #282, #56, #85, .T. ) ;
#282 = VERTEX_POINT ( 'NONE', #263 ) ;
#283 = CYLINDRICAL_SURFACE ( 'NONE', #241, 0.1404594000000000120 ) ;
#284 = DIRECTION ( 'NONE',  ( -1.224646799147353207E-16, -0.0000000000000000000, -1.000000000000000000 ) ) ;
#285 = VECTOR ( 'NONE', #193, 39.37007874015748143 ) ;
#286 = EDGE_CURVE ( 'NONE', #101, #271, #70, .T. ) ;
#287 = PRESENTATION_STYLE_ASSIGNMENT (( #197 ) ) ;
#288 = CARTESIAN_POINT ( 'NONE',  ( 2.106553592168149428E-33, 0.0000000000000000000, 1.720131546201577623E-17 ) ) ;
#289 = VERTEX_POINT ( 'NONE', #168 ) ;
#290 = AXIS2_PLACEMENT_3D ( 'NONE', #28, #188, #116 ) ;
#291 = CARTESIAN_POINT ( 'NONE',  ( 0.0000000000000000000, 0.0000000000000000000, 1.984999999999999654 ) ) ;
#292 = ADVANCED_FACE ( 'NONE', ( #11 ), #103, .T. ) ;
#293 = CARTESIAN_POINT ( 'NONE',  ( 0.0000000000000000000, 0.0000000000000000000, 2.000000000000000000 ) ) ;
#294 = AXIS2_PLACEMENT_3D ( 'NONE', #17, #205, #108 ) ;
#295 = FACE_OUTER_BOUND ( 'NONE', #230, .T. ) ;
#296 =( LENGTH_UNIT ( ) NAMED_UNIT ( * ) SI_UNIT ( $, .METRE. ) );
#297 = DIRECTION ( 'NONE',  ( -1.224646799147353207E-16, -0.0000000000000000000, -1.000000000000000000 ) ) ;
#298 =( NAMED_UNIT ( * ) SI_UNIT ( $, .STERADIAN. ) SOLID_ANGLE_UNIT ( ) );
#299 = DIRECTION ( 'NONE',  ( -1.224646799147353207E-16, -0.0000000000000000000, -1.000000000000000000 ) ) ;
ENDSEC;
END-ISO-10303-21;
