ISO-10303-21;
HEADER;
FILE_DESCRIPTION (( 'STEP AP214' ),
    '1' );
FILE_NAME ('81678.STEP',
    '2023-06-30T22:31:37',
    ( '' ),
    ( '' ),
    'SwSTEP 2.0',
    'SolidWorks 2023',
    '' );
FILE_SCHEMA (( 'AUTOMOTIVE_DESIGN' ));
ENDSEC;

DATA;
#1 = CARTESIAN_POINT ( 'NONE',  ( -1.913510623667739463E-17, 0.1562500000000000000, 0.000000000000000000 ) ) ;
#2 = FACE_OUTER_BOUND ( 'NONE', #7, .T. ) ;
#3 = PRESENTATION_LAYER_ASSIGNMENT (  '', '', ( #106 ) ) ;
#4 = SURFACE_STYLE_USAGE ( .BOTH. , #79 ) ;
#5 = STYLED_ITEM ( 'NONE', ( #354 ), #154 ) ;
#6 = CARTESIAN_POINT ( 'NONE',  ( -1.913510623667739463E-17, 0.1562500000000000000, 0.000000000000000000 ) ) ;
#7 = EDGE_LOOP ( 'NONE', ( #256, #370, #105, #90 ) ) ;
#8 = PRESENTATION_STYLE_ASSIGNMENT (( #214 ) ) ;
#9 = AXIS2_PLACEMENT_3D ( 'NONE', #1, #232, #108 ) ;
#10 = ORIENTED_EDGE ( 'NONE', *, *, #295, .F. ) ;
#11 = DIRECTION ( 'NONE',  ( -1.000000000000000000, 0.000000000000000000, 0.000000000000000000 ) ) ;
#12 = FILL_AREA_STYLE ('',( #95 ) ) ;
#13 = LINE ( 'NONE', #311, #331 ) ;
#14 = MECHANICAL_DESIGN_GEOMETRIC_PRESENTATION_REPRESENTATION (  '', ( #106 ), #174 ) ;
#15 = UNCERTAINTY_MEASURE_WITH_UNIT (LENGTH_MEASURE( 1.000000000000000082E-05 ), #304, 'distance_accuracy_value', 'NONE');
#16 = ORIENTED_EDGE ( 'NONE', *, *, #239, .T. ) ;
#17 = ORIENTED_EDGE ( 'NONE', *, *, #144, .F. ) ;
#18 = EDGE_CURVE ( 'NONE', #344, #346, #143, .T. ) ;
#19 = EDGE_LOOP ( 'NONE', ( #271, #332, #220, #219 ) ) ;
#20 = CIRCLE ( 'NONE', #179, 0.1562500000000000000 ) ;
#21 = DIRECTION ( 'NONE',  ( 1.226598798314671667E-16, -1.000000000000000000, 0.000000000000000000 ) ) ;
#22 = APPLICATION_CONTEXT ( 'automotive_design' ) ;
#23 = EDGE_CURVE ( 'NONE', #243, #36, #330, .T. ) ;
#24 = CYLINDRICAL_SURFACE ( 'NONE', #104, 0.1562499999999997224 ) ;
#25 = CIRCLE ( 'NONE', #323, 0.1562499999999998335 ) ;
#26 = CIRCLE ( 'NONE', #242, 0.1562499999999999167 ) ;
#27 =( GEOMETRIC_REPRESENTATION_CONTEXT ( 3 ) GLOBAL_UNCERTAINTY_ASSIGNED_CONTEXT ( ( #87 ) ) GLOBAL_UNIT_ASSIGNED_CONTEXT ( ( #233, #297, #225 ) ) REPRESENTATION_CONTEXT ( 'NONE', 'WORKASPACE' ) );
#28 = CARTESIAN_POINT ( 'NONE',  ( 0.1562499999999998057, 2.500000000000000000, 1.913510623667736074E-17 ) ) ;
#29 = PRESENTATION_STYLE_ASSIGNMENT (( #231 ) ) ;
#30 = DIRECTION ( 'NONE',  ( -1.000000000000000000, 0.000000000000000000, 0.000000000000000000 ) ) ;
#31 = DIRECTION ( 'NONE',  ( -1.000000000000000000, 0.000000000000000000, 0.000000000000000000 ) ) ;
#32 = PRESENTATION_LAYER_ASSIGNMENT (  '', '', ( #229 ) ) ;
#33 = FACE_OUTER_BOUND ( 'NONE', #283, .T. ) ;
#34 = ADVANCED_FACE ( 'NONE', ( #153 ), #124, .F. ) ;
#35 = VERTEX_POINT ( 'NONE', #52 ) ;
#36 = VERTEX_POINT ( 'NONE', #116 ) ;
#37 = PRESENTATION_LAYER_ASSIGNMENT (  '', '', ( #206 ) ) ;
#38 =( CONVERSION_BASED_UNIT ( 'INCH', #183 ) LENGTH_UNIT ( ) NAMED_UNIT ( #371 ) );
#39 = PRESENTATION_LAYER_ASSIGNMENT (  '', '', ( #170 ) ) ;
#40 = FILL_AREA_STYLE ('',( #337 ) ) ;
#41 =( LENGTH_UNIT ( ) NAMED_UNIT ( * ) SI_UNIT ( $, .METRE. ) );
#42 = VERTEX_POINT ( 'NONE', #290 ) ;
#43 = FACE_OUTER_BOUND ( 'NONE', #132, .T. ) ;
#44 = ORIENTED_EDGE ( 'NONE', *, *, #197, .F. ) ;
#45 = ORIENTED_EDGE ( 'NONE', *, *, #114, .T. ) ;
#46 = SURFACE_STYLE_FILL_AREA ( #50 ) ;
#47 = SURFACE_STYLE_FILL_AREA ( #145 ) ;
#48 = AXIS2_PLACEMENT_3D ( 'NONE', #59, #61, #362 ) ;
#49 = FILL_AREA_STYLE ('',( #200 ) ) ;
#50 = FILL_AREA_STYLE ('',( #321 ) ) ;
#51 = DIRECTION ( 'NONE',  ( -1.000000000000000000, 0.000000000000000000, 0.000000000000000000 ) ) ;
#52 = CARTESIAN_POINT ( 'NONE',  ( 0.1562499999999999167, 2.500000000000000000, 1.913510623667736382E-17 ) ) ;
#53 = COLOUR_RGB ( '',1.000000000000000000, 0.000000000000000000, 0.000000000000000000 ) ;
#54 = VECTOR ( 'NONE', #364, 39.37007874015748143 ) ;
#55 = AXIS2_PLACEMENT_3D ( 'NONE', #230, #353, #372 ) ;
#56 = DIRECTION ( 'NONE',  ( 0.000000000000000000, 0.000000000000000000, -1.000000000000000000 ) ) ;
#57 = DIRECTION ( 'NONE',  ( -0.000000000000000000, -1.000000000000000000, -0.000000000000000000 ) ) ;
#58 = COLOUR_RGB ( '',1.000000000000000000, 0.000000000000000000, 0.000000000000000000 ) ;
#59 = CARTESIAN_POINT ( 'NONE',  ( 2.452221597045684598E-16, 1.000000000000000000, 0.000000000000000000 ) ) ;
#60 = ORIENTED_EDGE ( 'NONE', *, *, #288, .F. ) ;
#61 = DIRECTION ( 'NONE',  ( -1.226598798314671667E-16, 1.000000000000000000, 0.000000000000000000 ) ) ;
#62 = CARTESIAN_POINT ( 'NONE',  ( 2.452221597045684598E-16, 1.000000000000000000, 0.000000000000000000 ) ) ;
#63 =( LENGTH_UNIT ( ) NAMED_UNIT ( * ) SI_UNIT ( $, .METRE. ) );
#64 = UNCERTAINTY_MEASURE_WITH_UNIT (LENGTH_MEASURE( 1.000000000000000082E-05 ), #38, 'distance_accuracy_value', 'NONE');
#65 = CLOSED_SHELL ( 'NONE', ( #96, #209, #269, #34 ) ) ;
#66 = DIRECTION ( 'NONE',  ( -0.000000000000000000, -1.000000000000000000, -0.000000000000000000 ) ) ;
#67 = CYLINDRICAL_SURFACE ( 'NONE', #191, 0.1562499999999997224 ) ;
#68 = DIRECTION ( 'NONE',  ( 1.000000000000000000, 0.000000000000000000, 0.000000000000000000 ) ) ;
#69 = ORIENTED_EDGE ( 'NONE', *, *, #295, .T. ) ;
#70 = PRESENTATION_STYLE_ASSIGNMENT (( #252 ) ) ;
#71 = EDGE_CURVE ( 'NONE', #36, #243, #361, .T. ) ;
#72 = ORIENTED_EDGE ( 'NONE', *, *, #197, .T. ) ;
#73 = DIMENSIONAL_EXPONENTS ( 1.000000000000000000, 0.000000000000000000, 0.000000000000000000, 0.000000000000000000, 0.000000000000000000, 0.000000000000000000, 0.000000000000000000 ) ;
#74 = FILL_AREA_STYLE_COLOUR ( '', #324 ) ;
#75 = EDGE_LOOP ( 'NONE', ( #307, #45, #180, #244 ) ) ;
#76 = DIRECTION ( 'NONE',  ( -1.226598798314671667E-16, 1.000000000000000000, -0.000000000000000000 ) ) ;
#77 = CLOSED_SHELL ( 'NONE', ( #322, #265, #154, #125, #222 ) ) ;
#78 = VECTOR ( 'NONE', #272, 39.37007874015748143 ) ;
#79 = SURFACE_SIDE_STYLE ('',( #352 ) ) ;
#80 = SURFACE_SIDE_STYLE ('',( #46 ) ) ;
#81 = CARTESIAN_POINT ( 'NONE',  ( 6.123233995736772199E-17, 2.500000000000000000, 0.000000000000000000 ) ) ;
#82 = EDGE_CURVE ( 'NONE', #35, #365, #25, .T. ) ;
#83 = MECHANICAL_DESIGN_GEOMETRIC_PRESENTATION_REPRESENTATION (  '', ( #336 ), #190 ) ;
#84 = MECHANICAL_DESIGN_GEOMETRIC_PRESENTATION_REPRESENTATION (  '', ( #316 ), #359 ) ;
#85 = FILL_AREA_STYLE ('',( #150 ) ) ;
#86 = LINE ( 'NONE', #178, #78 ) ;
#87 = UNCERTAINTY_MEASURE_WITH_UNIT (LENGTH_MEASURE( 1.000000000000000082E-05 ), #233, 'distance_accuracy_value', 'NONE');
#88 = PRODUCT_DEFINITION ( 'UNKNOWN', '', #112, #328 ) ;
#89 = DIRECTION ( 'NONE',  ( 0.000000000000000000, 1.000000000000000000, 0.000000000000000000 ) ) ;
#90 = ORIENTED_EDGE ( 'NONE', *, *, #18, .T. ) ;
#91 = AXIS2_PLACEMENT_3D ( 'NONE', #188, #21, #139 ) ;
#92 = SURFACE_STYLE_FILL_AREA ( #85 ) ;
#93 = CARTESIAN_POINT ( 'NONE',  ( 0.000000000000000000, 0.1562500000000000278, 0.000000000000000000 ) ) ;
#94 =( LENGTH_UNIT ( ) NAMED_UNIT ( * ) SI_UNIT ( $, .METRE. ) );
#95 = FILL_AREA_STYLE_COLOUR ( '', #129 ) ;
#96 = ADVANCED_FACE ( 'NONE', ( #320 ), #24, .T. ) ;
#97 = PRESENTATION_LAYER_ASSIGNMENT (  '', '', ( #336 ) ) ;
#98 = VERTEX_POINT ( 'NONE', #142 ) ;
#99 = UNCERTAINTY_MEASURE_WITH_UNIT (LENGTH_MEASURE( 1.000000000000000082E-05 ), #277, 'distance_accuracy_value', 'NONE');
#100 = CYLINDRICAL_SURFACE ( 'NONE', #207, 0.1562499999999999445 ) ;
#101 = DIRECTION ( 'NONE',  ( 0.000000000000000000, 0.000000000000000000, -1.000000000000000000 ) ) ;
#102 = ORIENTED_EDGE ( 'NONE', *, *, #82, .T. ) ;
#103 =( NAMED_UNIT ( * ) PLANE_ANGLE_UNIT ( ) SI_UNIT ( $, .RADIAN. ) );
#104 = AXIS2_PLACEMENT_3D ( 'NONE', #81, #107, #30 ) ;
#105 = ORIENTED_EDGE ( 'NONE', *, *, #181, .F. ) ;
#106 = STYLED_ITEM ( 'NONE', ( #8 ), #222 ) ;
#107 = DIRECTION ( 'NONE',  ( -1.226598798314671667E-16, 1.000000000000000000, -0.000000000000000000 ) ) ;
#108 = DIRECTION ( 'NONE',  ( 1.000000000000000000, 0.000000000000000000, -1.224646799147353207E-16 ) ) ;
#109 =( LENGTH_UNIT ( ) NAMED_UNIT ( * ) SI_UNIT ( $, .METRE. ) );
#110 = AXIS2_PLACEMENT_3D ( 'NONE', #93, #215, #333 ) ;
#111 = PRESENTATION_LAYER_ASSIGNMENT (  '', '', ( #5 ) ) ;
#112 = PRODUCT_DEFINITION_FORMATION_WITH_SPECIFIED_SOURCE ( 'ANY', '', #284, .NOT_KNOWN. ) ;
#113 = PRESENTATION_STYLE_ASSIGNMENT (( #228 ) ) ;
#114 = EDGE_CURVE ( 'NONE', #36, #35, #146, .T. ) ;
#115 = SURFACE_SIDE_STYLE ('',( #166 ) ) ;
#116 = CARTESIAN_POINT ( 'NONE',  ( 0.1562499999999999167, 1.000000000000000000, 1.913510623667736382E-17 ) ) ;
#117 = SPHERICAL_SURFACE ( 'NONE', #285, 0.1562500000000000000 ) ;
#118 = CIRCLE ( 'NONE', #9, 0.1562500000000000000 ) ;
#119 =( NAMED_UNIT ( * ) PLANE_ANGLE_UNIT ( ) SI_UNIT ( $, .RADIAN. ) );
#120 =( CONVERSION_BASED_UNIT ( 'INCH', #301 ) LENGTH_UNIT ( ) NAMED_UNIT ( #73 ) );
#121 = CARTESIAN_POINT ( 'NONE',  ( 0.000000000000000000, 0.1562500000000000278, 0.000000000000000000 ) ) ;
#122 = EDGE_LOOP ( 'NONE', ( #224, #60 ) ) ;
#123 = AXIS2_PLACEMENT_3D ( 'NONE', #325, #176, #138 ) ;
#124 = PLANE ( 'NONE',  #91 ) ;
#125 = ADVANCED_FACE ( 'NONE', ( #373 ), #169, .T. ) ;
#126 = CARTESIAN_POINT ( 'NONE',  ( 0.000000000000000000, 0.000000000000000000, 0.000000000000000000 ) ) ;
#127 = SURFACE_STYLE_USAGE ( .BOTH. , #305 ) ;
#128 = CARTESIAN_POINT ( 'NONE',  ( 6.123233995736772199E-17, 2.500000000000000000, 0.000000000000000000 ) ) ;
#129 = COLOUR_RGB ( '',0.7921568627450980005, 0.8196078431372548767, 0.9333333333333333481 ) ;
#130 =( NAMED_UNIT ( * ) SI_UNIT ( $, .STERADIAN. ) SOLID_ANGLE_UNIT ( ) );
#131 = ORIENTED_EDGE ( 'NONE', *, *, #144, .T. ) ;
#132 = EDGE_LOOP ( 'NONE', ( #192, #72, #300, #10, #250 ) ) ;
#133 = PRODUCT_DEFINITION_SHAPE ( 'NONE', 'NONE',  #88 ) ;
#134 = VERTEX_POINT ( 'NONE', #202 ) ;
#135 = AXIS2_PLACEMENT_3D ( 'NONE', #327, #89, #236 ) ;
#136 = EDGE_CURVE ( 'NONE', #253, #98, #118, .T. ) ;
#137 = LENGTH_MEASURE_WITH_UNIT ( LENGTH_MEASURE( 0.02539999999999999897 ), #109 );
#138 = DIRECTION ( 'NONE',  ( 0.000000000000000000, 0.000000000000000000, -1.000000000000000000 ) ) ;
#139 = DIRECTION ( 'NONE',  ( 1.000000000000000000, 1.226598798314671667E-16, 0.000000000000000000 ) ) ;
#140 = APPLICATION_PROTOCOL_DEFINITION ( 'draft international standard', 'automotive_design', 1998, #22 ) ;
#141 = CARTESIAN_POINT ( 'NONE',  ( 1.913510623667739463E-17, 0.1562500000000000278, 0.1562500000000000000 ) ) ;
#142 = CARTESIAN_POINT ( 'NONE',  ( -9.567553118338697316E-18, 0.000000000000000000, 0.000000000000000000 ) ) ;
#143 = CIRCLE ( 'NONE', #110, 0.1562500000000000000 ) ;
#144 = EDGE_CURVE ( 'NONE', #253, #134, #20, .T. ) ;
#145 = FILL_AREA_STYLE ('',( #172 ) ) ;
#146 = LINE ( 'NONE', #28, #241 ) ;
#147 = LINE ( 'NONE', #235, #54 ) ;
#148 = ADVANCED_BREP_SHAPE_REPRESENTATION ( '81678', ( #296, #287, #55 ), #255 ) ;
#149 = MECHANICAL_DESIGN_GEOMETRIC_PRESENTATION_REPRESENTATION (  '', ( #229 ), #263 ) ;
#150 = FILL_AREA_STYLE_COLOUR ( '', #345 ) ;
#151 = ORIENTED_EDGE ( 'NONE', *, *, #159, .F. ) ;
#152 = CARTESIAN_POINT ( 'NONE',  ( 0.000000000000000000, 1.000000000000000000, -0.1562499999999999167 ) ) ;
#153 = FACE_OUTER_BOUND ( 'NONE', #275, .T. ) ;
#154 = ADVANCED_FACE ( 'NONE', ( #226 ), #349, .T. ) ;
#155 = MECHANICAL_DESIGN_GEOMETRIC_PRESENTATION_REPRESENTATION (  '', ( #5 ), #161 ) ;
#156 = DIRECTION ( 'NONE',  ( -0.000000000000000000, -1.000000000000000000, -0.000000000000000000 ) ) ;
#157 = DIRECTION ( 'NONE',  ( -1.226598798314671667E-16, 1.000000000000000000, -0.000000000000000000 ) ) ;
#158 = LENGTH_MEASURE_WITH_UNIT ( LENGTH_MEASURE( 0.02539999999999999897 ), #41 );
#159 = EDGE_CURVE ( 'NONE', #346, #253, #310, .T. ) ;
#160 = AXIS2_PLACEMENT_3D ( 'NONE', #62, #182, #302 ) ;
#161 =( GEOMETRIC_REPRESENTATION_CONTEXT ( 3 ) GLOBAL_UNCERTAINTY_ASSIGNED_CONTEXT ( ( #237 ) ) GLOBAL_UNIT_ASSIGNED_CONTEXT ( ( #120, #208, #358 ) ) REPRESENTATION_CONTEXT ( 'NONE', 'WORKASPACE' ) );
#162 = EDGE_LOOP ( 'NONE', ( #196, #278 ) ) ;
#163 = DIRECTION ( 'NONE',  ( 0.000000000000000000, 0.000000000000000000, -1.000000000000000000 ) ) ;
#164 = DIRECTION ( 'NONE',  ( -0.000000000000000000, -1.000000000000000000, -0.000000000000000000 ) ) ;
#165 = DIMENSIONAL_EXPONENTS ( 1.000000000000000000, 0.000000000000000000, 0.000000000000000000, 0.000000000000000000, 0.000000000000000000, 0.000000000000000000, 0.000000000000000000 ) ;
#166 = SURFACE_STYLE_FILL_AREA ( #195 ) ;
#167 = VERTEX_POINT ( 'NONE', #152 ) ;
#168 = EDGE_CURVE ( 'NONE', #243, #365, #86, .T. ) ;
#169 = CYLINDRICAL_SURFACE ( 'NONE', #123, 0.1562499999999999445 ) ;
#170 = STYLED_ITEM ( 'NONE', ( #29 ), #296 ) ;
#171 =( CONVERSION_BASED_UNIT ( 'INCH', #203 ) LENGTH_UNIT ( ) NAMED_UNIT ( #218 ) );
#172 = FILL_AREA_STYLE_COLOUR ( '', #53 ) ;
#173 = DIRECTION ( 'NONE',  ( -1.226598798314671667E-16, 1.000000000000000000, -0.000000000000000000 ) ) ;
#174 =( GEOMETRIC_REPRESENTATION_CONTEXT ( 3 ) GLOBAL_UNCERTAINTY_ASSIGNED_CONTEXT ( ( #64 ) ) GLOBAL_UNIT_ASSIGNED_CONTEXT ( ( #38, #119, #360 ) ) REPRESENTATION_CONTEXT ( 'NONE', 'WORKASPACE' ) );
#175 = PRESENTATION_STYLE_ASSIGNMENT (( #286 ) ) ;
#176 = DIRECTION ( 'NONE',  ( -0.000000000000000000, -1.000000000000000000, -0.000000000000000000 ) ) ;
#177 =( NAMED_UNIT ( * ) SI_UNIT ( $, .STERADIAN. ) SOLID_ANGLE_UNIT ( ) );
#178 = CARTESIAN_POINT ( 'NONE',  ( -0.1562499999999996669, 2.500000000000000000, 0.000000000000000000 ) ) ;
#179 = AXIS2_PLACEMENT_3D ( 'NONE', #318, #355, #56 ) ;
#180 = ORIENTED_EDGE ( 'NONE', *, *, #251, .F. ) ;
#181 = EDGE_CURVE ( 'NONE', #344, #98, #268, .T. ) ;
#182 = DIRECTION ( 'NONE',  ( -1.226598798314671667E-16, 1.000000000000000000, -0.000000000000000000 ) ) ;
#183 = LENGTH_MEASURE_WITH_UNIT ( LENGTH_MEASURE( 0.02539999999999999897 ), #63 );
#184 = AXIS2_PLACEMENT_3D ( 'NONE', #270, #248, #163 ) ;
#185 = DIRECTION ( 'NONE',  ( 0.000000000000000000, 0.000000000000000000, -1.000000000000000000 ) ) ;
#186 = CARTESIAN_POINT ( 'NONE',  ( -0.1562500000000000000, 0.1562500000000000278, 1.913510623667738847E-17 ) ) ;
#187 = DIRECTION ( 'NONE',  ( -0.000000000000000000, -1.000000000000000000, -0.000000000000000000 ) ) ;
#188 = CARTESIAN_POINT ( 'NONE',  ( 0.1562499999999999167, 2.500000000000000000, 0.000000000000000000 ) ) ;
#189 = UNCERTAINTY_MEASURE_WITH_UNIT (LENGTH_MEASURE( 1.000000000000000082E-05 ), #171, 'distance_accuracy_value', 'NONE');
#190 =( GEOMETRIC_REPRESENTATION_CONTEXT ( 3 ) GLOBAL_UNCERTAINTY_ASSIGNED_CONTEXT ( ( #99 ) ) GLOBAL_UNIT_ASSIGNED_CONTEXT ( ( #277, #339, #130 ) ) REPRESENTATION_CONTEXT ( 'NONE', 'WORKASPACE' ) );
#191 = AXIS2_PLACEMENT_3D ( 'NONE', #366, #157, #11 ) ;
#192 = ORIENTED_EDGE ( 'NONE', *, *, #227, .T. ) ;
#193 = PRODUCT_CONTEXT ( 'NONE', #22, 'mechanical' ) ;
#194 = CARTESIAN_POINT ( 'NONE',  ( -0.1562499999999994171, 1.000000000000000000, 0.000000000000000000 ) ) ;
#195 = FILL_AREA_STYLE ('',( #74 ) ) ;
#196 = ORIENTED_EDGE ( 'NONE', *, *, #23, .F. ) ;
#197 = EDGE_CURVE ( 'NONE', #42, #346, #147, .T. ) ;
#198 =( NAMED_UNIT ( * ) SI_UNIT ( $, .STERADIAN. ) SOLID_ANGLE_UNIT ( ) );
#199 = LENGTH_MEASURE_WITH_UNIT ( LENGTH_MEASURE( 0.02539999999999999897 ), #351 );
#200 = FILL_AREA_STYLE_COLOUR ( '', #273 ) ;
#201 = SHAPE_DEFINITION_REPRESENTATION ( #133, #148 ) ;
#202 = CARTESIAN_POINT ( 'NONE',  ( 0.000000000000000000, 0.1562500000000000278, -0.1562500000000000000 ) ) ;
#203 = LENGTH_MEASURE_WITH_UNIT ( LENGTH_MEASURE( 0.02539999999999999897 ), #317 );
#204 = DIRECTION ( 'NONE',  ( -1.000000000000000000, 0.000000000000000000, 0.000000000000000000 ) ) ;
#205 =( NAMED_UNIT ( * ) PLANE_ANGLE_UNIT ( ) SI_UNIT ( $, .RADIAN. ) );
#206 = STYLED_ITEM ( 'NONE', ( #113 ), #125 ) ;
#207 = AXIS2_PLACEMENT_3D ( 'NONE', #126, #66, #185 ) ;
#208 =( NAMED_UNIT ( * ) PLANE_ANGLE_UNIT ( ) SI_UNIT ( $, .RADIAN. ) );
#209 = ADVANCED_FACE ( 'NONE', ( #334 ), #298, .F. ) ;
#210 = DIRECTION ( 'NONE',  ( 0.000000000000000000, 0.000000000000000000, -1.000000000000000000 ) ) ;
#211 = ORIENTED_EDGE ( 'NONE', *, *, #136, .F. ) ;
#212 = CIRCLE ( 'NONE', #217, 0.1562499999999998335 ) ;
#213 = PRESENTATION_LAYER_ASSIGNMENT (  '', '', ( #316 ) ) ;
#214 = SURFACE_STYLE_USAGE ( .BOTH. , #267 ) ;
#215 = DIRECTION ( 'NONE',  ( -0.000000000000000000, -1.000000000000000000, -0.000000000000000000 ) ) ;
#216 = SURFACE_STYLE_FILL_AREA ( #12 ) ;
#217 = AXIS2_PLACEMENT_3D ( 'NONE', #128, #343, #276 ) ;
#218 = DIMENSIONAL_EXPONENTS ( 1.000000000000000000, 0.000000000000000000, 0.000000000000000000, 0.000000000000000000, 0.000000000000000000, 0.000000000000000000, 0.000000000000000000 ) ;
#219 = ORIENTED_EDGE ( 'NONE', *, *, #82, .F. ) ;
#220 = ORIENTED_EDGE ( 'NONE', *, *, #168, .T. ) ;
#221 =( NAMED_UNIT ( * ) SI_UNIT ( $, .STERADIAN. ) SOLID_ANGLE_UNIT ( ) );
#222 = ADVANCED_FACE ( 'NONE', ( #33 ), #117, .T. ) ;
#223 = COLOUR_RGB ( '',1.000000000000000000, 0.000000000000000000, 0.000000000000000000 ) ;
#224 = ORIENTED_EDGE ( 'NONE', *, *, #227, .F. ) ;
#225 =( NAMED_UNIT ( * ) SI_UNIT ( $, .STERADIAN. ) SOLID_ANGLE_UNIT ( ) );
#226 = FACE_OUTER_BOUND ( 'NONE', #122, .T. ) ;
#227 = EDGE_CURVE ( 'NONE', #167, #42, #363, .T. ) ;
#228 = SURFACE_STYLE_USAGE ( .BOTH. , #258 ) ;
#229 = STYLED_ITEM ( 'NONE', ( #70 ), #265 ) ;
#230 = CARTESIAN_POINT ( 'NONE',  ( 0.000000000000000000, 0.000000000000000000, 0.000000000000000000 ) ) ;
#231 = SURFACE_STYLE_USAGE ( .BOTH. , #115 ) ;
#232 = DIRECTION ( 'NONE',  ( 1.224646799147353207E-16, -0.000000000000000000, 1.000000000000000000 ) ) ;
#233 =( CONVERSION_BASED_UNIT ( 'INCH', #137 ) LENGTH_UNIT ( ) NAMED_UNIT ( #338 ) );
#234 = DIRECTION ( 'NONE',  ( 0.000000000000000000, 0.000000000000000000, 1.000000000000000000 ) ) ;
#235 = CARTESIAN_POINT ( 'NONE',  ( 1.913510623667738539E-17, 0.000000000000000000, 0.1562499999999999445 ) ) ;
#236 = DIRECTION ( 'NONE',  ( 0.000000000000000000, -0.000000000000000000, 1.000000000000000000 ) ) ;
#237 = UNCERTAINTY_MEASURE_WITH_UNIT (LENGTH_MEASURE( 1.000000000000000082E-05 ), #120, 'distance_accuracy_value', 'NONE');
#238 = DIRECTION ( 'NONE',  ( 0.000000000000000000, 0.000000000000000000, -1.000000000000000000 ) ) ;
#239 = EDGE_CURVE ( 'NONE', #167, #134, #13, .T. ) ;
#240 = DIRECTION ( 'NONE',  ( 0.000000000000000000, 0.000000000000000000, 1.000000000000000000 ) ) ;
#241 = VECTOR ( 'NONE', #173, 39.37007874015748143 ) ;
#242 = AXIS2_PLACEMENT_3D ( 'NONE', #369, #164, #340 ) ;
#243 = VERTEX_POINT ( 'NONE', #194 ) ;
#244 = ORIENTED_EDGE ( 'NONE', *, *, #168, .F. ) ;
#245 = LENGTH_MEASURE_WITH_UNIT ( LENGTH_MEASURE( 0.02539999999999999897 ), #280 );
#246 = PRESENTATION_STYLE_ASSIGNMENT (( #127 ) ) ;
#247 = CIRCLE ( 'NONE', #293, 0.1562500000000000000 ) ;
#248 = DIRECTION ( 'NONE',  ( -0.000000000000000000, -1.000000000000000000, -0.000000000000000000 ) ) ;
#249 = DIMENSIONAL_EXPONENTS ( 1.000000000000000000, 0.000000000000000000, 0.000000000000000000, 0.000000000000000000, 0.000000000000000000, 0.000000000000000000, 0.000000000000000000 ) ;
#250 = ORIENTED_EDGE ( 'NONE', *, *, #239, .F. ) ;
#251 = EDGE_CURVE ( 'NONE', #365, #35, #212, .T. ) ;
#252 = SURFACE_STYLE_USAGE ( .BOTH. , #335 ) ;
#253 = VERTEX_POINT ( 'NONE', #186 ) ;
#254 = MECHANICAL_DESIGN_GEOMETRIC_PRESENTATION_REPRESENTATION (  '', ( #206 ), #356 ) ;
#255 =( GEOMETRIC_REPRESENTATION_CONTEXT ( 3 ) GLOBAL_UNCERTAINTY_ASSIGNED_CONTEXT ( ( #189 ) ) GLOBAL_UNIT_ASSIGNED_CONTEXT ( ( #171, #259, #177 ) ) REPRESENTATION_CONTEXT ( 'NONE', 'WORKASPACE' ) );
#256 = ORIENTED_EDGE ( 'NONE', *, *, #159, .T. ) ;
#257 = SPHERICAL_SURFACE ( 'NONE', #326, 0.1562500000000000000 ) ;
#258 = SURFACE_SIDE_STYLE ('',( #47 ) ) ;
#259 =( NAMED_UNIT ( * ) PLANE_ANGLE_UNIT ( ) SI_UNIT ( $, .RADIAN. ) );
#260 = DIRECTION ( 'NONE',  ( -1.226598798314671667E-16, 1.000000000000000000, -0.000000000000000000 ) ) ;
#261 = CARTESIAN_POINT ( 'NONE',  ( -0.1562499999999997780, 2.500000000000000000, 0.000000000000000000 ) ) ;
#262 =( CONVERSION_BASED_UNIT ( 'INCH', #348 ) LENGTH_UNIT ( ) NAMED_UNIT ( #347 ) );
#263 =( GEOMETRIC_REPRESENTATION_CONTEXT ( 3 ) GLOBAL_UNCERTAINTY_ASSIGNED_CONTEXT ( ( #15 ) ) GLOBAL_UNIT_ASSIGNED_CONTEXT ( ( #304, #103, #221 ) ) REPRESENTATION_CONTEXT ( 'NONE', 'WORKASPACE' ) );
#264 =( LENGTH_UNIT ( ) NAMED_UNIT ( * ) SI_UNIT ( $, .METRE. ) );
#265 = ADVANCED_FACE ( 'NONE', ( #43 ), #100, .T. ) ;
#266 = CARTESIAN_POINT ( 'NONE',  ( 0.000000000000000000, 0.1562500000000000278, 0.000000000000000000 ) ) ;
#267 = SURFACE_SIDE_STYLE ('',( #92 ) ) ;
#268 = CIRCLE ( 'NONE', #299, 0.1562500000000000000 ) ;
#269 = ADVANCED_FACE ( 'NONE', ( #306 ), #67, .T. ) ;
#270 = CARTESIAN_POINT ( 'NONE',  ( 0.000000000000000000, 1.000000000000000000, 0.000000000000000000 ) ) ;
#271 = ORIENTED_EDGE ( 'NONE', *, *, #114, .F. ) ;
#272 = DIRECTION ( 'NONE',  ( -1.226598798314671667E-16, 1.000000000000000000, -0.000000000000000000 ) ) ;
#273 = COLOUR_RGB ( '',1.000000000000000000, 0.000000000000000000, 0.000000000000000000 ) ;
#274 = UNCERTAINTY_MEASURE_WITH_UNIT (LENGTH_MEASURE( 1.000000000000000082E-05 ), #262, 'distance_accuracy_value', 'NONE');
#275 = EDGE_LOOP ( 'NONE', ( #341, #102 ) ) ;
#276 = DIRECTION ( 'NONE',  ( -1.000000000000000000, 0.000000000000000000, 0.000000000000000000 ) ) ;
#277 =( CONVERSION_BASED_UNIT ( 'INCH', #158 ) LENGTH_UNIT ( ) NAMED_UNIT ( #309 ) );
#278 = ORIENTED_EDGE ( 'NONE', *, *, #71, .F. ) ;
#279 = APPLICATION_CONTEXT ( 'automotive_design' ) ;
#280 =( LENGTH_UNIT ( ) NAMED_UNIT ( * ) SI_UNIT ( $, .METRE. ) );
#281 = CARTESIAN_POINT ( 'NONE',  ( 0.1562500000000000000, 0.1562500000000000278, 0.000000000000000000 ) ) ;
#282 = ORIENTED_EDGE ( 'NONE', *, *, #181, .T. ) ;
#283 = EDGE_LOOP ( 'NONE', ( #211, #131, #69, #282 ) ) ;
#284 = PRODUCT ( '81678', '81678', '', ( #193 ) ) ;
#285 = AXIS2_PLACEMENT_3D ( 'NONE', #6, #240, #68 ) ;
#286 = SURFACE_STYLE_USAGE ( .BOTH. , #80 ) ;
#287 = MANIFOLD_SOLID_BREP ( 'Revolve - Tool Body (Straight Shanked)', #65 ) ;
#288 = EDGE_CURVE ( 'NONE', #42, #167, #26, .T. ) ;
#289 =( CONVERSION_BASED_UNIT ( 'INCH', #199 ) LENGTH_UNIT ( ) NAMED_UNIT ( #165 ) );
#290 = CARTESIAN_POINT ( 'NONE',  ( 1.913510623667738231E-17, 1.000000000000000000, 0.1562499999999999167 ) ) ;
#291 = CARTESIAN_POINT ( 'NONE',  ( -1.913510623667739463E-17, 0.1562500000000000000, 0.000000000000000000 ) ) ;
#292 = APPLICATION_PROTOCOL_DEFINITION ( 'draft international standard', 'automotive_design', 1998, #279 ) ;
#293 = AXIS2_PLACEMENT_3D ( 'NONE', #121, #187, #101 ) ;
#294 = CARTESIAN_POINT ( 'NONE',  ( 2.452221597045684598E-16, 1.000000000000000000, 0.000000000000000000 ) ) ;
#295 = EDGE_CURVE ( 'NONE', #134, #344, #247, .T. ) ;
#296 = MANIFOLD_SOLID_BREP ( 'Revolve - Cutting Edge', #77 ) ;
#297 =( NAMED_UNIT ( * ) PLANE_ANGLE_UNIT ( ) SI_UNIT ( $, .RADIAN. ) );
#298 = PLANE ( 'NONE',  #48 ) ;
#299 = AXIS2_PLACEMENT_3D ( 'NONE', #329, #238, #31 ) ;
#300 = ORIENTED_EDGE ( 'NONE', *, *, #18, .F. ) ;
#301 = LENGTH_MEASURE_WITH_UNIT ( LENGTH_MEASURE( 0.02539999999999999897 ), #94 );
#302 = DIRECTION ( 'NONE',  ( -1.000000000000000000, 0.000000000000000000, 0.000000000000000000 ) ) ;
#303 = MECHANICAL_DESIGN_GEOMETRIC_PRESENTATION_REPRESENTATION (  '', ( #170 ), #27 ) ;
#304 =( CONVERSION_BASED_UNIT ( 'INCH', #245 ) LENGTH_UNIT ( ) NAMED_UNIT ( #249 ) );
#305 = SURFACE_SIDE_STYLE ('',( #216 ) ) ;
#306 = FACE_OUTER_BOUND ( 'NONE', #19, .T. ) ;
#307 = ORIENTED_EDGE ( 'NONE', *, *, #23, .T. ) ;
#308 = AXIS2_PLACEMENT_3D ( 'NONE', #294, #260, #204 ) ;
#309 = DIMENSIONAL_EXPONENTS ( 1.000000000000000000, 0.000000000000000000, 0.000000000000000000, 0.000000000000000000, 0.000000000000000000, 0.000000000000000000, 0.000000000000000000 ) ;
#310 = CIRCLE ( 'NONE', #350, 0.1562500000000000000 ) ;
#311 = CARTESIAN_POINT ( 'NONE',  ( 0.000000000000000000, 0.000000000000000000, -0.1562499999999999445 ) ) ;
#312 = ORIENTED_EDGE ( 'NONE', *, *, #288, .T. ) ;
#313 =( NAMED_UNIT ( * ) SI_UNIT ( $, .STERADIAN. ) SOLID_ANGLE_UNIT ( ) );
#314 = CARTESIAN_POINT ( 'NONE',  ( 6.123233995736772199E-17, 2.500000000000000000, 0.000000000000000000 ) ) ;
#315 = PRODUCT_RELATED_PRODUCT_CATEGORY ( 'part', '', ( #284 ) ) ;
#316 = STYLED_ITEM ( 'NONE', ( #175 ), #322 ) ;
#317 =( LENGTH_UNIT ( ) NAMED_UNIT ( * ) SI_UNIT ( $, .METRE. ) );
#318 = CARTESIAN_POINT ( 'NONE',  ( 0.000000000000000000, 0.1562500000000000278, 0.000000000000000000 ) ) ;
#319 =( NAMED_UNIT ( * ) PLANE_ANGLE_UNIT ( ) SI_UNIT ( $, .RADIAN. ) );
#320 = FACE_OUTER_BOUND ( 'NONE', #75, .T. ) ;
#321 = FILL_AREA_STYLE_COLOUR ( '', #223 ) ;
#322 = ADVANCED_FACE ( 'NONE', ( #2 ), #257, .T. ) ;
#323 = AXIS2_PLACEMENT_3D ( 'NONE', #314, #76, #51 ) ;
#324 = COLOUR_RGB ( '',0.7921568627450980005, 0.8196078431372548767, 0.9333333333333333481 ) ;
#325 = CARTESIAN_POINT ( 'NONE',  ( 0.000000000000000000, 0.000000000000000000, 0.000000000000000000 ) ) ;
#326 = AXIS2_PLACEMENT_3D ( 'NONE', #291, #234, #357 ) ;
#327 = CARTESIAN_POINT ( 'NONE',  ( 0.000000000000000000, 1.000000000000000000, 0.000000000000000000 ) ) ;
#328 = PRODUCT_DEFINITION_CONTEXT ( 'detailed design', #279, 'design' ) ;
#329 = CARTESIAN_POINT ( 'NONE',  ( -1.913510623667739463E-17, 0.1562500000000000000, 0.000000000000000000 ) ) ;
#330 = CIRCLE ( 'NONE', #160, 0.1562499999999996669 ) ;
#331 = VECTOR ( 'NONE', #156, 39.37007874015748143 ) ;
#332 = ORIENTED_EDGE ( 'NONE', *, *, #71, .T. ) ;
#333 = DIRECTION ( 'NONE',  ( 0.000000000000000000, 0.000000000000000000, -1.000000000000000000 ) ) ;
#334 = FACE_OUTER_BOUND ( 'NONE', #162, .T. ) ;
#335 = SURFACE_SIDE_STYLE ('',( #367 ) ) ;
#336 = STYLED_ITEM ( 'NONE', ( #246 ), #287 ) ;
#337 = FILL_AREA_STYLE_COLOUR ( '', #58 ) ;
#338 = DIMENSIONAL_EXPONENTS ( 1.000000000000000000, 0.000000000000000000, 0.000000000000000000, 0.000000000000000000, 0.000000000000000000, 0.000000000000000000, 0.000000000000000000 ) ;
#339 =( NAMED_UNIT ( * ) PLANE_ANGLE_UNIT ( ) SI_UNIT ( $, .RADIAN. ) );
#340 = DIRECTION ( 'NONE',  ( 0.000000000000000000, 0.000000000000000000, -1.000000000000000000 ) ) ;
#341 = ORIENTED_EDGE ( 'NONE', *, *, #251, .T. ) ;
#342 = UNCERTAINTY_MEASURE_WITH_UNIT (LENGTH_MEASURE( 1.000000000000000082E-05 ), #289, 'distance_accuracy_value', 'NONE');
#343 = DIRECTION ( 'NONE',  ( -1.226598798314671667E-16, 1.000000000000000000, -0.000000000000000000 ) ) ;
#344 = VERTEX_POINT ( 'NONE', #281 ) ;
#345 = COLOUR_RGB ( '',1.000000000000000000, 0.000000000000000000, 0.000000000000000000 ) ;
#346 = VERTEX_POINT ( 'NONE', #141 ) ;
#347 = DIMENSIONAL_EXPONENTS ( 1.000000000000000000, 0.000000000000000000, 0.000000000000000000, 0.000000000000000000, 0.000000000000000000, 0.000000000000000000, 0.000000000000000000 ) ;
#348 = LENGTH_MEASURE_WITH_UNIT ( LENGTH_MEASURE( 0.02539999999999999897 ), #264 );
#349 = PLANE ( 'NONE',  #135 ) ;
#350 = AXIS2_PLACEMENT_3D ( 'NONE', #266, #57, #210 ) ;
#351 =( LENGTH_UNIT ( ) NAMED_UNIT ( * ) SI_UNIT ( $, .METRE. ) );
#352 = SURFACE_STYLE_FILL_AREA ( #49 ) ;
#353 = DIRECTION ( 'NONE',  ( 0.000000000000000000, 0.000000000000000000, 1.000000000000000000 ) ) ;
#354 = PRESENTATION_STYLE_ASSIGNMENT (( #4 ) ) ;
#355 = DIRECTION ( 'NONE',  ( -0.000000000000000000, -1.000000000000000000, -0.000000000000000000 ) ) ;
#356 =( GEOMETRIC_REPRESENTATION_CONTEXT ( 3 ) GLOBAL_UNCERTAINTY_ASSIGNED_CONTEXT ( ( #274 ) ) GLOBAL_UNIT_ASSIGNED_CONTEXT ( ( #262, #205, #198 ) ) REPRESENTATION_CONTEXT ( 'NONE', 'WORKASPACE' ) );
#357 = DIRECTION ( 'NONE',  ( 1.000000000000000000, 0.000000000000000000, 0.000000000000000000 ) ) ;
#358 =( NAMED_UNIT ( * ) SI_UNIT ( $, .STERADIAN. ) SOLID_ANGLE_UNIT ( ) );
#359 =( GEOMETRIC_REPRESENTATION_CONTEXT ( 3 ) GLOBAL_UNCERTAINTY_ASSIGNED_CONTEXT ( ( #342 ) ) GLOBAL_UNIT_ASSIGNED_CONTEXT ( ( #289, #319, #313 ) ) REPRESENTATION_CONTEXT ( 'NONE', 'WORKASPACE' ) );
#360 =( NAMED_UNIT ( * ) SI_UNIT ( $, .STERADIAN. ) SOLID_ANGLE_UNIT ( ) );
#361 = CIRCLE ( 'NONE', #308, 0.1562499999999996669 ) ;
#362 = DIRECTION ( 'NONE',  ( -1.000000000000000000, -1.226598798314671667E-16, 0.000000000000000000 ) ) ;
#363 = CIRCLE ( 'NONE', #184, 0.1562499999999999167 ) ;
#364 = DIRECTION ( 'NONE',  ( -0.000000000000000000, -1.000000000000000000, -0.000000000000000000 ) ) ;
#365 = VERTEX_POINT ( 'NONE', #261 ) ;
#366 = CARTESIAN_POINT ( 'NONE',  ( 6.123233995736772199E-17, 2.500000000000000000, 0.000000000000000000 ) ) ;
#367 = SURFACE_STYLE_FILL_AREA ( #40 ) ;
#368 = EDGE_LOOP ( 'NONE', ( #44, #312, #16, #17, #151 ) ) ;
#369 = CARTESIAN_POINT ( 'NONE',  ( 0.000000000000000000, 1.000000000000000000, 0.000000000000000000 ) ) ;
#370 = ORIENTED_EDGE ( 'NONE', *, *, #136, .T. ) ;
#371 = DIMENSIONAL_EXPONENTS ( 1.000000000000000000, 0.000000000000000000, 0.000000000000000000, 0.000000000000000000, 0.000000000000000000, 0.000000000000000000, 0.000000000000000000 ) ;
#372 = DIRECTION ( 'NONE',  ( 1.000000000000000000, 0.000000000000000000, 0.000000000000000000 ) ) ;
#373 = FACE_OUTER_BOUND ( 'NONE', #368, .T. ) ;
ENDSEC;
END-ISO-10303-21;
