ISO-10303-21;
HEADER;
FILE_DESCRIPTION (( 'STEP AP214' ),
    '1' );
FILE_NAME ('03510.STEP',
    '2023-06-22T15:24:16',
    ( '' ),
    ( '' ),
    'SwSTEP 2.0',
    'SolidWorks 2023',
    '' );
FILE_SCHEMA (( 'AUTOMOTIVE_DESIGN' ));
ENDSEC;

DATA;
#1 = EDGE_CURVE ( 'NONE', #291, #248, #267, .T. ) ;
#2 = ORIENTED_EDGE ( 'NONE', *, *, #157, .T. ) ;
#3 = AXIS2_PLACEMENT_3D ( 'NONE', #52, #149, #245 ) ;
#4 = FILL_AREA_STYLE_COLOUR ( '', #29 ) ;
#5 = SURFACE_STYLE_FILL_AREA ( #119 ) ;
#6 = DIMENSIONAL_EXPONENTS ( 1.000000000000000000, 0.000000000000000000, 0.000000000000000000, 0.000000000000000000, 0.000000000000000000, 0.000000000000000000, 0.000000000000000000 ) ;
#7 = CARTESIAN_POINT ( 'NONE',  ( -1.224646799147353207E-16, 5.000000000000000000, 0.000000000000000000 ) ) ;
#8 = SURFACE_SIDE_STYLE ('',( #31 ) ) ;
#9 = VERTEX_POINT ( 'NONE', #309 ) ;
#10 =( LENGTH_UNIT ( ) NAMED_UNIT ( * ) SI_UNIT ( $, .METRE. ) );
#11 = DIRECTION ( 'NONE',  ( 0.000000000000000000, 0.000000000000000000, -1.000000000000000000 ) ) ;
#12 = AXIS2_PLACEMENT_3D ( 'NONE', #141, #21, #182 ) ;
#13 = ADVANCED_FACE ( 'NONE', ( #105 ), #101, .T. ) ;
#14 =( LENGTH_UNIT ( ) NAMED_UNIT ( * ) SI_UNIT ( $, .METRE. ) );
#15 = SURFACE_STYLE_USAGE ( .BOTH. , #91 ) ;
#16 = PRODUCT_DEFINITION ( 'UNKNOWN', '', #99, #45 ) ;
#17 = PRESENTATION_STYLE_ASSIGNMENT (( #296 ) ) ;
#18 = CARTESIAN_POINT ( 'NONE',  ( -0.2500000000000002220, 5.000000000000000000, 0.000000000000000000 ) ) ;
#19 = DIRECTION ( 'NONE',  ( 0.000000000000000000, 0.000000000000000000, -1.000000000000000000 ) ) ;
#20 = ADVANCED_FACE ( 'NONE', ( #187 ), #48, .F. ) ;
#21 = DIRECTION ( 'NONE',  ( -0.000000000000000000, -1.000000000000000000, -0.000000000000000000 ) ) ;
#22 = LENGTH_MEASURE_WITH_UNIT ( LENGTH_MEASURE( 0.02539999999999999897 ), #62 );
#23 = FILL_AREA_STYLE ('',( #233 ) ) ;
#24 = PRESENTATION_STYLE_ASSIGNMENT (( #186 ) ) ;
#25 = VERTEX_POINT ( 'NONE', #155 ) ;
#26 = ORIENTED_EDGE ( 'NONE', *, *, #72, .T. ) ;
#27 = FACE_OUTER_BOUND ( 'NONE', #103, .T. ) ;
#28 = STYLED_ITEM ( 'NONE', ( #57 ), #252 ) ;
#29 = COLOUR_RGB ( '',1.000000000000000000, 0.000000000000000000, 0.000000000000000000 ) ;
#30 = DIRECTION ( 'NONE',  ( -1.000000000000000000, 0.000000000000000000, 0.000000000000000000 ) ) ;
#31 = SURFACE_STYLE_FILL_AREA ( #126 ) ;
#32 = ORIENTED_EDGE ( 'NONE', *, *, #40, .F. ) ;
#33 = EDGE_CURVE ( 'NONE', #248, #25, #257, .T. ) ;
#34 = FILL_AREA_STYLE_COLOUR ( '', #173 ) ;
#35 = DIRECTION ( 'NONE',  ( -1.000000000000000000, 0.000000000000000000, 0.000000000000000000 ) ) ;
#36 = EDGE_CURVE ( 'NONE', #9, #194, #130, .T. ) ;
#37 = FILL_AREA_STYLE_COLOUR ( '', #301 ) ;
#38 = VECTOR ( 'NONE', #196, 39.37007874015748143 ) ;
#39 = LENGTH_MEASURE_WITH_UNIT ( LENGTH_MEASURE( 0.02539999999999999897 ), #14 );
#40 = EDGE_CURVE ( 'NONE', #248, #291, #293, .T. ) ;
#41 = PRODUCT_CONTEXT ( 'NONE', #128, 'mechanical' ) ;
#42 = PRESENTATION_LAYER_ASSIGNMENT (  '', '', ( #195 ) ) ;
#43 =( CONVERSION_BASED_UNIT ( 'INCH', #307 ) LENGTH_UNIT ( ) NAMED_UNIT ( #143 ) );
#44 = DIMENSIONAL_EXPONENTS ( 1.000000000000000000, 0.000000000000000000, 0.000000000000000000, 0.000000000000000000, 0.000000000000000000, 0.000000000000000000, 0.000000000000000000 ) ;
#45 = PRODUCT_DEFINITION_CONTEXT ( 'detailed design', #80, 'design' ) ;
#46 =( LENGTH_UNIT ( ) NAMED_UNIT ( * ) SI_UNIT ( $, .METRE. ) );
#47 = STYLED_ITEM ( 'NONE', ( #175 ), #145 ) ;
#48 = PLANE ( 'NONE',  #256 ) ;
#49 = VERTEX_POINT ( 'NONE', #136 ) ;
#50 = DIRECTION ( 'NONE',  ( -4.898587196589413075E-17, 1.000000000000000000, -0.000000000000000000 ) ) ;
#51 = ORIENTED_EDGE ( 'NONE', *, *, #157, .F. ) ;
#52 = CARTESIAN_POINT ( 'NONE',  ( 1.516480271171051896E-32, 2.500000000000000000, 0.000000000000000000 ) ) ;
#53 = CLOSED_SHELL ( 'NONE', ( #304, #145, #252, #289 ) ) ;
#54 = PRESENTATION_LAYER_ASSIGNMENT (  '', '', ( #61 ) ) ;
#55 = PRESENTATION_LAYER_ASSIGNMENT (  '', '', ( #236 ) ) ;
#56 = ORIENTED_EDGE ( 'NONE', *, *, #226, .T. ) ;
#57 = PRESENTATION_STYLE_ASSIGNMENT (( #84 ) ) ;
#58 = ORIENTED_EDGE ( 'NONE', *, *, #1, .T. ) ;
#59 = MANIFOLD_SOLID_BREP ( 'Revolve - Cutting Edge', #53 ) ;
#60 = SURFACE_STYLE_FILL_AREA ( #89 ) ;
#61 = STYLED_ITEM ( 'NONE', ( #24 ), #156 ) ;
#62 =( LENGTH_UNIT ( ) NAMED_UNIT ( * ) SI_UNIT ( $, .METRE. ) );
#63 = CARTESIAN_POINT ( 'NONE',  ( 3.061616997868383018E-17, 0.000000000000000000, 0.2500000000000000000 ) ) ;
#64 = FACE_OUTER_BOUND ( 'NONE', #217, .T. ) ;
#65 = CARTESIAN_POINT ( 'NONE',  ( 2.999519565323715729E-34, 2.500000000000000000, 0.000000000000000000 ) ) ;
#66 = AXIS2_PLACEMENT_3D ( 'NONE', #292, #50, #151 ) ;
#67 = AXIS2_PLACEMENT_3D ( 'NONE', #241, #190, #270 ) ;
#68 =( NAMED_UNIT ( * ) SI_UNIT ( $, .STERADIAN. ) SOLID_ANGLE_UNIT ( ) );
#69 = FACE_OUTER_BOUND ( 'NONE', #185, .T. ) ;
#70 = CYLINDRICAL_SURFACE ( 'NONE', #66, 0.2500000000000000555 ) ;
#71 =( GEOMETRIC_REPRESENTATION_CONTEXT ( 3 ) GLOBAL_UNCERTAINTY_ASSIGNED_CONTEXT ( ( #237 ) ) GLOBAL_UNIT_ASSIGNED_CONTEXT ( ( #93, #238, #282 ) ) REPRESENTATION_CONTEXT ( 'NONE', 'WORKASPACE' ) );
#72 = EDGE_CURVE ( 'NONE', #167, #194, #250, .T. ) ;
#73 = MECHANICAL_DESIGN_GEOMETRIC_PRESENTATION_REPRESENTATION (  '', ( #236 ), #74 ) ;
#74 =( GEOMETRIC_REPRESENTATION_CONTEXT ( 3 ) GLOBAL_UNCERTAINTY_ASSIGNED_CONTEXT ( ( #118 ) ) GLOBAL_UNIT_ASSIGNED_CONTEXT ( ( #225, #255, #135 ) ) REPRESENTATION_CONTEXT ( 'NONE', 'WORKASPACE' ) );
#75 = DIRECTION ( 'NONE',  ( 1.000000000000000000, 0.000000000000000000, 0.000000000000000000 ) ) ;
#76 = UNCERTAINTY_MEASURE_WITH_UNIT (LENGTH_MEASURE( 1.000000000000000082E-05 ), #259, 'distance_accuracy_value', 'NONE');
#77 = ORIENTED_EDGE ( 'NONE', *, *, #94, .F. ) ;
#78 = PRODUCT ( '03510', '03510', '', ( #41 ) ) ;
#79 = MECHANICAL_DESIGN_GEOMETRIC_PRESENTATION_REPRESENTATION (  '', ( #195 ), #183 ) ;
#80 = APPLICATION_CONTEXT ( 'automotive_design' ) ;
#81 = EDGE_LOOP ( 'NONE', ( #266, #169, #153, #218 ) ) ;
#82 = DIRECTION ( 'NONE',  ( 4.898587196589412459E-17, -1.000000000000000000, 0.000000000000000000 ) ) ;
#83 = ORIENTED_EDGE ( 'NONE', *, *, #1, .F. ) ;
#84 = SURFACE_STYLE_USAGE ( .BOTH. , #8 ) ;
#85 = CIRCLE ( 'NONE', #133, 0.2500000000000001110 ) ;
#86 = ORIENTED_EDGE ( 'NONE', *, *, #124, .F. ) ;
#87 = SURFACE_STYLE_USAGE ( .BOTH. , #109 ) ;
#88 = CARTESIAN_POINT ( 'NONE',  ( 0.000000000000000000, 0.000000000000000000, -0.2500000000000000000 ) ) ;
#89 = FILL_AREA_STYLE ('',( #34 ) ) ;
#90 =( LENGTH_UNIT ( ) NAMED_UNIT ( * ) SI_UNIT ( $, .METRE. ) );
#91 = SURFACE_SIDE_STYLE ('',( #134 ) ) ;
#92 = ADVANCED_BREP_SHAPE_REPRESENTATION ( '03510', ( #59, #156, #208 ), #139 ) ;
#93 =( CONVERSION_BASED_UNIT ( 'INCH', #110 ) LENGTH_UNIT ( ) NAMED_UNIT ( #140 ) );
#94 = EDGE_CURVE ( 'NONE', #291, #242, #277, .T. ) ;
#95 =( GEOMETRIC_REPRESENTATION_CONTEXT ( 3 ) GLOBAL_UNCERTAINTY_ASSIGNED_CONTEXT ( ( #192 ) ) GLOBAL_UNIT_ASSIGNED_CONTEXT ( ( #43, #209, #260 ) ) REPRESENTATION_CONTEXT ( 'NONE', 'WORKASPACE' ) );
#96 = ADVANCED_FACE ( 'NONE', ( #64 ), #158, .F. ) ;
#97 =( CONVERSION_BASED_UNIT ( 'INCH', #22 ) LENGTH_UNIT ( ) NAMED_UNIT ( #290 ) );
#98 = AXIS2_PLACEMENT_3D ( 'NONE', #7, #262, #30 ) ;
#99 = PRODUCT_DEFINITION_FORMATION_WITH_SPECIFIED_SOURCE ( 'ANY', '', #78, .NOT_KNOWN. ) ;
#100 = LINE ( 'NONE', #280, #224 ) ;
#101 = CYLINDRICAL_SURFACE ( 'NONE', #98, 0.2500000000000000555 ) ;
#102 = SURFACE_SIDE_STYLE ('',( #5 ) ) ;
#103 = EDGE_LOOP ( 'NONE', ( #172, #265, #127, #86 ) ) ;
#104 = EDGE_LOOP ( 'NONE', ( #83, #32 ) ) ;
#105 = FACE_OUTER_BOUND ( 'NONE', #81, .T. ) ;
#106 = ORIENTED_EDGE ( 'NONE', *, *, #226, .F. ) ;
#107 = COLOUR_RGB ( '',1.000000000000000000, 0.000000000000000000, 0.000000000000000000 ) ;
#108 = FACE_OUTER_BOUND ( 'NONE', #104, .T. ) ;
#109 = SURFACE_SIDE_STYLE ('',( #60 ) ) ;
#110 = LENGTH_MEASURE_WITH_UNIT ( LENGTH_MEASURE( 0.02539999999999999897 ), #10 );
#111 = AXIS2_PLACEMENT_3D ( 'NONE', #160, #297, #11 ) ;
#112 = DIRECTION ( 'NONE',  ( -0.000000000000000000, -1.000000000000000000, -0.000000000000000000 ) ) ;
#113 = DIRECTION ( 'NONE',  ( -0.000000000000000000, -1.000000000000000000, -0.000000000000000000 ) ) ;
#114 = DIRECTION ( 'NONE',  ( -4.898587196589412459E-17, 1.000000000000000000, -0.000000000000000000 ) ) ;
#115 = CARTESIAN_POINT ( 'NONE',  ( 0.000000000000000000, 0.000000000000000000, 0.000000000000000000 ) ) ;
#116 = PRESENTATION_LAYER_ASSIGNMENT (  '', '', ( #47 ) ) ;
#117 = CARTESIAN_POINT ( 'NONE',  ( -1.224646799147353207E-16, 5.000000000000000000, 0.000000000000000000 ) ) ;
#118 = UNCERTAINTY_MEASURE_WITH_UNIT (LENGTH_MEASURE( 1.000000000000000082E-05 ), #225, 'distance_accuracy_value', 'NONE');
#119 = FILL_AREA_STYLE ('',( #285 ) ) ;
#120 = CARTESIAN_POINT ( 'NONE',  ( 0.000000000000000000, 2.500000000000000000, 0.000000000000000000 ) ) ;
#121 = EDGE_LOOP ( 'NONE', ( #58, #240, #51, #77 ) ) ;
#122 = MECHANICAL_DESIGN_GEOMETRIC_PRESENTATION_REPRESENTATION (  '', ( #61 ), #95 ) ;
#123 = CARTESIAN_POINT ( 'NONE',  ( 1.516480271171051896E-32, 2.500000000000000000, 0.000000000000000000 ) ) ;
#124 = EDGE_CURVE ( 'NONE', #25, #242, #168, .T. ) ;
#125 = DIMENSIONAL_EXPONENTS ( 1.000000000000000000, 0.000000000000000000, 0.000000000000000000, 0.000000000000000000, 0.000000000000000000, 0.000000000000000000, 0.000000000000000000 ) ;
#126 = FILL_AREA_STYLE ('',( #4 ) ) ;
#127 = ORIENTED_EDGE ( 'NONE', *, *, #94, .T. ) ;
#128 = APPLICATION_CONTEXT ( 'automotive_design' ) ;
#129 = LENGTH_MEASURE_WITH_UNIT ( LENGTH_MEASURE( 0.02539999999999999897 ), #176 );
#130 = LINE ( 'NONE', #18, #38 ) ;
#131 = LENGTH_MEASURE_WITH_UNIT ( LENGTH_MEASURE( 0.02539999999999999897 ), #90 );
#132 = DIRECTION ( 'NONE',  ( -0.000000000000000000, -1.000000000000000000, -0.000000000000000000 ) ) ;
#133 = AXIS2_PLACEMENT_3D ( 'NONE', #117, #166, #137 ) ;
#134 = SURFACE_STYLE_FILL_AREA ( #294 ) ;
#135 =( NAMED_UNIT ( * ) SI_UNIT ( $, .STERADIAN. ) SOLID_ANGLE_UNIT ( ) );
#136 = CARTESIAN_POINT ( 'NONE',  ( 0.2500000000000000555, 2.500000000000000000, 3.061616997868384251E-17 ) ) ;
#137 = DIRECTION ( 'NONE',  ( -1.000000000000000000, 0.000000000000000000, 0.000000000000000000 ) ) ;
#138 =( GEOMETRIC_REPRESENTATION_CONTEXT ( 3 ) GLOBAL_UNCERTAINTY_ASSIGNED_CONTEXT ( ( #170 ) ) GLOBAL_UNIT_ASSIGNED_CONTEXT ( ( #221, #281, #68 ) ) REPRESENTATION_CONTEXT ( 'NONE', 'WORKASPACE' ) );
#139 =( GEOMETRIC_REPRESENTATION_CONTEXT ( 3 ) GLOBAL_UNCERTAINTY_ASSIGNED_CONTEXT ( ( #148 ) ) GLOBAL_UNIT_ASSIGNED_CONTEXT ( ( #97, #165, #228 ) ) REPRESENTATION_CONTEXT ( 'NONE', 'WORKASPACE' ) );
#140 = DIMENSIONAL_EXPONENTS ( 1.000000000000000000, 0.000000000000000000, 0.000000000000000000, 0.000000000000000000, 0.000000000000000000, 0.000000000000000000, 0.000000000000000000 ) ;
#141 = CARTESIAN_POINT ( 'NONE',  ( 0.000000000000000000, 0.000000000000000000, 0.000000000000000000 ) ) ;
#142 =( LENGTH_UNIT ( ) NAMED_UNIT ( * ) SI_UNIT ( $, .METRE. ) );
#143 = DIMENSIONAL_EXPONENTS ( 1.000000000000000000, 0.000000000000000000, 0.000000000000000000, 0.000000000000000000, 0.000000000000000000, 0.000000000000000000, 0.000000000000000000 ) ;
#144 = STYLED_ITEM ( 'NONE', ( #308 ), #289 ) ;
#145 = ADVANCED_FACE ( 'NONE', ( #108 ), #249, .T. ) ;
#146 = CARTESIAN_POINT ( 'NONE',  ( 3.061616997868383018E-17, 2.500000000000000000, 0.2500000000000000000 ) ) ;
#147 = CARTESIAN_POINT ( 'NONE',  ( 0.000000000000000000, 2.500000000000000000, 0.000000000000000000 ) ) ;
#148 = UNCERTAINTY_MEASURE_WITH_UNIT (LENGTH_MEASURE( 1.000000000000000082E-05 ), #97, 'distance_accuracy_value', 'NONE');
#149 = DIRECTION ( 'NONE',  ( -4.898587196589413075E-17, 1.000000000000000000, -0.000000000000000000 ) ) ;
#150 = PRESENTATION_LAYER_ASSIGNMENT (  '', '', ( #28 ) ) ;
#151 = DIRECTION ( 'NONE',  ( -1.000000000000000000, 0.000000000000000000, 0.000000000000000000 ) ) ;
#152 = ORIENTED_EDGE ( 'NONE', *, *, #36, .F. ) ;
#153 = ORIENTED_EDGE ( 'NONE', *, *, #36, .T. ) ;
#154 = PRESENTATION_STYLE_ASSIGNMENT (( #15 ) ) ;
#155 = CARTESIAN_POINT ( 'NONE',  ( 3.061616997868383018E-17, 0.000000000000000000, 0.2500000000000000000 ) ) ;
#156 = MANIFOLD_SOLID_BREP ( 'Revolve - Tool Body (Straight Shanked)', #188 ) ;
#157 = EDGE_CURVE ( 'NONE', #242, #25, #278, .T. ) ;
#158 = PLANE ( 'NONE',  #274 ) ;
#159 = AXIS2_PLACEMENT_3D ( 'NONE', #234, #113, #203 ) ;
#160 = CARTESIAN_POINT ( 'NONE',  ( 0.000000000000000000, 0.000000000000000000, 0.000000000000000000 ) ) ;
#161 = CYLINDRICAL_SURFACE ( 'NONE', #184, 0.2500000000000000000 ) ;
#162 = LENGTH_MEASURE_WITH_UNIT ( LENGTH_MEASURE( 0.02539999999999999897 ), #46 );
#163 = AXIS2_PLACEMENT_3D ( 'NONE', #123, #243, #246 ) ;
#164 = APPLICATION_PROTOCOL_DEFINITION ( 'draft international standard', 'automotive_design', 1998, #80 ) ;
#165 =( NAMED_UNIT ( * ) PLANE_ANGLE_UNIT ( ) SI_UNIT ( $, .RADIAN. ) );
#166 = DIRECTION ( 'NONE',  ( -4.898587196589413075E-17, 1.000000000000000000, -0.000000000000000000 ) ) ;
#167 = VERTEX_POINT ( 'NONE', #303 ) ;
#168 = CIRCLE ( 'NONE', #111, 0.2500000000000000000 ) ;
#169 = ORIENTED_EDGE ( 'NONE', *, *, #295, .T. ) ;
#170 = UNCERTAINTY_MEASURE_WITH_UNIT (LENGTH_MEASURE( 1.000000000000000082E-05 ), #221, 'distance_accuracy_value', 'NONE');
#171 = EDGE_LOOP ( 'NONE', ( #56, #174, #191, #152 ) ) ;
#172 = ORIENTED_EDGE ( 'NONE', *, *, #33, .F. ) ;
#173 = COLOUR_RGB ( '',1.000000000000000000, 0.000000000000000000, 0.000000000000000000 ) ;
#174 = ORIENTED_EDGE ( 'NONE', *, *, #273, .T. ) ;
#175 = PRESENTATION_STYLE_ASSIGNMENT (( #87 ) ) ;
#176 =( LENGTH_UNIT ( ) NAMED_UNIT ( * ) SI_UNIT ( $, .METRE. ) );
#177 = SURFACE_STYLE_FILL_AREA ( #275 ) ;
#178 = AXIS2_PLACEMENT_3D ( 'NONE', #254, #112, #271 ) ;
#179 =( CONVERSION_BASED_UNIT ( 'INCH', #39 ) LENGTH_UNIT ( ) NAMED_UNIT ( #125 ) );
#180 = CARTESIAN_POINT ( 'NONE',  ( -1.224646799147353207E-16, 5.000000000000000000, 0.000000000000000000 ) ) ;
#181 = PRESENTATION_LAYER_ASSIGNMENT (  '', '', ( #144 ) ) ;
#182 = DIRECTION ( 'NONE',  ( 0.000000000000000000, 0.000000000000000000, -1.000000000000000000 ) ) ;
#183 =( GEOMETRIC_REPRESENTATION_CONTEXT ( 3 ) GLOBAL_UNCERTAINTY_ASSIGNED_CONTEXT ( ( #231 ) ) GLOBAL_UNIT_ASSIGNED_CONTEXT ( ( #179, #251, #253 ) ) REPRESENTATION_CONTEXT ( 'NONE', 'WORKASPACE' ) );
#184 = AXIS2_PLACEMENT_3D ( 'NONE', #258, #227, #19 ) ;
#185 = EDGE_LOOP ( 'NONE', ( #2, #269 ) ) ;
#186 = SURFACE_STYLE_USAGE ( .BOTH. , #102 ) ;
#187 = FACE_OUTER_BOUND ( 'NONE', #193, .T. ) ;
#188 = CLOSED_SHELL ( 'NONE', ( #207, #96, #13, #20 ) ) ;
#189 = AXIS2_PLACEMENT_3D ( 'NONE', #180, #276, #35 ) ;
#190 = DIRECTION ( 'NONE',  ( 0.000000000000000000, -1.000000000000000000, -0.000000000000000000 ) ) ;
#191 = ORIENTED_EDGE ( 'NONE', *, *, #283, .F. ) ;
#192 = UNCERTAINTY_MEASURE_WITH_UNIT (LENGTH_MEASURE( 1.000000000000000082E-05 ), #43, 'distance_accuracy_value', 'NONE');
#193 = EDGE_LOOP ( 'NONE', ( #247, #26 ) ) ;
#194 = VERTEX_POINT ( 'NONE', #279 ) ;
#195 = STYLED_ITEM ( 'NONE', ( #154 ), #59 ) ;
#196 = DIRECTION ( 'NONE',  ( -4.898587196589412459E-17, 1.000000000000000000, -0.000000000000000000 ) ) ;
#197 = SURFACE_SIDE_STYLE ('',( #177 ) ) ;
#198 = DIRECTION ( 'NONE',  ( -1.000000000000000000, -4.898587196589412459E-17, 0.000000000000000000 ) ) ;
#199 = VECTOR ( 'NONE', #223, 39.37007874015748143 ) ;
#200 =( GEOMETRIC_REPRESENTATION_CONTEXT ( 3 ) GLOBAL_UNCERTAINTY_ASSIGNED_CONTEXT ( ( #76 ) ) GLOBAL_UNIT_ASSIGNED_CONTEXT ( ( #259, #230, #219 ) ) REPRESENTATION_CONTEXT ( 'NONE', 'WORKASPACE' ) );
#201 = FACE_OUTER_BOUND ( 'NONE', #121, .T. ) ;
#202 = FILL_AREA_STYLE_COLOUR ( '', #299 ) ;
#203 = DIRECTION ( 'NONE',  ( 0.000000000000000000, 0.000000000000000000, -1.000000000000000000 ) ) ;
#204 = PLANE ( 'NONE',  #67 ) ;
#205 = DIMENSIONAL_EXPONENTS ( 1.000000000000000000, 0.000000000000000000, 0.000000000000000000, 0.000000000000000000, 0.000000000000000000, 0.000000000000000000, 0.000000000000000000 ) ;
#206 = SURFACE_STYLE_USAGE ( .BOTH. , #211 ) ;
#207 = ADVANCED_FACE ( 'NONE', ( #300 ), #70, .T. ) ;
#208 = AXIS2_PLACEMENT_3D ( 'NONE', #115, #306, #75 ) ;
#209 =( NAMED_UNIT ( * ) PLANE_ANGLE_UNIT ( ) SI_UNIT ( $, .RADIAN. ) );
#210 = SURFACE_STYLE_FILL_AREA ( #23 ) ;
#211 = SURFACE_SIDE_STYLE ('',( #210 ) ) ;
#212 = PRODUCT_RELATED_PRODUCT_CATEGORY ( 'part', '', ( #78 ) ) ;
#213 = DIRECTION ( 'NONE',  ( 0.000000000000000000, 0.000000000000000000, -1.000000000000000000 ) ) ;
#214 = COLOUR_RGB ( '',0.7921568627450980005, 0.8196078431372548767, 0.9333333333333333481 ) ;
#215 = CYLINDRICAL_SURFACE ( 'NONE', #12, 0.2500000000000000000 ) ;
#216 = DIRECTION ( 'NONE',  ( 0.000000000000000000, 1.000000000000000000, 0.000000000000000000 ) ) ;
#217 = EDGE_LOOP ( 'NONE', ( #106, #244 ) ) ;
#218 = ORIENTED_EDGE ( 'NONE', *, *, #72, .F. ) ;
#219 =( NAMED_UNIT ( * ) SI_UNIT ( $, .STERADIAN. ) SOLID_ANGLE_UNIT ( ) );
#220 = AXIS2_PLACEMENT_3D ( 'NONE', #147, #216, #239 ) ;
#221 =( CONVERSION_BASED_UNIT ( 'INCH', #129 ) LENGTH_UNIT ( ) NAMED_UNIT ( #6 ) );
#222 = DIRECTION ( 'NONE',  ( 1.000000000000000000, 4.898587196589412459E-17, 0.000000000000000000 ) ) ;
#223 = DIRECTION ( 'NONE',  ( -0.000000000000000000, -1.000000000000000000, -0.000000000000000000 ) ) ;
#224 = VECTOR ( 'NONE', #114, 39.37007874015748143 ) ;
#225 =( CONVERSION_BASED_UNIT ( 'INCH', #131 ) LENGTH_UNIT ( ) NAMED_UNIT ( #205 ) );
#226 = EDGE_CURVE ( 'NONE', #9, #49, #298, .T. ) ;
#227 = DIRECTION ( 'NONE',  ( -0.000000000000000000, -1.000000000000000000, -0.000000000000000000 ) ) ;
#228 =( NAMED_UNIT ( * ) SI_UNIT ( $, .STERADIAN. ) SOLID_ANGLE_UNIT ( ) );
#229 = AXIS2_PLACEMENT_3D ( 'NONE', #120, #264, #213 ) ;
#230 =( NAMED_UNIT ( * ) PLANE_ANGLE_UNIT ( ) SI_UNIT ( $, .RADIAN. ) );
#231 = UNCERTAINTY_MEASURE_WITH_UNIT (LENGTH_MEASURE( 1.000000000000000082E-05 ), #179, 'distance_accuracy_value', 'NONE');
#232 = SHAPE_DEFINITION_REPRESENTATION ( #284, #92 ) ;
#233 = FILL_AREA_STYLE_COLOUR ( '', #107 ) ;
#234 = CARTESIAN_POINT ( 'NONE',  ( 0.000000000000000000, 0.000000000000000000, 0.000000000000000000 ) ) ;
#235 = MECHANICAL_DESIGN_GEOMETRIC_PRESENTATION_REPRESENTATION (  '', ( #28 ), #71 ) ;
#236 = STYLED_ITEM ( 'NONE', ( #17 ), #304 ) ;
#237 = UNCERTAINTY_MEASURE_WITH_UNIT (LENGTH_MEASURE( 1.000000000000000082E-05 ), #93, 'distance_accuracy_value', 'NONE');
#238 =( NAMED_UNIT ( * ) PLANE_ANGLE_UNIT ( ) SI_UNIT ( $, .RADIAN. ) );
#239 = DIRECTION ( 'NONE',  ( 0.000000000000000000, -0.000000000000000000, 1.000000000000000000 ) ) ;
#240 = ORIENTED_EDGE ( 'NONE', *, *, #33, .T. ) ;
#241 = CARTESIAN_POINT ( 'NONE',  ( 0.000000000000000000, 0.000000000000000000, 0.000000000000000000 ) ) ;
#242 = VERTEX_POINT ( 'NONE', #268 ) ;
#243 = DIRECTION ( 'NONE',  ( -4.898587196589413075E-17, 1.000000000000000000, -0.000000000000000000 ) ) ;
#244 = ORIENTED_EDGE ( 'NONE', *, *, #295, .F. ) ;
#245 = DIRECTION ( 'NONE',  ( -1.000000000000000000, 0.000000000000000000, 0.000000000000000000 ) ) ;
#246 = DIRECTION ( 'NONE',  ( -1.000000000000000000, 0.000000000000000000, 0.000000000000000000 ) ) ;
#247 = ORIENTED_EDGE ( 'NONE', *, *, #283, .T. ) ;
#248 = VERTEX_POINT ( 'NONE', #146 ) ;
#249 = PLANE ( 'NONE',  #220 ) ;
#250 = CIRCLE ( 'NONE', #189, 0.2500000000000001110 ) ;
#251 =( NAMED_UNIT ( * ) PLANE_ANGLE_UNIT ( ) SI_UNIT ( $, .RADIAN. ) );
#252 = ADVANCED_FACE ( 'NONE', ( #27 ), #215, .T. ) ;
#253 =( NAMED_UNIT ( * ) SI_UNIT ( $, .STERADIAN. ) SOLID_ANGLE_UNIT ( ) );
#254 = CARTESIAN_POINT ( 'NONE',  ( 0.000000000000000000, 2.500000000000000000, 0.000000000000000000 ) ) ;
#255 =( NAMED_UNIT ( * ) PLANE_ANGLE_UNIT ( ) SI_UNIT ( $, .RADIAN. ) );
#256 = AXIS2_PLACEMENT_3D ( 'NONE', #288, #82, #222 ) ;
#257 = LINE ( 'NONE', #63, #199 ) ;
#258 = CARTESIAN_POINT ( 'NONE',  ( 0.000000000000000000, 0.000000000000000000, 0.000000000000000000 ) ) ;
#259 =( CONVERSION_BASED_UNIT ( 'INCH', #162 ) LENGTH_UNIT ( ) NAMED_UNIT ( #44 ) );
#260 =( NAMED_UNIT ( * ) SI_UNIT ( $, .STERADIAN. ) SOLID_ANGLE_UNIT ( ) );
#261 = MECHANICAL_DESIGN_GEOMETRIC_PRESENTATION_REPRESENTATION (  '', ( #144 ), #200 ) ;
#262 = DIRECTION ( 'NONE',  ( -4.898587196589413075E-17, 1.000000000000000000, -0.000000000000000000 ) ) ;
#263 = CIRCLE ( 'NONE', #3, 0.2500000000000000000 ) ;
#264 = DIRECTION ( 'NONE',  ( -0.000000000000000000, -1.000000000000000000, -0.000000000000000000 ) ) ;
#265 = ORIENTED_EDGE ( 'NONE', *, *, #40, .T. ) ;
#266 = ORIENTED_EDGE ( 'NONE', *, *, #273, .F. ) ;
#267 = CIRCLE ( 'NONE', #229, 0.2500000000000000000 ) ;
#268 = CARTESIAN_POINT ( 'NONE',  ( 0.000000000000000000, 0.000000000000000000, -0.2500000000000000000 ) ) ;
#269 = ORIENTED_EDGE ( 'NONE', *, *, #124, .T. ) ;
#270 = DIRECTION ( 'NONE',  ( 0.000000000000000000, 0.000000000000000000, -1.000000000000000000 ) ) ;
#271 = DIRECTION ( 'NONE',  ( 0.000000000000000000, 0.000000000000000000, -1.000000000000000000 ) ) ;
#272 = DIRECTION ( 'NONE',  ( -4.898587196589412459E-17, 1.000000000000000000, 0.000000000000000000 ) ) ;
#273 = EDGE_CURVE ( 'NONE', #49, #167, #100, .T. ) ;
#274 = AXIS2_PLACEMENT_3D ( 'NONE', #65, #272, #198 ) ;
#275 = FILL_AREA_STYLE ('',( #202 ) ) ;
#276 = DIRECTION ( 'NONE',  ( -4.898587196589413075E-17, 1.000000000000000000, -0.000000000000000000 ) ) ;
#277 = LINE ( 'NONE', #88, #286 ) ;
#278 = CIRCLE ( 'NONE', #159, 0.2500000000000000000 ) ;
#279 = CARTESIAN_POINT ( 'NONE',  ( -0.2500000000000002776, 5.000000000000000000, 0.000000000000000000 ) ) ;
#280 = CARTESIAN_POINT ( 'NONE',  ( 0.2499999999999999167, 5.000000000000000000, 3.061616997868383634E-17 ) ) ;
#281 =( NAMED_UNIT ( * ) PLANE_ANGLE_UNIT ( ) SI_UNIT ( $, .RADIAN. ) );
#282 =( NAMED_UNIT ( * ) SI_UNIT ( $, .STERADIAN. ) SOLID_ANGLE_UNIT ( ) );
#283 = EDGE_CURVE ( 'NONE', #194, #167, #85, .T. ) ;
#284 = PRODUCT_DEFINITION_SHAPE ( 'NONE', 'NONE',  #16 ) ;
#285 = FILL_AREA_STYLE_COLOUR ( '', #214 ) ;
#286 = VECTOR ( 'NONE', #132, 39.37007874015748143 ) ;
#287 = CARTESIAN_POINT ( 'NONE',  ( 0.000000000000000000, 2.500000000000000000, -0.2500000000000000000 ) ) ;
#288 = CARTESIAN_POINT ( 'NONE',  ( 0.2500000000000000000, 5.000000000000000000, 0.000000000000000000 ) ) ;
#289 = ADVANCED_FACE ( 'NONE', ( #69 ), #204, .T. ) ;
#290 = DIMENSIONAL_EXPONENTS ( 1.000000000000000000, 0.000000000000000000, 0.000000000000000000, 0.000000000000000000, 0.000000000000000000, 0.000000000000000000, 0.000000000000000000 ) ;
#291 = VERTEX_POINT ( 'NONE', #287 ) ;
#292 = CARTESIAN_POINT ( 'NONE',  ( -1.224646799147353207E-16, 5.000000000000000000, 0.000000000000000000 ) ) ;
#293 = CIRCLE ( 'NONE', #178, 0.2500000000000000000 ) ;
#294 = FILL_AREA_STYLE ('',( #37 ) ) ;
#295 = EDGE_CURVE ( 'NONE', #49, #9, #263, .T. ) ;
#296 = SURFACE_STYLE_USAGE ( .BOTH. , #197 ) ;
#297 = DIRECTION ( 'NONE',  ( -0.000000000000000000, -1.000000000000000000, -0.000000000000000000 ) ) ;
#298 = CIRCLE ( 'NONE', #163, 0.2500000000000000000 ) ;
#299 = COLOUR_RGB ( '',1.000000000000000000, 0.000000000000000000, 0.000000000000000000 ) ;
#300 = FACE_OUTER_BOUND ( 'NONE', #171, .T. ) ;
#301 = COLOUR_RGB ( '',0.7921568627450980005, 0.8196078431372548767, 0.9333333333333333481 ) ;
#302 = APPLICATION_PROTOCOL_DEFINITION ( 'draft international standard', 'automotive_design', 1998, #128 ) ;
#303 = CARTESIAN_POINT ( 'NONE',  ( 0.2500000000000000555, 5.000000000000000000, 3.061616997868384251E-17 ) ) ;
#304 = ADVANCED_FACE ( 'NONE', ( #201 ), #161, .T. ) ;
#305 = MECHANICAL_DESIGN_GEOMETRIC_PRESENTATION_REPRESENTATION (  '', ( #47 ), #138 ) ;
#306 = DIRECTION ( 'NONE',  ( 0.000000000000000000, 0.000000000000000000, 1.000000000000000000 ) ) ;
#307 = LENGTH_MEASURE_WITH_UNIT ( LENGTH_MEASURE( 0.02539999999999999897 ), #142 );
#308 = PRESENTATION_STYLE_ASSIGNMENT (( #206 ) ) ;
#309 = CARTESIAN_POINT ( 'NONE',  ( -0.2500000000000000000, 2.500000000000000000, 0.000000000000000000 ) ) ;
ENDSEC;
END-ISO-10303-21;
