ISO-10303-21;
HEADER;
FILE_DESCRIPTION (( 'STEP AP214' ),
    '1' );
FILE_NAME ('Micro_SBMM-060-430.STEP',
    '2021-09-02T17:14:54',
    ( '' ),
    ( '' ),
    'SwSTEP 2.0',
    'SolidWorks 2020',
    '' );
FILE_SCHEMA (( 'AUTOMOTIVE_DESIGN' ));
ENDSEC;

DATA;
#1 = PRODUCT_CONTEXT ( 'NONE', #297, 'mechanical' ) ;
#2 = EDGE_CURVE ( 'NONE', #121, #144, #210, .T. ) ;
#3 = LINE ( 'NONE', #107, #205 ) ;
#4 = CARTESIAN_POINT ( 'NONE',  ( 0.0000000000000000000, 0.0000000000000000000, 2.952755999999999936 ) ) ;
#5 = CARTESIAN_POINT ( 'NONE',  ( 0.0000000000000000000, 0.0000000000000000000, 2.952755999999999936 ) ) ;
#6 = EDGE_CURVE ( 'NONE', #18, #12, #115, .T. ) ;
#7 = AXIS2_PLACEMENT_3D ( 'NONE', #132, #54, #79 ) ;
#8 = DIRECTION ( 'NONE',  ( -1.000000000000000000, 0.0000000000000000000, 0.0000000000000000000 ) ) ;
#9 = CARTESIAN_POINT ( 'NONE',  ( 0.0000000000000000000, 0.0000000000000000000, 0.0000000000000000000 ) ) ;
#10 = ORIENTED_EDGE ( 'NONE', *, *, #106, .F. ) ;
#11 = DIRECTION ( 'NONE',  ( 1.000000000000000000, 0.0000000000000000000, 0.0000000000000000000 ) ) ;
#12 = VERTEX_POINT ( 'NONE', #343 ) ;
#13 = AXIS2_PLACEMENT_3D ( 'NONE', #23, #160, #245 ) ;
#14 = DIRECTION ( 'NONE',  ( -0.0000000000000000000, -0.0000000000000000000, -1.000000000000000000 ) ) ;
#15 = ORIENTED_EDGE ( 'NONE', *, *, #74, .F. ) ;
#16 = FILL_AREA_STYLE_COLOUR ( '', #213 ) ;
#17 = ORIENTED_EDGE ( 'NONE', *, *, #111, .F. ) ;
#18 = VERTEX_POINT ( 'NONE', #341 ) ;
#19 = PRESENTATION_STYLE_ASSIGNMENT (( #238 ) ) ;
#20 = VECTOR ( 'NONE', #116, 39.37007874015748854 ) ;
#21 = MECHANICAL_DESIGN_GEOMETRIC_PRESENTATION_REPRESENTATION (  '', ( #237 ), #57 ) ;
#22 = LINE ( 'NONE', #130, #104 ) ;
#23 = CARTESIAN_POINT ( 'NONE',  ( 0.0000000000000000000, 0.0000000000000000000, 0.1181100000000000066 ) ) ;
#24 =( NAMED_UNIT ( * ) PLANE_ANGLE_UNIT ( ) SI_UNIT ( $, .RADIAN. ) );
#25 = CARTESIAN_POINT ( 'NONE',  ( 0.07873999999999986565, 0.0000000000000000000, 1.181102000000000096 ) ) ;
#26 = EDGE_CURVE ( 'NONE', #121, #12, #317, .T. ) ;
#27 = CIRCLE ( 'NONE', #263, 0.07873999999999996280 ) ;
#28 = DIRECTION ( 'NONE',  ( 0.0000000000000000000, 0.0000000000000000000, 1.000000000000000000 ) ) ;
#29 = VECTOR ( 'NONE', #187, 39.37007874015748143 ) ;
#30 = UNCERTAINTY_MEASURE_WITH_UNIT (LENGTH_MEASURE( 1.000000000000000082E-05 ), #259, 'distance_accuracy_value', 'NONE');
#31 = CARTESIAN_POINT ( 'NONE',  ( 0.0000000000000000000, 0.0000000000000000000, 1.744094299999997322 ) ) ;
#32 = CYLINDRICAL_SURFACE ( 'NONE', #246, 0.07873999999999992117 ) ;
#33 = DIRECTION ( 'NONE',  ( -0.0000000000000000000, -0.0000000000000000000, -1.000000000000000000 ) ) ;
#34 = AXIS2_PLACEMENT_3D ( 'NONE', #280, #276, #224 ) ;
#35 = CARTESIAN_POINT ( 'NONE',  ( 0.0000000000000000000, 0.0000000000000000000, 0.1181100000000000066 ) ) ;
#36 = ORIENTED_EDGE ( 'NONE', *, *, #117, .T. ) ;
#37 = SPHERICAL_SURFACE ( 'NONE', #52, 0.1181099999999999928 ) ;
#38 = ORIENTED_EDGE ( 'NONE', *, *, #225, .T. ) ;
#39 = FACE_OUTER_BOUND ( 'NONE', #170, .T. ) ;
#40 = VERTEX_POINT ( 'NONE', #112 ) ;
#41 = AXIS2_PLACEMENT_3D ( 'NONE', #9, #14, #123 ) ;
#42 = SURFACE_STYLE_FILL_AREA ( #209 ) ;
#43 = EDGE_LOOP ( 'NONE', ( #173, #310, #235, #38 ) ) ;
#44 = PRODUCT_RELATED_PRODUCT_CATEGORY ( 'part', '', ( #268 ) ) ;
#45 = ORIENTED_EDGE ( 'NONE', *, *, #101, .F. ) ;
#46 = DIRECTION ( 'NONE',  ( -0.0000000000000000000, -0.0000000000000000000, -1.000000000000000000 ) ) ;
#47 = AXIS2_PLACEMENT_3D ( 'NONE', #302, #300, #8 ) ;
#48 = DIRECTION ( 'NONE',  ( -1.000000000000000000, 0.0000000000000000000, 0.0000000000000000000 ) ) ;
#49 =( LENGTH_UNIT ( ) NAMED_UNIT ( * ) SI_UNIT ( $, .METRE. ) );
#50 = DIRECTION ( 'NONE',  ( -1.224646799147353207E-16, 1.000000000000000000, 0.0000000000000000000 ) ) ;
#51 = DIMENSIONAL_EXPONENTS ( 1.000000000000000000, 0.0000000000000000000, 0.0000000000000000000, 0.0000000000000000000, 0.0000000000000000000, 0.0000000000000000000, 0.0000000000000000000 ) ;
#52 = AXIS2_PLACEMENT_3D ( 'NONE', #35, #304, #327 ) ;
#53 = DIRECTION ( 'NONE',  ( 1.000000000000000000, 0.0000000000000000000, 0.0000000000000000000 ) ) ;
#54 = DIRECTION ( 'NONE',  ( -0.0000000000000000000, -0.0000000000000000000, -1.000000000000000000 ) ) ;
#55 = CARTESIAN_POINT ( 'NONE',  ( 0.0000000000000000000, 0.0000000000000000000, 0.2061439962741667686 ) ) ;
#56 = AXIS2_PLACEMENT_3D ( 'NONE', #5, #84, #267 ) ;
#57 =( GEOMETRIC_REPRESENTATION_CONTEXT ( 3 ) GLOBAL_UNCERTAINTY_ASSIGNED_CONTEXT ( ( #30 ) ) GLOBAL_UNIT_ASSIGNED_CONTEXT ( ( #259, #282, #129 ) ) REPRESENTATION_CONTEXT ( 'NONE', 'WORKASPACE' ) );
#58 = CYLINDRICAL_SURFACE ( 'NONE', #47, 0.1181100000000000344 ) ;
#59 = DIRECTION ( 'NONE',  ( 0.0000000000000000000, 0.0000000000000000000, -1.000000000000000000 ) ) ;
#60 = CARTESIAN_POINT ( 'NONE',  ( 0.1031099999999991745, 1.262733314600825725E-17, 2.952755999999999936 ) ) ;
#61 = SPHERICAL_SURFACE ( 'NONE', #337, 0.1181099999999999928 ) ;
#62 = VERTEX_POINT ( 'NONE', #110 ) ;
#63 = CARTESIAN_POINT ( 'NONE',  ( -0.1031099999999991745, 0.0000000000000000000, 2.952755999999999936 ) ) ;
#64 = ORIENTED_EDGE ( 'NONE', *, *, #272, .T. ) ;
#65 = VERTEX_POINT ( 'NONE', #212 ) ;
#66 = ADVANCED_FACE ( 'NONE', ( #181 ), #182, .T. ) ;
#67 = AXIS2_PLACEMENT_3D ( 'NONE', #180, #86, #295 ) ;
#68 =( NAMED_UNIT ( * ) SI_UNIT ( $, .STERADIAN. ) SOLID_ANGLE_UNIT ( ) );
#69 = AXIS2_PLACEMENT_3D ( 'NONE', #155, #184, #53 ) ;
#70 = ORIENTED_EDGE ( 'NONE', *, *, #111, .T. ) ;
#71 = FILL_AREA_STYLE ('',( #76 ) ) ;
#72 = ORIENTED_EDGE ( 'NONE', *, *, #26, .F. ) ;
#73 = CARTESIAN_POINT ( 'NONE',  ( 0.0000000000000000000, 0.0000000000000000000, 0.2061439962741667686 ) ) ;
#74 = EDGE_CURVE ( 'NONE', #18, #203, #243, .T. ) ;
#75 = FACE_OUTER_BOUND ( 'NONE', #208, .T. ) ;
#76 = FILL_AREA_STYLE_COLOUR ( '', #98 ) ;
#77 = AXIS2_PLACEMENT_3D ( 'NONE', #193, #59, #166 ) ;
#78 = ADVANCED_FACE ( 'NONE', ( #156 ), #223, .T. ) ;
#79 = DIRECTION ( 'NONE',  ( -1.000000000000000000, 0.0000000000000000000, 0.0000000000000000000 ) ) ;
#80 = APPLICATION_PROTOCOL_DEFINITION ( 'draft international standard', 'automotive_design', 1998, #85 ) ;
#81 = DIMENSIONAL_EXPONENTS ( 1.000000000000000000, 0.0000000000000000000, 0.0000000000000000000, 0.0000000000000000000, 0.0000000000000000000, 0.0000000000000000000, 0.0000000000000000000 ) ;
#82 = VECTOR ( 'NONE', #103, 39.37007874015748143 ) ;
#83 = AXIS2_PLACEMENT_3D ( 'NONE', #274, #33, #95 ) ;
#84 = DIRECTION ( 'NONE',  ( 0.0000000000000000000, 0.0000000000000000000, -1.000000000000000000 ) ) ;
#85 = APPLICATION_CONTEXT ( 'automotive_design' ) ;
#86 = DIRECTION ( 'NONE',  ( 0.0000000000000000000, 0.0000000000000000000, -1.000000000000000000 ) ) ;
#87 = DIRECTION ( 'NONE',  ( -0.0000000000000000000, -0.0000000000000000000, -1.000000000000000000 ) ) ;
#88 = CIRCLE ( 'NONE', #67, 0.1181100000000000344 ) ;
#89 = DIRECTION ( 'NONE',  ( -0.0000000000000000000, -0.0000000000000000000, -1.000000000000000000 ) ) ;
#90 = CARTESIAN_POINT ( 'NONE',  ( 0.0000000000000000000, 0.0000000000000000000, 1.181102000000000096 ) ) ;
#91 = VERTEX_POINT ( 'NONE', #25 ) ;
#92 = CARTESIAN_POINT ( 'NONE',  ( 0.0000000000000000000, 0.0000000000000000000, 0.1181100000000000066 ) ) ;
#93 = ORIENTED_EDGE ( 'NONE', *, *, #340, .F. ) ;
#94 = EDGE_LOOP ( 'NONE', ( #232, #201, #255, #113 ) ) ;
#95 = DIRECTION ( 'NONE',  ( -1.000000000000000000, 0.0000000000000000000, 0.0000000000000000000 ) ) ;
#96 = ORIENTED_EDGE ( 'NONE', *, *, #2, .F. ) ;
#97 = SURFACE_SIDE_STYLE ('',( #42 ) ) ;
#98 = COLOUR_RGB ( '',0.7921568627450980005, 0.8196078431372548767, 0.9333333333333333481 ) ;
#99 = VERTEX_POINT ( 'NONE', #249 ) ;
#100 = CARTESIAN_POINT ( 'NONE',  ( 0.0000000000000000000, 0.0000000000000000000, 1.614173000000000080 ) ) ;
#101 = EDGE_CURVE ( 'NONE', #40, #203, #289, .T. ) ;
#102 = SURFACE_STYLE_USAGE ( .BOTH. , #97 ) ;
#103 = DIRECTION ( 'NONE',  ( -0.0000000000000000000, -0.0000000000000000000, -1.000000000000000000 ) ) ;
#104 = VECTOR ( 'NONE', #239, 39.37007874015748143 ) ;
#105 = CIRCLE ( 'NONE', #77, 0.1181100000000000344 ) ;
#106 = EDGE_CURVE ( 'NONE', #99, #144, #266, .T. ) ;
#107 = CARTESIAN_POINT ( 'NONE',  ( 0.1181100000000000344, 1.446430334472939084E-17, 2.952755999999999936 ) ) ;
#108 = VECTOR ( 'NONE', #89, 39.37007874015748143 ) ;
#109 = MECHANICAL_DESIGN_GEOMETRIC_PRESENTATION_REPRESENTATION (  '', ( #186 ), #338 ) ;
#110 = CARTESIAN_POINT ( 'NONE',  ( 0.07873999999999996280, 9.642868896486255427E-18, 0.2061439962741667686 ) ) ;
#111 = EDGE_CURVE ( 'NONE', #279, #144, #292, .T. ) ;
#112 = CARTESIAN_POINT ( 'NONE',  ( 0.0000000000000000000, 0.07873999999999996280, 0.2061439962741667686 ) ) ;
#113 = ORIENTED_EDGE ( 'NONE', *, *, #320, .F. ) ;
#114 = DIRECTION ( 'NONE',  ( -1.000000000000000000, 0.0000000000000000000, 0.0000000000000000000 ) ) ;
#115 = CIRCLE ( 'NONE', #7, 0.07873999999999996280 ) ;
#116 = DIRECTION ( 'NONE',  ( 0.7071067811865486830, 8.659560562354947649E-17, -0.7071067811865462405 ) ) ;
#117 = EDGE_CURVE ( 'NONE', #204, #279, #3, .T. ) ;
#118 = DIRECTION ( 'NONE',  ( -0.0000000000000000000, -0.0000000000000000000, -1.000000000000000000 ) ) ;
#119 = ORIENTED_EDGE ( 'NONE', *, *, #101, .T. ) ;
#120 = CARTESIAN_POINT ( 'NONE',  ( 0.0000000000000000000, 0.0000000000000000000, 2.952755999999999936 ) ) ;
#121 = VERTEX_POINT ( 'NONE', #293 ) ;
#122 = CLOSED_SHELL ( 'NONE', ( #215, #136, #296, #200, #211, #233, #66, #288, #214, #127, #78 ) ) ;
#123 = DIRECTION ( 'NONE',  ( -1.000000000000000000, 0.0000000000000000000, 0.0000000000000000000 ) ) ;
#124 = ORIENTED_EDGE ( 'NONE', *, *, #309, .F. ) ;
#125 = ORIENTED_EDGE ( 'NONE', *, *, #240, .T. ) ;
#126 = VERTEX_POINT ( 'NONE', #269 ) ;
#127 = ADVANCED_FACE ( 'NONE', ( #75 ), #322, .T. ) ;
#128 = ADVANCED_BREP_SHAPE_REPRESENTATION ( 'Micro_SBMM-060-430', ( #344, #69 ), #206 ) ;
#129 =( NAMED_UNIT ( * ) SI_UNIT ( $, .STERADIAN. ) SOLID_ANGLE_UNIT ( ) );
#130 = CARTESIAN_POINT ( 'NONE',  ( 0.1299209999999998422, 0.0000000000000000000, 1.744094299999997322 ) ) ;
#131 = CARTESIAN_POINT ( 'NONE',  ( -0.1181100000000000344, 0.0000000000000000000, 2.952755999999999936 ) ) ;
#132 = CARTESIAN_POINT ( 'NONE',  ( 0.0000000000000000000, 0.0000000000000000000, 0.2061439962741667686 ) ) ;
#133 = AXIS2_PLACEMENT_3D ( 'NONE', #31, #319, #137 ) ;
#134 =( NAMED_UNIT ( * ) SI_UNIT ( $, .STERADIAN. ) SOLID_ANGLE_UNIT ( ) );
#135 = FACE_OUTER_BOUND ( 'NONE', #178, .T. ) ;
#136 = ADVANCED_FACE ( 'NONE', ( #135 ), #248, .T. ) ;
#137 = DIRECTION ( 'NONE',  ( 1.000000000000000000, 0.0000000000000000000, 0.0000000000000000000 ) ) ;
#138 = LINE ( 'NONE', #250, #108 ) ;
#139 = FACE_OUTER_BOUND ( 'NONE', #339, .T. ) ;
#140 = CIRCLE ( 'NONE', #148, 0.1031099999999991745 ) ;
#141 = DIRECTION ( 'NONE',  ( -0.7071067811865486830, 0.0000000000000000000, -0.7071067811865462405 ) ) ;
#142 = EDGE_LOOP ( 'NONE', ( #189, #253, #198, #45 ) ) ;
#143 = DIRECTION ( 'NONE',  ( 0.0000000000000000000, 0.0000000000000000000, 1.000000000000000000 ) ) ;
#144 = VERTEX_POINT ( 'NONE', #323 ) ;
#145 = EDGE_CURVE ( 'NONE', #62, #18, #27, .T. ) ;
#146 = CARTESIAN_POINT ( 'NONE',  ( 0.1181100000000000344, 0.0000000000000000000, 1.614173000000000080 ) ) ;
#147 = ORIENTED_EDGE ( 'NONE', *, *, #6, .T. ) ;
#148 = AXIS2_PLACEMENT_3D ( 'NONE', #120, #254, #195 ) ;
#149 =( LENGTH_UNIT ( ) NAMED_UNIT ( * ) SI_UNIT ( $, .METRE. ) );
#150 = EDGE_LOOP ( 'NONE', ( #125, #334, #329, #93, #72 ) ) ;
#151 = ORIENTED_EDGE ( 'NONE', *, *, #228, .T. ) ;
#152 =( CONVERSION_BASED_UNIT ( 'INCH', #311 ) LENGTH_UNIT ( ) NAMED_UNIT ( #81 ) );
#153 = DIRECTION ( 'NONE',  ( -0.0000000000000000000, -0.0000000000000000000, -1.000000000000000000 ) ) ;
#154 = DIRECTION ( 'NONE',  ( -1.000000000000000000, 0.0000000000000000000, 0.0000000000000000000 ) ) ;
#155 = CARTESIAN_POINT ( 'NONE',  ( 0.0000000000000000000, 0.0000000000000000000, 0.0000000000000000000 ) ) ;
#156 = FACE_OUTER_BOUND ( 'NONE', #94, .T. ) ;
#157 = DIMENSIONAL_EXPONENTS ( 1.000000000000000000, 0.0000000000000000000, 0.0000000000000000000, 0.0000000000000000000, 0.0000000000000000000, 0.0000000000000000000, 0.0000000000000000000 ) ;
#158 = SHAPE_DEFINITION_REPRESENTATION ( #219, #128 ) ;
#159 = AXIS2_PLACEMENT_3D ( 'NONE', #306, #143, #11 ) ;
#160 = DIRECTION ( 'NONE',  ( -1.000000000000000000, 0.0000000000000000000, 0.0000000000000000000 ) ) ;
#161 = EDGE_CURVE ( 'NONE', #99, #204, #88, .T. ) ;
#162 = CARTESIAN_POINT ( 'NONE',  ( -0.1299209999999998422, 1.591073367920230651E-17, 1.744094299999997322 ) ) ;
#163 = CONICAL_SURFACE ( 'NONE', #168, 0.1031099999999991745, 0.7853981633974500554 ) ;
#164 = PRODUCT_DEFINITION_FORMATION_WITH_SPECIFIED_SOURCE ( 'ANY', '', #268, .NOT_KNOWN. ) ;
#165 = FACE_OUTER_BOUND ( 'NONE', #142, .T. ) ;
#166 = DIRECTION ( 'NONE',  ( 1.000000000000000000, 0.0000000000000000000, 0.0000000000000000000 ) ) ;
#167 = DIRECTION ( 'NONE',  ( 1.000000000000000000, 0.0000000000000000000, 0.0000000000000000000 ) ) ;
#168 = AXIS2_PLACEMENT_3D ( 'NONE', #251, #273, #278 ) ;
#169 = FACE_OUTER_BOUND ( 'NONE', #324, .T. ) ;
#170 = EDGE_LOOP ( 'NONE', ( #15, #147, #281, #119 ) ) ;
#171 = DIRECTION ( 'NONE',  ( 0.0000000000000000000, 0.0000000000000000000, 1.000000000000000000 ) ) ;
#172 = EDGE_CURVE ( 'NONE', #40, #62, #257, .T. ) ;
#173 = ORIENTED_EDGE ( 'NONE', *, *, #117, .F. ) ;
#174 = LENGTH_MEASURE_WITH_UNIT ( LENGTH_MEASURE( 0.02539999999999999897 ), #149 );
#175 = ORIENTED_EDGE ( 'NONE', *, *, #6, .F. ) ;
#176 = AXIS2_PLACEMENT_3D ( 'NONE', #290, #28, #325 ) ;
#177 = AXIS2_PLACEMENT_3D ( 'NONE', #73, #308, #207 ) ;
#178 = EDGE_LOOP ( 'NONE', ( #261, #36, #70, #10 ) ) ;
#179 = EDGE_CURVE ( 'NONE', #91, #279, #22, .T. ) ;
#180 = CARTESIAN_POINT ( 'NONE',  ( 0.0000000000000000000, 0.0000000000000000000, 2.937755999999999368 ) ) ;
#181 = FACE_OUTER_BOUND ( 'NONE', #284, .T. ) ;
#182 = CONICAL_SURFACE ( 'NONE', #133, 0.1299209999999998422, 0.09065967900408460067 ) ;
#183 = DIRECTION ( 'NONE',  ( 1.000000000000000000, 1.224646799147353207E-16, -0.0000000000000000000 ) ) ;
#184 = DIRECTION ( 'NONE',  ( 0.0000000000000000000, 0.0000000000000000000, 1.000000000000000000 ) ) ;
#185 = AXIS2_PLACEMENT_3D ( 'NONE', #90, #118, #114 ) ;
#186 = STYLED_ITEM ( 'NONE', ( #19 ), #128 ) ;
#187 = DIRECTION ( 'NONE',  ( -0.0000000000000000000, -0.0000000000000000000, -1.000000000000000000 ) ) ;
#188 = DIRECTION ( 'NONE',  ( 1.000000000000000000, 0.0000000000000000000, 0.0000000000000000000 ) ) ;
#189 = ORIENTED_EDGE ( 'NONE', *, *, #172, .T. ) ;
#190 = UNCERTAINTY_MEASURE_WITH_UNIT (LENGTH_MEASURE( 1.000000000000000082E-05 ), #152, 'distance_accuracy_value', 'NONE');
#191 = DIRECTION ( 'NONE',  ( -1.000000000000000000, 0.0000000000000000000, 0.0000000000000000000 ) ) ;
#192 = PRODUCT_DEFINITION ( 'UNKNOWN', '', #164, #275 ) ;
#193 = CARTESIAN_POINT ( 'NONE',  ( 0.0000000000000000000, 0.0000000000000000000, 2.937755999999999368 ) ) ;
#194 = DIRECTION ( 'NONE',  ( 0.0000000000000000000, 1.000000000000000000, 0.0000000000000000000 ) ) ;
#195 = DIRECTION ( 'NONE',  ( 1.000000000000000000, 0.0000000000000000000, 0.0000000000000000000 ) ) ;
#196 = CIRCLE ( 'NONE', #159, 0.1181100000000000344 ) ;
#197 = CIRCLE ( 'NONE', #177, 0.07873999999999996280 ) ;
#198 = ORIENTED_EDGE ( 'NONE', *, *, #74, .T. ) ;
#199 = CARTESIAN_POINT ( 'NONE',  ( 0.0000000000000000000, 0.0000000000000000000, 1.744094299999997322 ) ) ;
#200 = ADVANCED_FACE ( 'NONE', ( #169 ), #303, .T. ) ;
#201 = ORIENTED_EDGE ( 'NONE', *, *, #272, .F. ) ;
#202 =( NAMED_UNIT ( * ) PLANE_ANGLE_UNIT ( ) SI_UNIT ( $, .RADIAN. ) );
#203 = VERTEX_POINT ( 'NONE', #226 ) ;
#204 = VERTEX_POINT ( 'NONE', #328 ) ;
#205 = VECTOR ( 'NONE', #217, 39.37007874015748143 ) ;
#206 =( GEOMETRIC_REPRESENTATION_CONTEXT ( 3 ) GLOBAL_UNCERTAINTY_ASSIGNED_CONTEXT ( ( #190 ) ) GLOBAL_UNIT_ASSIGNED_CONTEXT ( ( #152, #24, #68 ) ) REPRESENTATION_CONTEXT ( 'NONE', 'WORKASPACE' ) );
#207 = DIRECTION ( 'NONE',  ( -1.000000000000000000, 0.0000000000000000000, 0.0000000000000000000 ) ) ;
#208 = EDGE_LOOP ( 'NONE', ( #64, #151 ) ) ;
#209 = FILL_AREA_STYLE ('',( #16 ) ) ;
#210 = LINE ( 'NONE', #162, #236 ) ;
#211 = ADVANCED_FACE ( 'NONE', ( #165 ), #37, .T. ) ;
#212 = CARTESIAN_POINT ( 'NONE',  ( 0.1031099999999991745, 1.354581824536882559E-17, 2.952755999999999936 ) ) ;
#213 = COLOUR_RGB ( '',0.7921568627450980005, 0.8196078431372548767, 0.9333333333333333481 ) ;
#214 = ADVANCED_FACE ( 'NONE', ( #229 ), #58, .T. ) ;
#215 = ADVANCED_FACE ( 'NONE', ( #139 ), #163, .T. ) ;
#216 = VECTOR ( 'NONE', #141, 39.37007874015748854 ) ;
#217 = DIRECTION ( 'NONE',  ( -0.0000000000000000000, -0.0000000000000000000, -1.000000000000000000 ) ) ;
#218 = DIRECTION ( 'NONE',  ( -0.0000000000000000000, -0.0000000000000000000, -1.000000000000000000 ) ) ;
#219 = PRODUCT_DEFINITION_SHAPE ( 'NONE', 'NONE',  #192 ) ;
#220 = DIRECTION ( 'NONE',  ( 0.0000000000000000000, 0.0000000000000000000, 1.000000000000000000 ) ) ;
#221 = ORIENTED_EDGE ( 'NONE', *, *, #179, .T. ) ;
#222 = LINE ( 'NONE', #60, #20 ) ;
#223 = CONICAL_SURFACE ( 'NONE', #56, 0.1031099999999991745, 0.7853981633974500554 ) ;
#224 = DIRECTION ( 'NONE',  ( 1.000000000000000000, 0.0000000000000000000, 0.0000000000000000000 ) ) ;
#225 = EDGE_CURVE ( 'NONE', #144, #279, #196, .T. ) ;
#226 = CARTESIAN_POINT ( 'NONE',  ( 0.0000000000000000000, 7.232151672364693882E-18, 1.707404996040164512E-17 ) ) ;
#227 = EDGE_LOOP ( 'NONE', ( #124, #307, #315, #175, #258 ) ) ;
#228 = EDGE_CURVE ( 'NONE', #65, #126, #140, .T. ) ;
#229 = FACE_OUTER_BOUND ( 'NONE', #43, .T. ) ;
#230 = ORIENTED_EDGE ( 'NONE', *, *, #161, .F. ) ;
#231 = FACE_OUTER_BOUND ( 'NONE', #150, .T. ) ;
#232 = ORIENTED_EDGE ( 'NONE', *, *, #242, .F. ) ;
#233 = ADVANCED_FACE ( 'NONE', ( #39 ), #61, .T. ) ;
#234 = ORIENTED_EDGE ( 'NONE', *, *, #240, .F. ) ;
#235 = ORIENTED_EDGE ( 'NONE', *, *, #106, .T. ) ;
#236 = VECTOR ( 'NONE', #241, 39.37007874015748143 ) ;
#237 = STYLED_ITEM ( 'NONE', ( #336 ), #344 ) ;
#238 = SURFACE_STYLE_USAGE ( .BOTH. , #262 ) ;
#239 = DIRECTION ( 'NONE',  ( 0.09053553870087675814, 0.0000000000000000000, 0.9958932253169222593 ) ) ;
#240 = EDGE_CURVE ( 'NONE', #121, #91, #321, .T. ) ;
#241 = DIRECTION ( 'NONE',  ( -0.09053553870087675814, 1.108740576791100357E-17, 0.9958932253169222593 ) ) ;
#242 = EDGE_CURVE ( 'NONE', #65, #204, #222, .T. ) ;
#243 = CIRCLE ( 'NONE', #312, 0.1181099999999999928 ) ;
#244 = EDGE_CURVE ( 'NONE', #126, #99, #252, .T. ) ;
#245 = DIRECTION ( 'NONE',  ( 0.0000000000000000000, 0.0000000000000000000, 1.000000000000000000 ) ) ;
#246 = AXIS2_PLACEMENT_3D ( 'NONE', #326, #87, #191 ) ;
#247 = CIRCLE ( 'NONE', #83, 0.07873999999999986565 ) ;
#248 = CYLINDRICAL_SURFACE ( 'NONE', #283, 0.1181100000000000344 ) ;
#249 = CARTESIAN_POINT ( 'NONE',  ( -0.1181100000000000344, 0.0000000000000000000, 2.937755999999999368 ) ) ;
#250 = CARTESIAN_POINT ( 'NONE',  ( 0.07873999999999992117, 9.642868896486249264E-18, 0.0000000000000000000 ) ) ;
#251 = CARTESIAN_POINT ( 'NONE',  ( 0.0000000000000000000, 0.0000000000000000000, 2.952755999999999936 ) ) ;
#252 = LINE ( 'NONE', #63, #216 ) ;
#253 = ORIENTED_EDGE ( 'NONE', *, *, #145, .T. ) ;
#254 = DIRECTION ( 'NONE',  ( 0.0000000000000000000, 0.0000000000000000000, 1.000000000000000000 ) ) ;
#255 = ORIENTED_EDGE ( 'NONE', *, *, #244, .T. ) ;
#256 = CYLINDRICAL_SURFACE ( 'NONE', #41, 0.07873999999999992117 ) ;
#257 = CIRCLE ( 'NONE', #318, 0.07873999999999996280 ) ;
#258 = ORIENTED_EDGE ( 'NONE', *, *, #145, .F. ) ;
#259 =( CONVERSION_BASED_UNIT ( 'INCH', #174 ) LENGTH_UNIT ( ) NAMED_UNIT ( #51 ) );
#260 = ORIENTED_EDGE ( 'NONE', *, *, #331, .F. ) ;
#261 = ORIENTED_EDGE ( 'NONE', *, *, #161, .T. ) ;
#262 = SURFACE_SIDE_STYLE ('',( #333 ) ) ;
#263 = AXIS2_PLACEMENT_3D ( 'NONE', #55, #46, #154 ) ;
#264 = DIRECTION ( 'NONE',  ( -1.000000000000000000, 0.0000000000000000000, 0.0000000000000000000 ) ) ;
#265 = LENGTH_MEASURE_WITH_UNIT ( LENGTH_MEASURE( 0.02539999999999999897 ), #287 );
#266 = LINE ( 'NONE', #131, #29 ) ;
#267 = DIRECTION ( 'NONE',  ( -1.000000000000000000, 0.0000000000000000000, 0.0000000000000000000 ) ) ;
#268 = PRODUCT ( 'Micro_SBMM-060-430', 'Micro_SBMM-060-430', '', ( #1 ) ) ;
#269 = CARTESIAN_POINT ( 'NONE',  ( -0.1031099999999991745, 0.0000000000000000000, 2.952755999999999936 ) ) ;
#270 = AXIS2_PLACEMENT_3D ( 'NONE', #100, #220, #188 ) ;
#271 = CARTESIAN_POINT ( 'NONE',  ( -0.07873999999999992117, 0.0000000000000000000, 0.0000000000000000000 ) ) ;
#272 = EDGE_CURVE ( 'NONE', #126, #65, #345, .T. ) ;
#273 = DIRECTION ( 'NONE',  ( 0.0000000000000000000, 0.0000000000000000000, -1.000000000000000000 ) ) ;
#274 = CARTESIAN_POINT ( 'NONE',  ( 0.0000000000000000000, 0.0000000000000000000, 1.181102000000000096 ) ) ;
#275 = PRODUCT_DEFINITION_CONTEXT ( 'detailed design', #85, 'design' ) ;
#276 = DIRECTION ( 'NONE',  ( 0.0000000000000000000, 0.0000000000000000000, 1.000000000000000000 ) ) ;
#277 = ORIENTED_EDGE ( 'NONE', *, *, #228, .F. ) ;
#278 = DIRECTION ( 'NONE',  ( -1.000000000000000000, 0.0000000000000000000, 0.0000000000000000000 ) ) ;
#279 = VERTEX_POINT ( 'NONE', #146 ) ;
#280 = CARTESIAN_POINT ( 'NONE',  ( 0.0000000000000000000, 0.0000000000000000000, 2.952755999999999936 ) ) ;
#281 = ORIENTED_EDGE ( 'NONE', *, *, #340, .T. ) ;
#282 =( NAMED_UNIT ( * ) PLANE_ANGLE_UNIT ( ) SI_UNIT ( $, .RADIAN. ) );
#283 = AXIS2_PLACEMENT_3D ( 'NONE', #4, #218, #48 ) ;
#284 = EDGE_LOOP ( 'NONE', ( #96, #260, #221, #305 ) ) ;
#285 = ORIENTED_EDGE ( 'NONE', *, *, #2, .T. ) ;
#286 = CARTESIAN_POINT ( 'NONE',  ( 0.0000000000000000000, 0.0000000000000000000, 0.2061439962741667686 ) ) ;
#287 =( LENGTH_UNIT ( ) NAMED_UNIT ( * ) SI_UNIT ( $, .METRE. ) );
#288 = ADVANCED_FACE ( 'NONE', ( #301 ), #256, .T. ) ;
#289 = CIRCLE ( 'NONE', #13, 0.1181099999999999789 ) ;
#290 = CARTESIAN_POINT ( 'NONE',  ( 0.0000000000000000000, 0.0000000000000000000, 2.952755999999999936 ) ) ;
#291 = CARTESIAN_POINT ( 'NONE',  ( 0.0000000000000000000, 0.0000000000000000000, 0.1181100000000000066 ) ) ;
#292 = CIRCLE ( 'NONE', #270, 0.1181100000000000344 ) ;
#293 = CARTESIAN_POINT ( 'NONE',  ( -0.07873999999999986565, 1.205358612060781851E-17, 1.181102000000000096 ) ) ;
#294 = UNCERTAINTY_MEASURE_WITH_UNIT (LENGTH_MEASURE( 1.000000000000000082E-05 ), #342, 'distance_accuracy_value', 'NONE');
#295 = DIRECTION ( 'NONE',  ( 1.000000000000000000, 0.0000000000000000000, 0.0000000000000000000 ) ) ;
#296 = ADVANCED_FACE ( 'NONE', ( #231 ), #32, .T. ) ;
#297 = APPLICATION_CONTEXT ( 'automotive_design' ) ;
#298 = AXIS2_PLACEMENT_3D ( 'NONE', #199, #171, #167 ) ;
#299 = PRESENTATION_LAYER_ASSIGNMENT (  '', '', ( #237 ) ) ;
#300 = DIRECTION ( 'NONE',  ( -0.0000000000000000000, -0.0000000000000000000, -1.000000000000000000 ) ) ;
#301 = FACE_OUTER_BOUND ( 'NONE', #227, .T. ) ;
#302 = CARTESIAN_POINT ( 'NONE',  ( 0.0000000000000000000, 0.0000000000000000000, 2.952755999999999936 ) ) ;
#303 = CONICAL_SURFACE ( 'NONE', #298, 0.1299209999999998422, 0.09065967900408460067 ) ;
#304 = DIRECTION ( 'NONE',  ( 1.000000000000000000, 0.0000000000000000000, 0.0000000000000000000 ) ) ;
#305 = ORIENTED_EDGE ( 'NONE', *, *, #225, .F. ) ;
#306 = CARTESIAN_POINT ( 'NONE',  ( 0.0000000000000000000, 0.0000000000000000000, 1.614173000000000080 ) ) ;
#307 = ORIENTED_EDGE ( 'NONE', *, *, #331, .T. ) ;
#308 = DIRECTION ( 'NONE',  ( -0.0000000000000000000, -0.0000000000000000000, -1.000000000000000000 ) ) ;
#309 = EDGE_CURVE ( 'NONE', #91, #62, #138, .T. ) ;
#310 = ORIENTED_EDGE ( 'NONE', *, *, #320, .T. ) ;
#311 = LENGTH_MEASURE_WITH_UNIT ( LENGTH_MEASURE( 0.02539999999999999897 ), #49 );
#312 = AXIS2_PLACEMENT_3D ( 'NONE', #291, #183, #50 ) ;
#313 = PRESENTATION_LAYER_ASSIGNMENT (  '', '', ( #186 ) ) ;
#314 = ORIENTED_EDGE ( 'NONE', *, *, #244, .F. ) ;
#315 = ORIENTED_EDGE ( 'NONE', *, *, #26, .T. ) ;
#316 = APPLICATION_PROTOCOL_DEFINITION ( 'draft international standard', 'automotive_design', 1998, #297 ) ;
#317 = LINE ( 'NONE', #271, #82 ) ;
#318 = AXIS2_PLACEMENT_3D ( 'NONE', #286, #153, #264 ) ;
#319 = DIRECTION ( 'NONE',  ( 0.0000000000000000000, 0.0000000000000000000, 1.000000000000000000 ) ) ;
#320 = EDGE_CURVE ( 'NONE', #204, #99, #105, .T. ) ;
#321 = CIRCLE ( 'NONE', #185, 0.07873999999999986565 ) ;
#322 = PLANE ( 'NONE',  #176 ) ;
#323 = CARTESIAN_POINT ( 'NONE',  ( -0.1181100000000000344, 1.446430334472939393E-17, 1.614173000000000080 ) ) ;
#324 = EDGE_LOOP ( 'NONE', ( #234, #285, #17, #335 ) ) ;
#325 = DIRECTION ( 'NONE',  ( 1.000000000000000000, 0.0000000000000000000, -0.0000000000000000000 ) ) ;
#326 = CARTESIAN_POINT ( 'NONE',  ( 0.0000000000000000000, 0.0000000000000000000, 0.0000000000000000000 ) ) ;
#327 = DIRECTION ( 'NONE',  ( 0.0000000000000000000, 1.000000000000000000, 0.0000000000000000000 ) ) ;
#328 = CARTESIAN_POINT ( 'NONE',  ( 0.1181100000000000344, 1.446430334472939084E-17, 2.937755999999999368 ) ) ;
#329 = ORIENTED_EDGE ( 'NONE', *, *, #172, .F. ) ;
#330 = DIRECTION ( 'NONE',  ( 1.000000000000000000, 0.0000000000000000000, 0.0000000000000000000 ) ) ;
#331 = EDGE_CURVE ( 'NONE', #91, #121, #247, .T. ) ;
#332 = ORIENTED_EDGE ( 'NONE', *, *, #242, .T. ) ;
#333 = SURFACE_STYLE_FILL_AREA ( #71 ) ;
#334 = ORIENTED_EDGE ( 'NONE', *, *, #309, .T. ) ;
#335 = ORIENTED_EDGE ( 'NONE', *, *, #179, .F. ) ;
#336 = PRESENTATION_STYLE_ASSIGNMENT (( #102 ) ) ;
#337 = AXIS2_PLACEMENT_3D ( 'NONE', #92, #330, #194 ) ;
#338 =( GEOMETRIC_REPRESENTATION_CONTEXT ( 3 ) GLOBAL_UNCERTAINTY_ASSIGNED_CONTEXT ( ( #294 ) ) GLOBAL_UNIT_ASSIGNED_CONTEXT ( ( #342, #202, #134 ) ) REPRESENTATION_CONTEXT ( 'NONE', 'WORKASPACE' ) );
#339 = EDGE_LOOP ( 'NONE', ( #277, #332, #230, #314 ) ) ;
#340 = EDGE_CURVE ( 'NONE', #12, #40, #197, .T. ) ;
#341 = CARTESIAN_POINT ( 'NONE',  ( 9.642868896486255427E-18, -0.07873999999999996280, 0.2061439962741667686 ) ) ;
#342 =( CONVERSION_BASED_UNIT ( 'INCH', #265 ) LENGTH_UNIT ( ) NAMED_UNIT ( #157 ) );
#343 = CARTESIAN_POINT ( 'NONE',  ( -0.07873999999999996280, 0.0000000000000000000, 0.2061439962741667686 ) ) ;
#344 = MANIFOLD_SOLID_BREP ( 'Cut-Revolve3', #122 ) ;
#345 = CIRCLE ( 'NONE', #34, 0.1031099999999991745 ) ;
ENDSEC;
END-ISO-10303-21;
