ISO-10303-21;
HEADER;
FILE_DESCRIPTION (( 'STEP AP214' ),
    '1' );
FILE_NAME ('Micro_SFA-062-42.STEP',
    '2021-09-02T03:34:55',
    ( '' ),
    ( '' ),
    'SwSTEP 2.0',
    'SolidWorks 2020',
    '' );
FILE_SCHEMA (( 'AUTOMOTIVE_DESIGN' ));
ENDSEC;

DATA;
#1 = SHAPE_DEFINITION_REPRESENTATION ( #227, #252 ) ;
#2 = ADVANCED_FACE ( 'NONE', ( #93 ), #176, .T. ) ;
#3 = CARTESIAN_POINT ( 'NONE',  ( 3.061616997868383018E-17, 0.0000000000000000000, 0.2500000000000000000 ) ) ;
#4 = VECTOR ( 'NONE', #280, 39.37007874015748143 ) ;
#5 = PLANE ( 'NONE',  #277 ) ;
#6 = EDGE_CURVE ( 'NONE', #51, #132, #265, .T. ) ;
#7 = CARTESIAN_POINT ( 'NONE',  ( 0.1250000000000000000, 1.530808498934191509E-17, 1.984999999999999432 ) ) ;
#8 = CARTESIAN_POINT ( 'NONE',  ( -0.1099999999999996397, 0.0000000000000000000, 2.000000000000000000 ) ) ;
#9 = DIMENSIONAL_EXPONENTS ( 1.000000000000000000, 0.0000000000000000000, 0.0000000000000000000, 0.0000000000000000000, 0.0000000000000000000, 0.0000000000000000000, 0.0000000000000000000 ) ;
#10 = FACE_OUTER_BOUND ( 'NONE', #164, .T. ) ;
#11 = AXIS2_PLACEMENT_3D ( 'NONE', #113, #163, #185 ) ;
#12 = DIRECTION ( 'NONE',  ( -1.000000000000000000, 0.0000000000000000000, 0.0000000000000000000 ) ) ;
#13 = COLOUR_RGB ( '',0.7921568627450980005, 0.8196078431372548767, 0.9333333333333333481 ) ;
#14 = CARTESIAN_POINT ( 'NONE',  ( 0.0000000000000000000, 0.0000000000000000000, 2.000000000000000000 ) ) ;
#15 = ADVANCED_FACE ( 'NONE', ( #261 ), #5, .F. ) ;
#16 = DIMENSIONAL_EXPONENTS ( 1.000000000000000000, 0.0000000000000000000, 0.0000000000000000000, 0.0000000000000000000, 0.0000000000000000000, 0.0000000000000000000, 0.0000000000000000000 ) ;
#17 = ORIENTED_EDGE ( 'NONE', *, *, #214, .T. ) ;
#18 = DIRECTION ( 'NONE',  ( -1.000000000000000000, 0.0000000000000000000, 1.224646799147353207E-16 ) ) ;
#19 =( NAMED_UNIT ( * ) PLANE_ANGLE_UNIT ( ) SI_UNIT ( $, .RADIAN. ) );
#20 = UNCERTAINTY_MEASURE_WITH_UNIT (LENGTH_MEASURE( 1.000000000000000082E-05 ), #181, 'distance_accuracy_value', 'NONE');
#21 = APPLICATION_CONTEXT ( 'automotive_design' ) ;
#22 = SURFACE_STYLE_USAGE ( .BOTH. , #67 ) ;
#23 = ORIENTED_EDGE ( 'NONE', *, *, #276, .T. ) ;
#24 = AXIS2_PLACEMENT_3D ( 'NONE', #208, #36, #12 ) ;
#25 = STYLED_ITEM ( 'NONE', ( #47 ), #252 ) ;
#26 = STYLED_ITEM ( 'NONE', ( #287 ), #173 ) ;
#27 = DIRECTION ( 'NONE',  ( 0.0000000000000000000, 0.0000000000000000000, -1.000000000000000000 ) ) ;
#28 = ADVANCED_FACE ( 'NONE', ( #279 ), #69, .T. ) ;
#29 = DIRECTION ( 'NONE',  ( -0.0000000000000000000, -0.0000000000000000000, -1.000000000000000000 ) ) ;
#30 = CARTESIAN_POINT ( 'NONE',  ( 0.0000000000000000000, 0.0000000000000000000, 1.984999999999999432 ) ) ;
#31 = ORIENTED_EDGE ( 'NONE', *, *, #169, .T. ) ;
#32 =( GEOMETRIC_REPRESENTATION_CONTEXT ( 3 ) GLOBAL_UNCERTAINTY_ASSIGNED_CONTEXT ( ( #60 ) ) GLOBAL_UNIT_ASSIGNED_CONTEXT ( ( #131, #62, #177 ) ) REPRESENTATION_CONTEXT ( 'NONE', 'WORKASPACE' ) );
#33 = DIRECTION ( 'NONE',  ( -1.000000000000000000, 0.0000000000000000000, 0.0000000000000000000 ) ) ;
#34 = CARTESIAN_POINT ( 'NONE',  ( 0.0000000000000000000, 0.0000000000000000000, 2.000000000000000000 ) ) ;
#35 = EDGE_LOOP ( 'NONE', ( #49, #146, #138, #242 ) ) ;
#36 = DIRECTION ( 'NONE',  ( -1.224646799147353207E-16, -0.0000000000000000000, -1.000000000000000000 ) ) ;
#37 = FILL_AREA_STYLE_COLOUR ( '', #13 ) ;
#38 = CONICAL_SURFACE ( 'NONE', #182, 0.03121874999999999997, 0.1745329251994339192 ) ;
#39 = AXIS2_PLACEMENT_3D ( 'NONE', #81, #79, #291 ) ;
#40 = VERTEX_POINT ( 'NONE', #8 ) ;
#41 = CARTESIAN_POINT ( 'NONE',  ( 0.0000000000000000000, 0.0000000000000000000, 0.0000000000000000000 ) ) ;
#42 = CARTESIAN_POINT ( 'NONE',  ( 3.061616997868383018E-17, 0.0000000000000000000, 0.2500000000000000000 ) ) ;
#43 = DIRECTION ( 'NONE',  ( 0.7071067811865434649, 8.659560562354883554E-17, -0.7071067811865515695 ) ) ;
#44 = AXIS2_PLACEMENT_3D ( 'NONE', #251, #275, #159 ) ;
#45 = CARTESIAN_POINT ( 'NONE',  ( 0.0000000000000000000, 0.0000000000000000000, 2.000000000000000000 ) ) ;
#46 = EDGE_CURVE ( 'NONE', #51, #144, #115, .T. ) ;
#47 = PRESENTATION_STYLE_ASSIGNMENT (( #22 ) ) ;
#48 = AXIS2_PLACEMENT_3D ( 'NONE', #292, #126, #152 ) ;
#49 = ORIENTED_EDGE ( 'NONE', *, *, #6, .T. ) ;
#50 = AXIS2_PLACEMENT_3D ( 'NONE', #3, #78, #273 ) ;
#51 = VERTEX_POINT ( 'NONE', #197 ) ;
#52 = FACE_OUTER_BOUND ( 'NONE', #153, .T. ) ;
#53 = DIRECTION ( 'NONE',  ( 1.000000000000000000, 0.0000000000000000000, 0.0000000000000000000 ) ) ;
#54 =( LENGTH_UNIT ( ) NAMED_UNIT ( * ) SI_UNIT ( $, .METRE. ) );
#55 = DIRECTION ( 'NONE',  ( 0.0000000000000000000, 0.0000000000000000000, 1.000000000000000000 ) ) ;
#56 = EDGE_CURVE ( 'NONE', #132, #104, #203, .T. ) ;
#57 = CYLINDRICAL_SURFACE ( 'NONE', #129, 0.03121874999999999650 ) ;
#58 = FACE_OUTER_BOUND ( 'NONE', #35, .T. ) ;
#59 = VECTOR ( 'NONE', #141, 39.37007874015747433 ) ;
#60 = UNCERTAINTY_MEASURE_WITH_UNIT (LENGTH_MEASURE( 1.000000000000000082E-05 ), #131, 'distance_accuracy_value', 'NONE');
#61 = EDGE_CURVE ( 'NONE', #189, #257, #75, .T. ) ;
#62 =( NAMED_UNIT ( * ) PLANE_ANGLE_UNIT ( ) SI_UNIT ( $, .RADIAN. ) );
#63 = CIRCLE ( 'NONE', #222, 0.1250000000000000000 ) ;
#64 = CARTESIAN_POINT ( 'NONE',  ( 0.0000000000000000000, 0.0000000000000000000, 2.000000000000000000 ) ) ;
#65 = ADVANCED_FACE ( 'NONE', ( #298 ), #223, .T. ) ;
#66 = ORIENTED_EDGE ( 'NONE', *, *, #256, .F. ) ;
#67 = SURFACE_SIDE_STYLE ('',( #246 ) ) ;
#68 = DIRECTION ( 'NONE',  ( -1.000000000000000000, 0.0000000000000000000, 0.0000000000000000000 ) ) ;
#69 = CYLINDRICAL_SURFACE ( 'NONE', #11, 0.03121874999999999650 ) ;
#70 = AXIS2_PLACEMENT_3D ( 'NONE', #30, #201, #53 ) ;
#71 = COLOUR_RGB ( '',0.7921568627450980005, 0.8196078431372548767, 0.9333333333333333481 ) ;
#72 = APPLICATION_PROTOCOL_DEFINITION ( 'draft international standard', 'automotive_design', 1998, #245 ) ;
#73 = CIRCLE ( 'NONE', #187, 0.03121874999999999997 ) ;
#74 = DIRECTION ( 'NONE',  ( 1.000000000000000000, 0.0000000000000000000, -0.0000000000000000000 ) ) ;
#75 = LINE ( 'NONE', #88, #91 ) ;
#76 = ORIENTED_EDGE ( 'NONE', *, *, #175, .F. ) ;
#77 = ADVANCED_FACE ( 'NONE', ( #109 ), #157, .T. ) ;
#78 = DIRECTION ( 'NONE',  ( 1.224646799147353207E-16, 0.0000000000000000000, 1.000000000000000000 ) ) ;
#79 = DIRECTION ( 'NONE',  ( -1.224646799147353207E-16, -0.0000000000000000000, -1.000000000000000000 ) ) ;
#80 = ORIENTED_EDGE ( 'NONE', *, *, #6, .F. ) ;
#81 = CARTESIAN_POINT ( 'NONE',  ( 9.575022216461992739E-17, 0.0000000000000000000, 0.7818598981460203046 ) ) ;
#82 = VECTOR ( 'NONE', #43, 39.37007874015748143 ) ;
#83 = ORIENTED_EDGE ( 'NONE', *, *, #286, .F. ) ;
#84 = CARTESIAN_POINT ( 'NONE',  ( 0.03121874999999999650, 3.823194226088142917E-18, 0.0000000000000000000 ) ) ;
#85 = DIRECTION ( 'NONE',  ( 0.0000000000000000000, 0.0000000000000000000, -1.000000000000000000 ) ) ;
#86 = LINE ( 'NONE', #89, #82 ) ;
#87 = DIRECTION ( 'NONE',  ( -1.000000000000000000, 0.0000000000000000000, 0.0000000000000000000 ) ) ;
#88 = CARTESIAN_POINT ( 'NONE',  ( 0.03121874999999999650, 3.823194226088142917E-18, -3.823194226088142917E-18 ) ) ;
#89 = CARTESIAN_POINT ( 'NONE',  ( 0.1099999999999996397, 1.347111479062084158E-17, 2.000000000000000000 ) ) ;
#90 = DIRECTION ( 'NONE',  ( -0.0000000000000000000, -0.0000000000000000000, -1.000000000000000000 ) ) ;
#91 = VECTOR ( 'NONE', #111, 39.37007874015748143 ) ;
#92 = ORIENTED_EDGE ( 'NONE', *, *, #123, .F. ) ;
#93 = FACE_OUTER_BOUND ( 'NONE', #216, .T. ) ;
#94 = DIRECTION ( 'NONE',  ( 0.0000000000000000000, 0.0000000000000000000, 1.000000000000000000 ) ) ;
#95 = CIRCLE ( 'NONE', #211, 0.1099999999999996397 ) ;
#96 = PRODUCT_RELATED_PRODUCT_CATEGORY ( 'part', '', ( #278 ) ) ;
#97 = DIRECTION ( 'NONE',  ( 1.224646799147353207E-16, 0.0000000000000000000, 1.000000000000000000 ) ) ;
#98 = MECHANICAL_DESIGN_GEOMETRIC_PRESENTATION_REPRESENTATION (  '', ( #26 ), #209 ) ;
#99 = CARTESIAN_POINT ( 'NONE',  ( 0.0000000000000000000, 0.0000000000000000000, 2.000000000000000000 ) ) ;
#100 = ORIENTED_EDGE ( 'NONE', *, *, #260, .T. ) ;
#101 = FACE_OUTER_BOUND ( 'NONE', #205, .T. ) ;
#102 =( NAMED_UNIT ( * ) SI_UNIT ( $, .STERADIAN. ) SOLID_ANGLE_UNIT ( ) );
#103 = AXIS2_PLACEMENT_3D ( 'NONE', #258, #94, #118 ) ;
#104 = VERTEX_POINT ( 'NONE', #236 ) ;
#105 = ORIENTED_EDGE ( 'NONE', *, *, #244, .T. ) ;
#106 = DIRECTION ( 'NONE',  ( 1.000000000000000000, 0.0000000000000000000, 0.0000000000000000000 ) ) ;
#107 = CIRCLE ( 'NONE', #48, 0.03121874999999999650 ) ;
#108 = ORIENTED_EDGE ( 'NONE', *, *, #56, .F. ) ;
#109 = FACE_OUTER_BOUND ( 'NONE', #150, .T. ) ;
#110 = CARTESIAN_POINT ( 'NONE',  ( -0.03121874999999997222, 9.565639607715030159E-18, 0.2500000000000000000 ) ) ;
#111 = DIRECTION ( 'NONE',  ( -1.224646799147353207E-16, -0.0000000000000000000, -1.000000000000000000 ) ) ;
#112 = ORIENTED_EDGE ( 'NONE', *, *, #116, .F. ) ;
#113 = CARTESIAN_POINT ( 'NONE',  ( 0.0000000000000000000, 0.0000000000000000000, 0.0000000000000000000 ) ) ;
#114 = DIRECTION ( 'NONE',  ( -1.000000000000000000, 0.0000000000000000000, 0.0000000000000000000 ) ) ;
#115 = LINE ( 'NONE', #228, #269 ) ;
#116 = EDGE_CURVE ( 'NONE', #281, #189, #255, .T. ) ;
#117 = ORIENTED_EDGE ( 'NONE', *, *, #256, .T. ) ;
#118 = DIRECTION ( 'NONE',  ( 1.000000000000000000, 0.0000000000000000000, -0.0000000000000000000 ) ) ;
#119 = DIMENSIONAL_EXPONENTS ( 1.000000000000000000, 0.0000000000000000000, 0.0000000000000000000, 0.0000000000000000000, 0.0000000000000000000, 0.0000000000000000000, 0.0000000000000000000 ) ;
#120 = CONICAL_SURFACE ( 'NONE', #148, 0.1099999999999996397, 0.7853981633974426169 ) ;
#121 = FILL_AREA_STYLE ('',( #37 ) ) ;
#122 = PRESENTATION_LAYER_ASSIGNMENT (  '', '', ( #26 ) ) ;
#123 = EDGE_CURVE ( 'NONE', #281, #293, #137, .T. ) ;
#124 = SURFACE_STYLE_USAGE ( .BOTH. , #284 ) ;
#125 = PRODUCT_DEFINITION_CONTEXT ( 'detailed design', #245, 'design' ) ;
#126 = DIRECTION ( 'NONE',  ( -1.224646799147353207E-16, -0.0000000000000000000, -1.000000000000000000 ) ) ;
#127 = ADVANCED_FACE ( 'NONE', ( #10 ), #57, .T. ) ;
#128 = ORIENTED_EDGE ( 'NONE', *, *, #116, .T. ) ;
#129 = AXIS2_PLACEMENT_3D ( 'NONE', #41, #149, #18 ) ;
#130 = ORIENTED_EDGE ( 'NONE', *, *, #180, .F. ) ;
#131 =( CONVERSION_BASED_UNIT ( 'INCH', #248 ) LENGTH_UNIT ( ) NAMED_UNIT ( #16 ) );
#132 = VERTEX_POINT ( 'NONE', #7 ) ;
#133 = CIRCLE ( 'NONE', #161, 0.1099999999999996397 ) ;
#134 = PRODUCT_DEFINITION_FORMATION_WITH_SPECIFIED_SOURCE ( 'ANY', '', #278, .NOT_KNOWN. ) ;
#135 = ADVANCED_FACE ( 'NONE', ( #52 ), #120, .T. ) ;
#136 = AXIS2_PLACEMENT_3D ( 'NONE', #34, #235, #114 ) ;
#137 = LINE ( 'NONE', #168, #202 ) ;
#138 = ORIENTED_EDGE ( 'NONE', *, *, #214, .F. ) ;
#139 = ORIENTED_EDGE ( 'NONE', *, *, #260, .F. ) ;
#140 = ORIENTED_EDGE ( 'NONE', *, *, #123, .T. ) ;
#141 = DIRECTION ( 'NONE',  ( -0.1736481776669312194, 2.126576849575783625E-17, 0.9848077530122080203 ) ) ;
#142 = ORIENTED_EDGE ( 'NONE', *, *, #151, .T. ) ;
#143 = CYLINDRICAL_SURFACE ( 'NONE', #136, 0.1250000000000000000 ) ;
#144 = VERTEX_POINT ( 'NONE', #207 ) ;
#145 = DIRECTION ( 'NONE',  ( 1.000000000000000000, 0.0000000000000000000, 0.0000000000000000000 ) ) ;
#146 = ORIENTED_EDGE ( 'NONE', *, *, #56, .T. ) ;
#147 = CARTESIAN_POINT ( 'NONE',  ( 0.1099999999999996397, 1.438959988998137757E-17, 2.000000000000000000 ) ) ;
#148 = AXIS2_PLACEMENT_3D ( 'NONE', #14, #285, #262 ) ;
#149 = DIRECTION ( 'NONE',  ( -1.224646799147353207E-16, -0.0000000000000000000, -1.000000000000000000 ) ) ;
#150 = EDGE_LOOP ( 'NONE', ( #191, #142 ) ) ;
#151 = EDGE_CURVE ( 'NONE', #204, #40, #95, .T. ) ;
#152 = DIRECTION ( 'NONE',  ( -1.000000000000000000, 0.0000000000000000000, 1.224646799147353207E-16 ) ) ;
#153 = EDGE_LOOP ( 'NONE', ( #167, #186, #80, #66 ) ) ;
#154 = ADVANCED_FACE ( 'NONE', ( #101 ), #38, .T. ) ;
#155 = DIRECTION ( 'NONE',  ( -0.7071067811865434649, 0.0000000000000000000, -0.7071067811865515695 ) ) ;
#156 = AXIS2_PLACEMENT_3D ( 'NONE', #45, #85, #87 ) ;
#157 = PLANE ( 'NONE',  #103 ) ;
#158 =( NAMED_UNIT ( * ) SI_UNIT ( $, .STERADIAN. ) SOLID_ANGLE_UNIT ( ) );
#159 = DIRECTION ( 'NONE',  ( 1.000000000000000000, 0.0000000000000000000, 0.0000000000000000000 ) ) ;
#160 = CIRCLE ( 'NONE', #226, 0.03121874999999999650 ) ;
#161 = AXIS2_PLACEMENT_3D ( 'NONE', #64, #220, #221 ) ;
#162 = EDGE_LOOP ( 'NONE', ( #83, #206, #117, #212 ) ) ;
#163 = DIRECTION ( 'NONE',  ( -1.224646799147353207E-16, -0.0000000000000000000, -1.000000000000000000 ) ) ;
#164 = EDGE_LOOP ( 'NONE', ( #128, #263, #165, #92 ) ) ;
#165 = ORIENTED_EDGE ( 'NONE', *, *, #276, .F. ) ;
#166 = DIRECTION ( 'NONE',  ( 1.000000000000000000, 0.0000000000000000000, 0.0000000000000000000 ) ) ;
#167 = ORIENTED_EDGE ( 'NONE', *, *, #151, .F. ) ;
#168 = CARTESIAN_POINT ( 'NONE',  ( -0.03121874999999999650, 0.0000000000000000000, 3.823194226088142917E-18 ) ) ;
#169 = EDGE_CURVE ( 'NONE', #257, #293, #160, .T. ) ;
#170 = LINE ( 'NONE', #264, #59 ) ;
#171 = EDGE_LOOP ( 'NONE', ( #23, #31 ) ) ;
#172 = CARTESIAN_POINT ( 'NONE',  ( 4.682062571497486172E-34, 0.0000000000000000000, 3.823194226088142917E-18 ) ) ;
#173 = MANIFOLD_SOLID_BREP ( 'Cut-Revolve1', #254 ) ;
#174 = CARTESIAN_POINT ( 'NONE',  ( 9.575022216461992739E-17, 0.0000000000000000000, 0.7818598981460203046 ) ) ;
#175 = EDGE_CURVE ( 'NONE', #104, #144, #194, .T. ) ;
#176 = CONICAL_SURFACE ( 'NONE', #50, 0.03121874999999999997, 0.1745329251994339192 ) ;
#177 =( NAMED_UNIT ( * ) SI_UNIT ( $, .STERADIAN. ) SOLID_ANGLE_UNIT ( ) );
#178 = PRODUCT_DEFINITION ( 'UNKNOWN', '', #134, #125 ) ;
#179 = LINE ( 'NONE', #294, #239 ) ;
#180 = EDGE_CURVE ( 'NONE', #281, #144, #170, .T. ) ;
#181 =( CONVERSION_BASED_UNIT ( 'INCH', #190 ) LENGTH_UNIT ( ) NAMED_UNIT ( #119 ) );
#182 = AXIS2_PLACEMENT_3D ( 'NONE', #42, #97, #145 ) ;
#183 = PRESENTATION_LAYER_ASSIGNMENT (  '', '', ( #25 ) ) ;
#184 =( NAMED_UNIT ( * ) PLANE_ANGLE_UNIT ( ) SI_UNIT ( $, .RADIAN. ) );
#185 = DIRECTION ( 'NONE',  ( -1.000000000000000000, 0.0000000000000000000, 1.224646799147353207E-16 ) ) ;
#186 = ORIENTED_EDGE ( 'NONE', *, *, #286, .T. ) ;
#187 = AXIS2_PLACEMENT_3D ( 'NONE', #247, #192, #68 ) ;
#188 = SURFACE_STYLE_FILL_AREA ( #121 ) ;
#189 = VERTEX_POINT ( 'NONE', #259 ) ;
#190 = LENGTH_MEASURE_WITH_UNIT ( LENGTH_MEASURE( 0.02539999999999999897 ), #196 );
#191 = ORIENTED_EDGE ( 'NONE', *, *, #219, .T. ) ;
#192 = DIRECTION ( 'NONE',  ( -1.224646799147353207E-16, -0.0000000000000000000, -1.000000000000000000 ) ) ;
#193 = ADVANCED_FACE ( 'NONE', ( #58 ), #143, .T. ) ;
#194 = CIRCLE ( 'NONE', #39, 0.1250000000000000000 ) ;
#195 = ORIENTED_EDGE ( 'NONE', *, *, #46, .T. ) ;
#196 =( LENGTH_UNIT ( ) NAMED_UNIT ( * ) SI_UNIT ( $, .METRE. ) );
#197 = CARTESIAN_POINT ( 'NONE',  ( -0.1250000000000000000, 0.0000000000000000000, 1.984999999999999432 ) ) ;
#198 = DIRECTION ( 'NONE',  ( 0.1736481776669314137, 0.0000000000000000000, 0.9848077530122077983 ) ) ;
#199 = PRODUCT_CONTEXT ( 'NONE', #21, 'mechanical' ) ;
#200 = CARTESIAN_POINT ( 'NONE',  ( 0.0000000000000000000, 0.0000000000000000000, 2.000000000000000000 ) ) ;
#201 = DIRECTION ( 'NONE',  ( 0.0000000000000000000, 0.0000000000000000000, -1.000000000000000000 ) ) ;
#202 = VECTOR ( 'NONE', #210, 39.37007874015748143 ) ;
#203 = LINE ( 'NONE', #230, #4 ) ;
#204 = VERTEX_POINT ( 'NONE', #147 ) ;
#205 = EDGE_LOOP ( 'NONE', ( #130, #234, #100, #237 ) ) ;
#206 = ORIENTED_EDGE ( 'NONE', *, *, #219, .F. ) ;
#207 = CARTESIAN_POINT ( 'NONE',  ( -0.1249999999999999029, 0.0000000000000000000, 0.7818598981460203046 ) ) ;
#208 = CARTESIAN_POINT ( 'NONE',  ( 3.061616997868383018E-17, 0.0000000000000000000, 0.2500000000000000000 ) ) ;
#209 =( GEOMETRIC_REPRESENTATION_CONTEXT ( 3 ) GLOBAL_UNCERTAINTY_ASSIGNED_CONTEXT ( ( #288 ) ) GLOBAL_UNIT_ASSIGNED_CONTEXT ( ( #213, #19, #102 ) ) REPRESENTATION_CONTEXT ( 'NONE', 'WORKASPACE' ) );
#210 = DIRECTION ( 'NONE',  ( -1.224646799147353207E-16, -0.0000000000000000000, -1.000000000000000000 ) ) ;
#211 = AXIS2_PLACEMENT_3D ( 'NONE', #99, #240, #166 ) ;
#212 = ORIENTED_EDGE ( 'NONE', *, *, #244, .F. ) ;
#213 =( CONVERSION_BASED_UNIT ( 'INCH', #243 ) LENGTH_UNIT ( ) NAMED_UNIT ( #9 ) );
#214 = EDGE_CURVE ( 'NONE', #144, #104, #241, .T. ) ;
#215 = FILL_AREA_STYLE ('',( #271 ) ) ;
#216 = EDGE_LOOP ( 'NONE', ( #112, #267, #17, #139 ) ) ;
#217 = CARTESIAN_POINT ( 'NONE',  ( -0.03121874999999999650, 0.0000000000000000000, 7.646388452176285834E-18 ) ) ;
#218 = ORIENTED_EDGE ( 'NONE', *, *, #169, .F. ) ;
#219 = EDGE_CURVE ( 'NONE', #40, #204, #133, .T. ) ;
#220 = DIRECTION ( 'NONE',  ( 0.0000000000000000000, 0.0000000000000000000, 1.000000000000000000 ) ) ;
#221 = DIRECTION ( 'NONE',  ( 1.000000000000000000, 0.0000000000000000000, 0.0000000000000000000 ) ) ;
#222 = AXIS2_PLACEMENT_3D ( 'NONE', #224, #27, #106 ) ;
#223 = CYLINDRICAL_SURFACE ( 'NONE', #231, 0.1250000000000000000 ) ;
#224 = CARTESIAN_POINT ( 'NONE',  ( 0.0000000000000000000, 0.0000000000000000000, 1.984999999999999432 ) ) ;
#225 = VECTOR ( 'NONE', #155, 39.37007874015748143 ) ;
#226 = AXIS2_PLACEMENT_3D ( 'NONE', #172, #238, #233 ) ;
#227 = PRODUCT_DEFINITION_SHAPE ( 'NONE', 'NONE',  #178 ) ;
#228 = CARTESIAN_POINT ( 'NONE',  ( -0.1250000000000000000, 0.0000000000000000000, 2.000000000000000000 ) ) ;
#229 = EDGE_CURVE ( 'NONE', #189, #281, #73, .T. ) ;
#230 = CARTESIAN_POINT ( 'NONE',  ( 0.1250000000000000000, 1.530808498934191509E-17, 2.000000000000000000 ) ) ;
#231 = AXIS2_PLACEMENT_3D ( 'NONE', #200, #90, #33 ) ;
#232 =( GEOMETRIC_REPRESENTATION_CONTEXT ( 3 ) GLOBAL_UNCERTAINTY_ASSIGNED_CONTEXT ( ( #20 ) ) GLOBAL_UNIT_ASSIGNED_CONTEXT ( ( #181, #184, #158 ) ) REPRESENTATION_CONTEXT ( 'NONE', 'WORKASPACE' ) );
#233 = DIRECTION ( 'NONE',  ( -1.000000000000000000, 0.0000000000000000000, 1.224646799147353207E-16 ) ) ;
#234 = ORIENTED_EDGE ( 'NONE', *, *, #229, .F. ) ;
#235 = DIRECTION ( 'NONE',  ( -0.0000000000000000000, -0.0000000000000000000, -1.000000000000000000 ) ) ;
#236 = CARTESIAN_POINT ( 'NONE',  ( 0.1250000000000001110, 1.530808498934192742E-17, 0.7818598981460203046 ) ) ;
#237 = ORIENTED_EDGE ( 'NONE', *, *, #175, .T. ) ;
#238 = DIRECTION ( 'NONE',  ( -1.224646799147353207E-16, -0.0000000000000000000, -1.000000000000000000 ) ) ;
#239 = VECTOR ( 'NONE', #198, 39.37007874015748143 ) ;
#240 = DIRECTION ( 'NONE',  ( 0.0000000000000000000, 0.0000000000000000000, 1.000000000000000000 ) ) ;
#241 = CIRCLE ( 'NONE', #295, 0.1250000000000000000 ) ;
#242 = ORIENTED_EDGE ( 'NONE', *, *, #46, .F. ) ;
#243 = LENGTH_MEASURE_WITH_UNIT ( LENGTH_MEASURE( 0.02539999999999999897 ), #54 );
#244 = EDGE_CURVE ( 'NONE', #132, #51, #63, .T. ) ;
#245 = APPLICATION_CONTEXT ( 'automotive_design' ) ;
#246 = SURFACE_STYLE_FILL_AREA ( #215 ) ;
#247 = CARTESIAN_POINT ( 'NONE',  ( 3.061616997868383018E-17, 0.0000000000000000000, 0.2500000000000000000 ) ) ;
#248 = LENGTH_MEASURE_WITH_UNIT ( LENGTH_MEASURE( 0.02539999999999999897 ), #268 );
#249 = EDGE_LOOP ( 'NONE', ( #282, #290, #140, #218 ) ) ;
#250 = FACE_OUTER_BOUND ( 'NONE', #162, .T. ) ;
#251 = CARTESIAN_POINT ( 'NONE',  ( 0.0000000000000000000, 0.0000000000000000000, 0.0000000000000000000 ) ) ;
#252 = ADVANCED_BREP_SHAPE_REPRESENTATION ( 'Micro_SFA-062-42', ( #173, #44 ), #32 ) ;
#253 = APPLICATION_PROTOCOL_DEFINITION ( 'draft international standard', 'automotive_design', 1998, #21 ) ;
#254 = CLOSED_SHELL ( 'NONE', ( #127, #2, #135, #193, #65, #77, #297, #154, #28, #15 ) ) ;
#255 = CIRCLE ( 'NONE', #24, 0.03121874999999999997 ) ;
#256 = EDGE_CURVE ( 'NONE', #40, #51, #270, .T. ) ;
#257 = VERTEX_POINT ( 'NONE', #84 ) ;
#258 = CARTESIAN_POINT ( 'NONE',  ( 0.0000000000000000000, 0.0000000000000000000, 2.000000000000000000 ) ) ;
#259 = CARTESIAN_POINT ( 'NONE',  ( 0.03121875000000003120, 0.0000000000000000000, 0.2500000000000000000 ) ) ;
#260 = EDGE_CURVE ( 'NONE', #189, #104, #179, .T. ) ;
#261 = FACE_OUTER_BOUND ( 'NONE', #171, .T. ) ;
#262 = DIRECTION ( 'NONE',  ( -1.000000000000000000, 0.0000000000000000000, 0.0000000000000000000 ) ) ;
#263 = ORIENTED_EDGE ( 'NONE', *, *, #61, .T. ) ;
#264 = CARTESIAN_POINT ( 'NONE',  ( -0.03121874999999997222, 3.823194226088143687E-18, 0.2500000000000000000 ) ) ;
#265 = CIRCLE ( 'NONE', #70, 0.1250000000000000000 ) ;
#266 = EDGE_LOOP ( 'NONE', ( #108, #105, #195, #76 ) ) ;
#267 = ORIENTED_EDGE ( 'NONE', *, *, #180, .T. ) ;
#268 =( LENGTH_UNIT ( ) NAMED_UNIT ( * ) SI_UNIT ( $, .METRE. ) );
#269 = VECTOR ( 'NONE', #29, 39.37007874015748143 ) ;
#270 = LINE ( 'NONE', #296, #225 ) ;
#271 = FILL_AREA_STYLE_COLOUR ( '', #71 ) ;
#272 = DIRECTION ( 'NONE',  ( -1.224646799147353207E-16, -0.0000000000000000000, -1.000000000000000000 ) ) ;
#273 = DIRECTION ( 'NONE',  ( 1.000000000000000000, 0.0000000000000000000, 0.0000000000000000000 ) ) ;
#274 = MECHANICAL_DESIGN_GEOMETRIC_PRESENTATION_REPRESENTATION (  '', ( #25 ), #232 ) ;
#275 = DIRECTION ( 'NONE',  ( 0.0000000000000000000, 0.0000000000000000000, 1.000000000000000000 ) ) ;
#276 = EDGE_CURVE ( 'NONE', #293, #257, #107, .T. ) ;
#277 = AXIS2_PLACEMENT_3D ( 'NONE', #283, #55, #74 ) ;
#278 = PRODUCT ( 'Micro_SFA-062-42', 'Micro_SFA-062-42', '', ( #199 ) ) ;
#279 = FACE_OUTER_BOUND ( 'NONE', #249, .T. ) ;
#280 = DIRECTION ( 'NONE',  ( -0.0000000000000000000, -0.0000000000000000000, -1.000000000000000000 ) ) ;
#281 = VERTEX_POINT ( 'NONE', #110 ) ;
#282 = ORIENTED_EDGE ( 'NONE', *, *, #61, .F. ) ;
#283 = CARTESIAN_POINT ( 'NONE',  ( 0.0000000000000000000, 0.0000000000000000000, 0.0000000000000000000 ) ) ;
#284 = SURFACE_SIDE_STYLE ('',( #188 ) ) ;
#285 = DIRECTION ( 'NONE',  ( 0.0000000000000000000, 0.0000000000000000000, -1.000000000000000000 ) ) ;
#286 = EDGE_CURVE ( 'NONE', #204, #132, #86, .T. ) ;
#287 = PRESENTATION_STYLE_ASSIGNMENT (( #124 ) ) ;
#288 = UNCERTAINTY_MEASURE_WITH_UNIT (LENGTH_MEASURE( 1.000000000000000082E-05 ), #213, 'distance_accuracy_value', 'NONE');
#289 = CONICAL_SURFACE ( 'NONE', #156, 0.1099999999999996397, 0.7853981633974426169 ) ;
#290 = ORIENTED_EDGE ( 'NONE', *, *, #229, .T. ) ;
#291 = DIRECTION ( 'NONE',  ( 1.000000000000000000, 0.0000000000000000000, 0.0000000000000000000 ) ) ;
#292 = CARTESIAN_POINT ( 'NONE',  ( 4.682062571497486172E-34, 0.0000000000000000000, 3.823194226088142917E-18 ) ) ;
#293 = VERTEX_POINT ( 'NONE', #217 ) ;
#294 = CARTESIAN_POINT ( 'NONE',  ( 0.03121875000000003120, 0.0000000000000000000, 0.2500000000000000000 ) ) ;
#295 = AXIS2_PLACEMENT_3D ( 'NONE', #174, #272, #299 ) ;
#296 = CARTESIAN_POINT ( 'NONE',  ( -0.1099999999999996397, 0.0000000000000000000, 2.000000000000000000 ) ) ;
#297 = ADVANCED_FACE ( 'NONE', ( #250 ), #289, .T. ) ;
#298 = FACE_OUTER_BOUND ( 'NONE', #266, .T. ) ;
#299 = DIRECTION ( 'NONE',  ( 1.000000000000000000, 0.0000000000000000000, 0.0000000000000000000 ) ) ;
ENDSEC;
END-ISO-10303-21;
