ISO-10303-21;
HEADER;
FILE_DESCRIPTION (( 'STEP AP214' ),
    '1' );
FILE_NAME ('Micro_GEM-062-3.STEP',
    '2021-09-01T19:00:22',
    ( '' ),
    ( '' ),
    'SwSTEP 2.0',
    'SolidWorks 2020',
    '' );
FILE_SCHEMA (( 'AUTOMOTIVE_DESIGN' ));
ENDSEC;

DATA;
#1 = CONICAL_SURFACE ( 'NONE', #112, 0.04750000000000064587, 0.7853981633974466137 ) ;
#2 = DIRECTION ( 'NONE',  ( -0.0000000000000000000, -0.0000000000000000000, -1.000000000000000000 ) ) ;
#3 = PRESENTATION_LAYER_ASSIGNMENT (  '', '', ( #137 ) ) ;
#4 = CARTESIAN_POINT ( 'NONE',  ( 0.03121875000000002426, 0.0000000000000000000, 0.1880000000000000282 ) ) ;
#5 = CARTESIAN_POINT ( 'NONE',  ( 0.03121875000000002426, 0.0000000000000000000, 0.1880000000000000282 ) ) ;
#6 = DIRECTION ( 'NONE',  ( -0.0000000000000000000, -0.0000000000000000000, -1.000000000000000000 ) ) ;
#7 = CONICAL_SURFACE ( 'NONE', #264, 0.03121874999999999997, 0.1745329251994338915 ) ;
#8 = EDGE_CURVE ( 'NONE', #174, #273, #70, .T. ) ;
#9 = CARTESIAN_POINT ( 'NONE',  ( -0.03121874999999999997, 0.0000000000000000000, 3.823194226088145228E-18 ) ) ;
#10 = CARTESIAN_POINT ( 'NONE',  ( 0.0000000000000000000, 0.0000000000000000000, 0.0000000000000000000 ) ) ;
#11 = VECTOR ( 'NONE', #2, 39.37007874015748143 ) ;
#12 = MECHANICAL_DESIGN_GEOMETRIC_PRESENTATION_REPRESENTATION (  '', ( #137 ), #92 ) ;
#13 = UNCERTAINTY_MEASURE_WITH_UNIT (LENGTH_MEASURE( 1.000000000000000082E-05 ), #262, 'distance_accuracy_value', 'NONE');
#14 =( LENGTH_UNIT ( ) NAMED_UNIT ( * ) SI_UNIT ( $, .METRE. ) );
#15 = EDGE_CURVE ( 'NONE', #293, #155, #258, .T. ) ;
#16 = SURFACE_STYLE_FILL_AREA ( #31 ) ;
#17 = ORIENTED_EDGE ( 'NONE', *, *, #128, .F. ) ;
#18 = EDGE_CURVE ( 'NONE', #296, #21, #170, .T. ) ;
#19 = EDGE_LOOP ( 'NONE', ( #149, #23 ) ) ;
#20 = ORIENTED_EDGE ( 'NONE', *, *, #194, .F. ) ;
#21 = VERTEX_POINT ( 'NONE', #200 ) ;
#22 = AXIS2_PLACEMENT_3D ( 'NONE', #132, #224, #227 ) ;
#23 = ORIENTED_EDGE ( 'NONE', *, *, #15, .T. ) ;
#24 = DIRECTION ( 'NONE',  ( 0.0000000000000000000, 0.0000000000000000000, -1.000000000000000000 ) ) ;
#25 = DIRECTION ( 'NONE',  ( -1.000000000000000000, 0.0000000000000000000, 0.0000000000000000000 ) ) ;
#26 = EDGE_CURVE ( 'NONE', #277, #174, #175, .T. ) ;
#27 = AXIS2_PLACEMENT_3D ( 'NONE', #260, #24, #94 ) ;
#28 = FACE_OUTER_BOUND ( 'NONE', #178, .T. ) ;
#29 = CARTESIAN_POINT ( 'NONE',  ( -0.06249999999999997918, 0.0000000000000000000, 0.3654047844199156403 ) ) ;
#30 = DIRECTION ( 'NONE',  ( 1.000000000000000000, 0.0000000000000000000, 0.0000000000000000000 ) ) ;
#31 = FILL_AREA_STYLE ('',( #89 ) ) ;
#32 = DIRECTION ( 'NONE',  ( 1.224646799147353700E-16, 0.0000000000000000000, 1.000000000000000000 ) ) ;
#33 =( GEOMETRIC_REPRESENTATION_CONTEXT ( 3 ) GLOBAL_UNCERTAINTY_ASSIGNED_CONTEXT ( ( #168 ) ) GLOBAL_UNIT_ASSIGNED_CONTEXT ( ( #211, #53, #217 ) ) REPRESENTATION_CONTEXT ( 'NONE', 'WORKASPACE' ) );
#34 =( NAMED_UNIT ( * ) PLANE_ANGLE_UNIT ( ) SI_UNIT ( $, .RADIAN. ) );
#35 = ADVANCED_FACE ( 'NONE', ( #28 ), #139, .T. ) ;
#36 = ORIENTED_EDGE ( 'NONE', *, *, #203, .T. ) ;
#37 = AXIS2_PLACEMENT_3D ( 'NONE', #278, #261, #183 ) ;
#38 = DIRECTION ( 'NONE',  ( 1.000000000000000000, 0.0000000000000000000, 0.0000000000000000000 ) ) ;
#39 =( NAMED_UNIT ( * ) PLANE_ANGLE_UNIT ( ) SI_UNIT ( $, .RADIAN. ) );
#40 = ORIENTED_EDGE ( 'NONE', *, *, #218, .F. ) ;
#41 = ORIENTED_EDGE ( 'NONE', *, *, #26, .T. ) ;
#42 = CIRCLE ( 'NONE', #265, 0.06250000000000002776 ) ;
#43 = EDGE_LOOP ( 'NONE', ( #270, #17, #60, #87 ) ) ;
#44 = DIRECTION ( 'NONE',  ( -0.0000000000000000000, -0.0000000000000000000, -1.000000000000000000 ) ) ;
#45 = CARTESIAN_POINT ( 'NONE',  ( 2.302335982397025094E-17, 0.0000000000000000000, 0.1880000000000000282 ) ) ;
#46 = VECTOR ( 'NONE', #138, 39.37007874015747433 ) ;
#47 = LINE ( 'NONE', #257, #127 ) ;
#48 = CARTESIAN_POINT ( 'NONE',  ( 0.06250000000000002776, 7.654042494670959086E-18, 1.485000000000000764 ) ) ;
#49 = EDGE_CURVE ( 'NONE', #86, #277, #90, .T. ) ;
#50 = DIRECTION ( 'NONE',  ( 0.0000000000000000000, 0.0000000000000000000, 1.000000000000000000 ) ) ;
#51 = DIMENSIONAL_EXPONENTS ( 1.000000000000000000, 0.0000000000000000000, 0.0000000000000000000, 0.0000000000000000000, 0.0000000000000000000, 0.0000000000000000000, 0.0000000000000000000 ) ;
#52 = CARTESIAN_POINT ( 'NONE',  ( 0.0000000000000000000, 0.0000000000000000000, 0.0000000000000000000 ) ) ;
#53 =( NAMED_UNIT ( * ) PLANE_ANGLE_UNIT ( ) SI_UNIT ( $, .RADIAN. ) );
#54 = PRODUCT_DEFINITION_SHAPE ( 'NONE', 'NONE',  #263 ) ;
#55 = LENGTH_MEASURE_WITH_UNIT ( LENGTH_MEASURE( 0.02539999999999999897 ), #14 );
#56 = ADVANCED_FACE ( 'NONE', ( #115 ), #68, .T. ) ;
#57 = ORIENTED_EDGE ( 'NONE', *, *, #8, .T. ) ;
#58 = LENGTH_MEASURE_WITH_UNIT ( LENGTH_MEASURE( 0.02539999999999999897 ), #125 );
#59 = ORIENTED_EDGE ( 'NONE', *, *, #18, .T. ) ;
#60 = ORIENTED_EDGE ( 'NONE', *, *, #166, .T. ) ;
#61 = EDGE_CURVE ( 'NONE', #151, #174, #206, .T. ) ;
#62 = VERTEX_POINT ( 'NONE', #48 ) ;
#63 = EDGE_LOOP ( 'NONE', ( #179, #297, #198, #104 ) ) ;
#64 = VECTOR ( 'NONE', #192, 39.37007874015748854 ) ;
#65 = EDGE_CURVE ( 'NONE', #277, #86, #232, .T. ) ;
#66 = CARTESIAN_POINT ( 'NONE',  ( 0.0000000000000000000, 0.0000000000000000000, 1.500000000000000222 ) ) ;
#67 = ADVANCED_BREP_SHAPE_REPRESENTATION ( 'Micro_GEM-062-3', ( #184, #216 ), #171 ) ;
#68 = CYLINDRICAL_SURFACE ( 'NONE', #121, 0.06250000000000002776 ) ;
#69 = DIRECTION ( 'NONE',  ( -1.000000000000000000, 0.0000000000000000000, 0.0000000000000000000 ) ) ;
#70 = CIRCLE ( 'NONE', #102, 0.06250000000000002776 ) ;
#71 = DIRECTION ( 'NONE',  ( -1.000000000000000000, 0.0000000000000000000, 0.0000000000000000000 ) ) ;
#72 = CARTESIAN_POINT ( 'NONE',  ( -0.03121874999999997916, 3.823194226088143687E-18, 0.1880000000000000282 ) ) ;
#73 = CARTESIAN_POINT ( 'NONE',  ( 0.03121874999999999997, 3.823194226088143687E-18, 0.0000000000000000000 ) ) ;
#74 = CYLINDRICAL_SURFACE ( 'NONE', #279, 0.03121874999999999997 ) ;
#75 = CIRCLE ( 'NONE', #37, 0.04750000000000064587 ) ;
#76 = LINE ( 'NONE', #212, #202 ) ;
#77 = DIRECTION ( 'NONE',  ( -1.000000000000000000, 0.0000000000000000000, 0.0000000000000000000 ) ) ;
#78 = ADVANCED_FACE ( 'NONE', ( #281 ), #299, .T. ) ;
#79 = CARTESIAN_POINT ( 'NONE',  ( 2.302335982397025094E-17, 0.0000000000000000000, 0.1880000000000000282 ) ) ;
#80 = ORIENTED_EDGE ( 'NONE', *, *, #49, .T. ) ;
#81 = EDGE_LOOP ( 'NONE', ( #291, #275, #251, #247 ) ) ;
#82 = SURFACE_SIDE_STYLE ('',( #130 ) ) ;
#83 = ORIENTED_EDGE ( 'NONE', *, *, #141, .T. ) ;
#84 = CIRCLE ( 'NONE', #181, 0.06250000000000002776 ) ;
#85 = DIRECTION ( 'NONE',  ( 1.000000000000000000, 0.0000000000000000000, 0.0000000000000000000 ) ) ;
#86 = VERTEX_POINT ( 'NONE', #4 ) ;
#87 = ORIENTED_EDGE ( 'NONE', *, *, #182, .F. ) ;
#88 = PRODUCT_RELATED_PRODUCT_CATEGORY ( 'part', '', ( #239 ) ) ;
#89 = FILL_AREA_STYLE_COLOUR ( '', #156 ) ;
#90 = CIRCLE ( 'NONE', #222, 0.03121874999999999997 ) ;
#91 = AXIS2_PLACEMENT_3D ( 'NONE', #45, #135, #30 ) ;
#92 =( GEOMETRIC_REPRESENTATION_CONTEXT ( 3 ) GLOBAL_UNCERTAINTY_ASSIGNED_CONTEXT ( ( #119 ) ) GLOBAL_UNIT_ASSIGNED_CONTEXT ( ( #173, #34, #271 ) ) REPRESENTATION_CONTEXT ( 'NONE', 'WORKASPACE' ) );
#93 = CYLINDRICAL_SURFACE ( 'NONE', #244, 0.06250000000000002776 ) ;
#94 = DIRECTION ( 'NONE',  ( -1.000000000000000000, 0.0000000000000000000, 0.0000000000000000000 ) ) ;
#95 = DIRECTION ( 'NONE',  ( 1.000000000000000000, 0.0000000000000000000, 0.0000000000000000000 ) ) ;
#96 = EDGE_CURVE ( 'NONE', #62, #273, #231, .T. ) ;
#97 = DIRECTION ( 'NONE',  ( -1.224646799147353700E-16, -0.0000000000000000000, -1.000000000000000000 ) ) ;
#98 = FACE_OUTER_BOUND ( 'NONE', #118, .T. ) ;
#99 = DIRECTION ( 'NONE',  ( 1.000000000000000000, 0.0000000000000000000, 0.0000000000000000000 ) ) ;
#100 = ORIENTED_EDGE ( 'NONE', *, *, #166, .F. ) ;
#101 = CARTESIAN_POINT ( 'NONE',  ( -0.03121874999999997916, 5.738618360379552157E-18, 0.1880000000000000282 ) ) ;
#102 = AXIS2_PLACEMENT_3D ( 'NONE', #126, #108, #38 ) ;
#103 = ADVANCED_FACE ( 'NONE', ( #208 ), #93, .T. ) ;
#104 = ORIENTED_EDGE ( 'NONE', *, *, #61, .F. ) ;
#105 = ORIENTED_EDGE ( 'NONE', *, *, #141, .F. ) ;
#106 = FILL_AREA_STYLE ('',( #246 ) ) ;
#107 = EDGE_LOOP ( 'NONE', ( #252, #36, #292, #100 ) ) ;
#108 = DIRECTION ( 'NONE',  ( -1.224646799147353700E-16, -0.0000000000000000000, -1.000000000000000000 ) ) ;
#109 = EDGE_LOOP ( 'NONE', ( #153, #250, #83, #221 ) ) ;
#110 = CARTESIAN_POINT ( 'NONE',  ( -0.06250000000000002776, 0.0000000000000000000, 1.485000000000000764 ) ) ;
#111 = DIRECTION ( 'NONE',  ( -1.224646799147353700E-16, -0.0000000000000000000, -1.000000000000000000 ) ) ;
#112 = AXIS2_PLACEMENT_3D ( 'NONE', #286, #165, #77 ) ;
#113 = DIRECTION ( 'NONE',  ( -1.224646799147353700E-16, -0.0000000000000000000, -1.000000000000000000 ) ) ;
#114 = CARTESIAN_POINT ( 'NONE',  ( 0.0000000000000000000, 0.0000000000000000000, 1.485000000000000764 ) ) ;
#115 = FACE_OUTER_BOUND ( 'NONE', #63, .T. ) ;
#116 = PRESENTATION_LAYER_ASSIGNMENT (  '', '', ( #160 ) ) ;
#117 = EDGE_CURVE ( 'NONE', #151, #62, #84, .T. ) ;
#118 = EDGE_LOOP ( 'NONE', ( #204, #41, #57, #105 ) ) ;
#119 = UNCERTAINTY_MEASURE_WITH_UNIT (LENGTH_MEASURE( 1.000000000000000082E-05 ), #173, 'distance_accuracy_value', 'NONE');
#120 = LINE ( 'NONE', #9, #196 ) ;
#121 = AXIS2_PLACEMENT_3D ( 'NONE', #284, #6, #25 ) ;
#122 = FACE_OUTER_BOUND ( 'NONE', #43, .T. ) ;
#123 = APPLICATION_CONTEXT ( 'automotive_design' ) ;
#124 = DIMENSIONAL_EXPONENTS ( 1.000000000000000000, 0.0000000000000000000, 0.0000000000000000000, 0.0000000000000000000, 0.0000000000000000000, 0.0000000000000000000, 0.0000000000000000000 ) ;
#125 =( LENGTH_UNIT ( ) NAMED_UNIT ( * ) SI_UNIT ( $, .METRE. ) );
#126 = CARTESIAN_POINT ( 'NONE',  ( 4.474917996329785777E-17, 0.0000000000000000000, 0.3654047844199156403 ) ) ;
#127 = VECTOR ( 'NONE', #233, 39.37007874015748854 ) ;
#128 = EDGE_CURVE ( 'NONE', #155, #293, #75, .T. ) ;
#129 = DIRECTION ( 'NONE',  ( 1.000000000000000000, 0.0000000000000000000, 0.0000000000000000000 ) ) ;
#130 = SURFACE_STYLE_FILL_AREA ( #106 ) ;
#131 = ORIENTED_EDGE ( 'NONE', *, *, #218, .T. ) ;
#132 = CARTESIAN_POINT ( 'NONE',  ( 4.682062571497491304E-34, 0.0000000000000000000, 3.823194226088145228E-18 ) ) ;
#133 = CARTESIAN_POINT ( 'NONE',  ( 0.0000000000000000000, 0.0000000000000000000, 1.500000000000000222 ) ) ;
#134 = CARTESIAN_POINT ( 'NONE',  ( 0.06250000000000002776, 7.654042494670959086E-18, 1.500000000000000222 ) ) ;
#135 = DIRECTION ( 'NONE',  ( 1.224646799147353700E-16, 0.0000000000000000000, 1.000000000000000000 ) ) ;
#136 = ADVANCED_FACE ( 'NONE', ( #280 ), #269, .T. ) ;
#137 = STYLED_ITEM ( 'NONE', ( #195 ), #67 ) ;
#138 = DIRECTION ( 'NONE',  ( -0.1736481776669311916, 2.126576849575783316E-17, 0.9848077530122080203 ) ) ;
#139 = CYLINDRICAL_SURFACE ( 'NONE', #290, 0.03121874999999999997 ) ;
#140 = DIRECTION ( 'NONE',  ( 1.000000000000000000, 0.0000000000000000000, 0.0000000000000000000 ) ) ;
#141 = EDGE_CURVE ( 'NONE', #86, #273, #157, .T. ) ;
#142 = CIRCLE ( 'NONE', #287, 0.06250000000000002776 ) ;
#143 = SURFACE_STYLE_USAGE ( .BOTH. , #266 ) ;
#144 = DIRECTION ( 'NONE',  ( -1.000000000000000000, 0.0000000000000000000, 1.224646799147353947E-16 ) ) ;
#145 = CARTESIAN_POINT ( 'NONE',  ( 4.682062571497491304E-34, 0.0000000000000000000, 3.823194226088145228E-18 ) ) ;
#146 = ADVANCED_FACE ( 'NONE', ( #256 ), #164, .T. ) ;
#147 =( LENGTH_UNIT ( ) NAMED_UNIT ( * ) SI_UNIT ( $, .METRE. ) );
#148 = MECHANICAL_DESIGN_GEOMETRIC_PRESENTATION_REPRESENTATION (  '', ( #160 ), #33 ) ;
#149 = ORIENTED_EDGE ( 'NONE', *, *, #128, .T. ) ;
#150 = DIRECTION ( 'NONE',  ( 0.0000000000000000000, 0.0000000000000000000, 1.000000000000000000 ) ) ;
#151 = VERTEX_POINT ( 'NONE', #110 ) ;
#152 = CIRCLE ( 'NONE', #191, 0.03121874999999999997 ) ;
#153 = ORIENTED_EDGE ( 'NONE', *, *, #26, .F. ) ;
#154 = ORIENTED_EDGE ( 'NONE', *, *, #65, .T. ) ;
#155 = VERTEX_POINT ( 'NONE', #185 ) ;
#156 = COLOUR_RGB ( '',0.7921568627450980005, 0.8196078431372548767, 0.9333333333333333481 ) ;
#157 = LINE ( 'NONE', #5, #294 ) ;
#158 = DIRECTION ( 'NONE',  ( 1.000000000000000000, 0.0000000000000000000, -0.0000000000000000000 ) ) ;
#159 = CARTESIAN_POINT ( 'NONE',  ( -0.06250000000000002776, 0.0000000000000000000, 1.500000000000000222 ) ) ;
#160 = STYLED_ITEM ( 'NONE', ( #190 ), #184 ) ;
#161 = DIRECTION ( 'NONE',  ( 0.1736481776669313859, 0.0000000000000000000, 0.9848077530122077983 ) ) ;
#162 = DIRECTION ( 'NONE',  ( 0.0000000000000000000, 0.0000000000000000000, 1.000000000000000000 ) ) ;
#163 = LENGTH_MEASURE_WITH_UNIT ( LENGTH_MEASURE( 0.02539999999999999897 ), #147 );
#164 = CONICAL_SURFACE ( 'NONE', #91, 0.03121874999999999997, 0.1745329251994338915 ) ;
#165 = DIRECTION ( 'NONE',  ( 0.0000000000000000000, 0.0000000000000000000, -1.000000000000000000 ) ) ;
#166 = EDGE_CURVE ( 'NONE', #155, #151, #47, .T. ) ;
#167 = DIRECTION ( 'NONE',  ( -1.224646799147353700E-16, -0.0000000000000000000, -1.000000000000000000 ) ) ;
#168 = UNCERTAINTY_MEASURE_WITH_UNIT (LENGTH_MEASURE( 1.000000000000000082E-05 ), #211, 'distance_accuracy_value', 'NONE');
#169 = FACE_OUTER_BOUND ( 'NONE', #197, .T. ) ;
#170 = CIRCLE ( 'NONE', #22, 0.03121874999999999997 ) ;
#171 =( GEOMETRIC_REPRESENTATION_CONTEXT ( 3 ) GLOBAL_UNCERTAINTY_ASSIGNED_CONTEXT ( ( #13 ) ) GLOBAL_UNIT_ASSIGNED_CONTEXT ( ( #262, #39, #199 ) ) REPRESENTATION_CONTEXT ( 'NONE', 'WORKASPACE' ) );
#172 = ORIENTED_EDGE ( 'NONE', *, *, #194, .T. ) ;
#173 =( CONVERSION_BASED_UNIT ( 'INCH', #58 ) LENGTH_UNIT ( ) NAMED_UNIT ( #51 ) );
#174 = VERTEX_POINT ( 'NONE', #29 ) ;
#175 = LINE ( 'NONE', #72, #46 ) ;
#176 = CLOSED_SHELL ( 'NONE', ( #35, #240, #136, #56, #103, #78, #276, #146, #259, #253 ) ) ;
#177 = PRODUCT_CONTEXT ( 'NONE', #123, 'mechanical' ) ;
#178 = EDGE_LOOP ( 'NONE', ( #154, #131, #226, #20 ) ) ;
#179 = ORIENTED_EDGE ( 'NONE', *, *, #117, .T. ) ;
#180 = DIRECTION ( 'NONE',  ( -1.000000000000000000, 0.0000000000000000000, 1.224646799147353947E-16 ) ) ;
#181 = AXIS2_PLACEMENT_3D ( 'NONE', #229, #234, #230 ) ;
#182 = EDGE_CURVE ( 'NONE', #62, #151, #42, .T. ) ;
#183 = DIRECTION ( 'NONE',  ( 1.000000000000000000, 0.0000000000000000000, 0.0000000000000000000 ) ) ;
#184 = MANIFOLD_SOLID_BREP ( 'Cut-Revolve1', #176 ) ;
#185 = CARTESIAN_POINT ( 'NONE',  ( -0.04750000000000064587, 0.0000000000000000000, 1.500000000000000222 ) ) ;
#186 = CARTESIAN_POINT ( 'NONE',  ( 0.0000000000000000000, 0.0000000000000000000, 0.0000000000000000000 ) ) ;
#187 = AXIS2_PLACEMENT_3D ( 'NONE', #209, #97, #71 ) ;
#188 = CARTESIAN_POINT ( 'NONE',  ( 2.302335982397025094E-17, 0.0000000000000000000, 0.1880000000000000282 ) ) ;
#189 = PLANE ( 'NONE',  #236 ) ;
#190 = PRESENTATION_STYLE_ASSIGNMENT (( #143 ) ) ;
#191 = AXIS2_PLACEMENT_3D ( 'NONE', #145, #243, #235 ) ;
#192 = DIRECTION ( 'NONE',  ( 0.7071067811865462405, 8.659560562354916834E-17, -0.7071067811865486830 ) ) ;
#193 = DIRECTION ( 'NONE',  ( -1.224646799147353700E-16, -0.0000000000000000000, -1.000000000000000000 ) ) ;
#194 = EDGE_CURVE ( 'NONE', #277, #21, #120, .T. ) ;
#195 = PRESENTATION_STYLE_ASSIGNMENT (( #225 ) ) ;
#196 = VECTOR ( 'NONE', #245, 39.37007874015748143 ) ;
#197 = EDGE_LOOP ( 'NONE', ( #213, #59 ) ) ;
#198 = ORIENTED_EDGE ( 'NONE', *, *, #8, .F. ) ;
#199 =( NAMED_UNIT ( * ) SI_UNIT ( $, .STERADIAN. ) SOLID_ANGLE_UNIT ( ) );
#200 = CARTESIAN_POINT ( 'NONE',  ( -0.03121874999999999997, 0.0000000000000000000, 7.646388452176290456E-18 ) ) ;
#201 = CARTESIAN_POINT ( 'NONE',  ( 0.0000000000000000000, 0.0000000000000000000, 1.500000000000000222 ) ) ;
#202 = VECTOR ( 'NONE', #193, 39.37007874015748143 ) ;
#203 = EDGE_CURVE ( 'NONE', #293, #62, #255, .T. ) ;
#204 = ORIENTED_EDGE ( 'NONE', *, *, #65, .F. ) ;
#205 = DIRECTION ( 'NONE',  ( 0.0000000000000000000, 0.0000000000000000000, -1.000000000000000000 ) ) ;
#206 = LINE ( 'NONE', #159, #215 ) ;
#207 = DIRECTION ( 'NONE',  ( -1.000000000000000000, 0.0000000000000000000, 0.0000000000000000000 ) ) ;
#208 = FACE_OUTER_BOUND ( 'NONE', #81, .T. ) ;
#209 = CARTESIAN_POINT ( 'NONE',  ( 2.302335982397025094E-17, 0.0000000000000000000, 0.1880000000000000282 ) ) ;
#210 = AXIS2_PLACEMENT_3D ( 'NONE', #201, #223, #129 ) ;
#211 =( CONVERSION_BASED_UNIT ( 'INCH', #55 ) LENGTH_UNIT ( ) NAMED_UNIT ( #242 ) );
#212 = CARTESIAN_POINT ( 'NONE',  ( 0.03121874999999999997, 3.823194226088143687E-18, -3.823194226088145228E-18 ) ) ;
#213 = ORIENTED_EDGE ( 'NONE', *, *, #298, .T. ) ;
#214 = CARTESIAN_POINT ( 'NONE',  ( 0.04750000000000064587, 5.817072295950006528E-18, 1.500000000000000222 ) ) ;
#215 = VECTOR ( 'NONE', #44, 39.37007874015748143 ) ;
#216 = AXIS2_PLACEMENT_3D ( 'NONE', #295, #150, #85 ) ;
#217 =( NAMED_UNIT ( * ) SI_UNIT ( $, .STERADIAN. ) SOLID_ANGLE_UNIT ( ) );
#218 = EDGE_CURVE ( 'NONE', #86, #296, #76, .T. ) ;
#219 = APPLICATION_CONTEXT ( 'automotive_design' ) ;
#220 = APPLICATION_PROTOCOL_DEFINITION ( 'draft international standard', 'automotive_design', 1998, #219 ) ;
#221 = ORIENTED_EDGE ( 'NONE', *, *, #285, .T. ) ;
#222 = AXIS2_PLACEMENT_3D ( 'NONE', #188, #111, #69 ) ;
#223 = DIRECTION ( 'NONE',  ( 0.0000000000000000000, 0.0000000000000000000, 1.000000000000000000 ) ) ;
#224 = DIRECTION ( 'NONE',  ( -1.224646799147353700E-16, -0.0000000000000000000, -1.000000000000000000 ) ) ;
#225 = SURFACE_STYLE_USAGE ( .BOTH. , #82 ) ;
#226 = ORIENTED_EDGE ( 'NONE', *, *, #298, .F. ) ;
#227 = DIRECTION ( 'NONE',  ( -1.000000000000000000, 0.0000000000000000000, 1.224646799147353947E-16 ) ) ;
#228 = COLOUR_RGB ( '',0.7921568627450980005, 0.8196078431372548767, 0.9333333333333333481 ) ;
#229 = CARTESIAN_POINT ( 'NONE',  ( 0.0000000000000000000, 0.0000000000000000000, 1.485000000000000764 ) ) ;
#230 = DIRECTION ( 'NONE',  ( 1.000000000000000000, 0.0000000000000000000, 0.0000000000000000000 ) ) ;
#231 = LINE ( 'NONE', #134, #11 ) ;
#232 = CIRCLE ( 'NONE', #187, 0.03121874999999999997 ) ;
#233 = DIRECTION ( 'NONE',  ( -0.7071067811865462405, 0.0000000000000000000, -0.7071067811865486830 ) ) ;
#234 = DIRECTION ( 'NONE',  ( 0.0000000000000000000, 0.0000000000000000000, -1.000000000000000000 ) ) ;
#235 = DIRECTION ( 'NONE',  ( -1.000000000000000000, 0.0000000000000000000, 1.224646799147353947E-16 ) ) ;
#236 = AXIS2_PLACEMENT_3D ( 'NONE', #10, #50, #238 ) ;
#237 = PRODUCT_DEFINITION_CONTEXT ( 'detailed design', #219, 'design' ) ;
#238 = DIRECTION ( 'NONE',  ( 1.000000000000000000, 0.0000000000000000000, -0.0000000000000000000 ) ) ;
#239 = PRODUCT ( 'Micro_GEM-062-3', 'Micro_GEM-062-3', '', ( #177 ) ) ;
#240 = ADVANCED_FACE ( 'NONE', ( #98 ), #7, .T. ) ;
#241 = CARTESIAN_POINT ( 'NONE',  ( 0.06250000000000006939, 7.654042494670963708E-18, 0.3654047844199156403 ) ) ;
#242 = DIMENSIONAL_EXPONENTS ( 1.000000000000000000, 0.0000000000000000000, 0.0000000000000000000, 0.0000000000000000000, 0.0000000000000000000, 0.0000000000000000000, 0.0000000000000000000 ) ;
#243 = DIRECTION ( 'NONE',  ( -1.224646799147353700E-16, -0.0000000000000000000, -1.000000000000000000 ) ) ;
#244 = AXIS2_PLACEMENT_3D ( 'NONE', #133, #282, #207 ) ;
#245 = DIRECTION ( 'NONE',  ( -1.224646799147353700E-16, -0.0000000000000000000, -1.000000000000000000 ) ) ;
#246 = FILL_AREA_STYLE_COLOUR ( '', #228 ) ;
#247 = ORIENTED_EDGE ( 'NONE', *, *, #285, .F. ) ;
#248 = AXIS2_PLACEMENT_3D ( 'NONE', #66, #162, #158 ) ;
#249 = SHAPE_DEFINITION_REPRESENTATION ( #54, #67 ) ;
#250 = ORIENTED_EDGE ( 'NONE', *, *, #49, .F. ) ;
#251 = ORIENTED_EDGE ( 'NONE', *, *, #61, .T. ) ;
#252 = ORIENTED_EDGE ( 'NONE', *, *, #15, .F. ) ;
#253 = ADVANCED_FACE ( 'NONE', ( #169 ), #189, .F. ) ;
#254 = ORIENTED_EDGE ( 'NONE', *, *, #18, .F. ) ;
#255 = LINE ( 'NONE', #214, #64 ) ;
#256 = FACE_OUTER_BOUND ( 'NONE', #109, .T. ) ;
#257 = CARTESIAN_POINT ( 'NONE',  ( -0.04750000000000064587, 0.0000000000000000000, 1.500000000000000222 ) ) ;
#258 = CIRCLE ( 'NONE', #210, 0.04750000000000064587 ) ;
#259 = ADVANCED_FACE ( 'NONE', ( #288 ), #74, .T. ) ;
#260 = CARTESIAN_POINT ( 'NONE',  ( 0.0000000000000000000, 0.0000000000000000000, 1.500000000000000222 ) ) ;
#261 = DIRECTION ( 'NONE',  ( 0.0000000000000000000, 0.0000000000000000000, 1.000000000000000000 ) ) ;
#262 =( CONVERSION_BASED_UNIT ( 'INCH', #163 ) LENGTH_UNIT ( ) NAMED_UNIT ( #124 ) );
#263 = PRODUCT_DEFINITION ( 'UNKNOWN', '', #283, #237 ) ;
#264 = AXIS2_PLACEMENT_3D ( 'NONE', #79, #32, #99 ) ;
#265 = AXIS2_PLACEMENT_3D ( 'NONE', #114, #205, #95 ) ;
#266 = SURFACE_SIDE_STYLE ('',( #16 ) ) ;
#267 = CARTESIAN_POINT ( 'NONE',  ( 4.474917996329785777E-17, 0.0000000000000000000, 0.3654047844199156403 ) ) ;
#268 = CARTESIAN_POINT ( 'NONE',  ( 0.04750000000000064587, 6.735557395310483192E-18, 1.500000000000000222 ) ) ;
#269 = CONICAL_SURFACE ( 'NONE', #27, 0.04750000000000064587, 0.7853981633974466137 ) ;
#270 = ORIENTED_EDGE ( 'NONE', *, *, #203, .F. ) ;
#271 =( NAMED_UNIT ( * ) SI_UNIT ( $, .STERADIAN. ) SOLID_ANGLE_UNIT ( ) );
#272 = EDGE_LOOP ( 'NONE', ( #40, #80, #172, #254 ) ) ;
#273 = VERTEX_POINT ( 'NONE', #241 ) ;
#274 = APPLICATION_PROTOCOL_DEFINITION ( 'draft international standard', 'automotive_design', 1998, #123 ) ;
#275 = ORIENTED_EDGE ( 'NONE', *, *, #182, .T. ) ;
#276 = ADVANCED_FACE ( 'NONE', ( #122 ), #1, .T. ) ;
#277 = VERTEX_POINT ( 'NONE', #101 ) ;
#278 = CARTESIAN_POINT ( 'NONE',  ( 0.0000000000000000000, 0.0000000000000000000, 1.500000000000000222 ) ) ;
#279 = AXIS2_PLACEMENT_3D ( 'NONE', #52, #289, #144 ) ;
#280 = FACE_OUTER_BOUND ( 'NONE', #107, .T. ) ;
#281 = FACE_OUTER_BOUND ( 'NONE', #19, .T. ) ;
#282 = DIRECTION ( 'NONE',  ( -0.0000000000000000000, -0.0000000000000000000, -1.000000000000000000 ) ) ;
#283 = PRODUCT_DEFINITION_FORMATION_WITH_SPECIFIED_SOURCE ( 'ANY', '', #239, .NOT_KNOWN. ) ;
#284 = CARTESIAN_POINT ( 'NONE',  ( 0.0000000000000000000, 0.0000000000000000000, 1.500000000000000222 ) ) ;
#285 = EDGE_CURVE ( 'NONE', #273, #174, #142, .T. ) ;
#286 = CARTESIAN_POINT ( 'NONE',  ( 0.0000000000000000000, 0.0000000000000000000, 1.500000000000000222 ) ) ;
#287 = AXIS2_PLACEMENT_3D ( 'NONE', #267, #167, #140 ) ;
#288 = FACE_OUTER_BOUND ( 'NONE', #272, .T. ) ;
#289 = DIRECTION ( 'NONE',  ( -1.224646799147353700E-16, -0.0000000000000000000, -1.000000000000000000 ) ) ;
#290 = AXIS2_PLACEMENT_3D ( 'NONE', #186, #113, #180 ) ;
#291 = ORIENTED_EDGE ( 'NONE', *, *, #96, .F. ) ;
#292 = ORIENTED_EDGE ( 'NONE', *, *, #117, .F. ) ;
#293 = VERTEX_POINT ( 'NONE', #268 ) ;
#294 = VECTOR ( 'NONE', #161, 39.37007874015748143 ) ;
#295 = CARTESIAN_POINT ( 'NONE',  ( 0.0000000000000000000, 0.0000000000000000000, 0.0000000000000000000 ) ) ;
#296 = VERTEX_POINT ( 'NONE', #73 ) ;
#297 = ORIENTED_EDGE ( 'NONE', *, *, #96, .T. ) ;
#298 = EDGE_CURVE ( 'NONE', #21, #296, #152, .T. ) ;
#299 = PLANE ( 'NONE',  #248 ) ;
ENDSEC;
END-ISO-10303-21;
