ISO-10303-21;
HEADER;
FILE_DESCRIPTION (( 'STEP AP214' ),
    '1' );
FILE_NAME ('59821.STEP',
    '2023-07-12T13:06:22',
    ( '' ),
    ( '' ),
    'SwSTEP 2.0',
    'SolidWorks 2023',
    '' );
FILE_SCHEMA (( 'AUTOMOTIVE_DESIGN' ));
ENDSEC;

DATA;
#1 = ADVANCED_FACE ( 'NONE', ( #256 ), #120, .T. ) ;
#2 = UNCERTAINTY_MEASURE_WITH_UNIT (LENGTH_MEASURE( 1.000000000000000082E-05 ), #170, 'distance_accuracy_value', 'NONE');
#3 = DIRECTION ( 'NONE',  ( -9.654105576704728081E-17, 1.000000000000000000, -0.000000000000000000 ) ) ;
#4 = DIRECTION ( 'NONE',  ( -9.654105576704728081E-17, 1.000000000000000000, -0.000000000000000000 ) ) ;
#5 = EDGE_CURVE ( 'NONE', #185, #65, #22, .T. ) ;
#6 = STYLED_ITEM ( 'NONE', ( #267 ), #53 ) ;
#7 =( CONVERSION_BASED_UNIT ( 'INCH', #99 ) LENGTH_UNIT ( ) NAMED_UNIT ( #229 ) );
#8 = DIRECTION ( 'NONE',  ( -1.000000000000000000, 9.508053334657290194E-18, 0.000000000000000000 ) ) ;
#9 = DIRECTION ( 'NONE',  ( 1.000000000000000000, -9.508053334657290194E-18, 0.000000000000000000 ) ) ;
#10 = SURFACE_SIDE_STYLE ('',( #192 ) ) ;
#11 = SURFACE_SIDE_STYLE ('',( #218 ) ) ;
#12 = CARTESIAN_POINT ( 'NONE',  ( 6.123233995736772199E-17, 2.500000000000000000, 0.000000000000000000 ) ) ;
#13 = PLANE ( 'NONE',  #62 ) ;
#14 = EDGE_CURVE ( 'NONE', #65, #232, #194, .T. ) ;
#15 = CARTESIAN_POINT ( 'NONE',  ( 0.1874999999999999722, 2.500000000000000000, 0.000000000000000000 ) ) ;
#16 = VERTEX_POINT ( 'NONE', #265 ) ;
#17 = UNCERTAINTY_MEASURE_WITH_UNIT (LENGTH_MEASURE( 1.000000000000000082E-05 ), #7, 'distance_accuracy_value', 'NONE');
#18 = COLOUR_RGB ( '',1.000000000000000000, 0.000000000000000000, 0.000000000000000000 ) ;
#19 =( CONVERSION_BASED_UNIT ( 'INCH', #132 ) LENGTH_UNIT ( ) NAMED_UNIT ( #154 ) );
#20 = VERTEX_POINT ( 'NONE', #124 ) ;
#21 = FILL_AREA_STYLE_COLOUR ( '', #18 ) ;
#22 = CIRCLE ( 'NONE', #52, 0.1874999999999996669 ) ;
#23 = PRESENTATION_LAYER_ASSIGNMENT (  '', '', ( #86 ) ) ;
#24 = ORIENTED_EDGE ( 'NONE', *, *, #208, .T. ) ;
#25 = PLANE ( 'NONE',  #26 ) ;
#26 = AXIS2_PLACEMENT_3D ( 'NONE', #51, #287, #9 ) ;
#27 = DIRECTION ( 'NONE',  ( -1.000000000000000000, 0.000000000000000000, 0.000000000000000000 ) ) ;
#28 = FILL_AREA_STYLE ('',( #50 ) ) ;
#29 = DIMENSIONAL_EXPONENTS ( 1.000000000000000000, 0.000000000000000000, 0.000000000000000000, 0.000000000000000000, 0.000000000000000000, 0.000000000000000000, 0.000000000000000000 ) ;
#30 = EDGE_CURVE ( 'NONE', #305, #16, #116, .T. ) ;
#31 = CARTESIAN_POINT ( 'NONE',  ( 2.878624683705112206E-16, 0.1524999999999995248, 0.000000000000000000 ) ) ;
#32 =( CONVERSION_BASED_UNIT ( 'INCH', #241 ) LENGTH_UNIT ( ) NAMED_UNIT ( #29 ) );
#33 = LENGTH_MEASURE_WITH_UNIT ( LENGTH_MEASURE( 0.02539999999999999897 ), #103 );
#34 = SURFACE_STYLE_FILL_AREA ( #230 ) ;
#35 = STYLED_ITEM ( 'NONE', ( #159 ), #151 ) ;
#36 = SURFACE_SIDE_STYLE ('',( #34 ) ) ;
#37 = DIRECTION ( 'NONE',  ( 9.654105576704728081E-17, -1.000000000000000000, 0.000000000000000000 ) ) ;
#38 = ORIENTED_EDGE ( 'NONE', *, *, #198, .T. ) ;
#39 =( LENGTH_UNIT ( ) NAMED_UNIT ( * ) SI_UNIT ( $, .METRE. ) );
#40 = ORIENTED_EDGE ( 'NONE', *, *, #179, .F. ) ;
#41 = DIRECTION ( 'NONE',  ( -1.000000000000000000, 9.508053334657290194E-18, 0.000000000000000000 ) ) ;
#42 = PRODUCT_DEFINITION_CONTEXT ( 'detailed design', #130, 'design' ) ;
#43 = LENGTH_MEASURE_WITH_UNIT ( LENGTH_MEASURE( 0.02539999999999999897 ), #39 );
#44 = ORIENTED_EDGE ( 'NONE', *, *, #263, .T. ) ;
#45 = CIRCLE ( 'NONE', #282, 0.1874999999999996669 ) ;
#46 = FILL_AREA_STYLE ('',( #73 ) ) ;
#47 = VECTOR ( 'NONE', #61, 39.37007874015748854 ) ;
#48 = CARTESIAN_POINT ( 'NONE',  ( 3.164107737514066853E-36, 3.327818667130051761E-19, 0.000000000000000000 ) ) ;
#49 = CARTESIAN_POINT ( 'NONE',  ( -0.1874999999999993894, 0.1524999999999995248, 0.000000000000000000 ) ) ;
#50 = FILL_AREA_STYLE_COLOUR ( '', #96 ) ;
#51 = CARTESIAN_POINT ( 'NONE',  ( 1.582053868757033426E-36, 1.663909333565025880E-19, 0.000000000000000000 ) ) ;
#52 = AXIS2_PLACEMENT_3D ( 'NONE', #240, #172, #100 ) ;
#53 = ADVANCED_FACE ( 'NONE', ( #54 ), #25, .T. ) ;
#54 = FACE_OUTER_BOUND ( 'NONE', #72, .T. ) ;
#55 =( NAMED_UNIT ( * ) SI_UNIT ( $, .STERADIAN. ) SOLID_ANGLE_UNIT ( ) );
#56 =( NAMED_UNIT ( * ) SI_UNIT ( $, .STERADIAN. ) SOLID_ANGLE_UNIT ( ) );
#57 = DIRECTION ( 'NONE',  ( -9.508053334657290194E-18, -1.000000000000000000, -0.000000000000000000 ) ) ;
#58 = EDGE_CURVE ( 'NONE', #65, #185, #45, .T. ) ;
#59 = FACE_OUTER_BOUND ( 'NONE', #158, .T. ) ;
#60 = COLOUR_RGB ( '',0.7921568627450980005, 0.8196078431372548767, 0.9333333333333333481 ) ;
#61 = DIRECTION ( 'NONE',  ( 0.7071067811865486830, 0.7071067811865462405, 8.659560562354947649E-17 ) ) ;
#62 = AXIS2_PLACEMENT_3D ( 'NONE', #107, #295, #271 ) ;
#63 = VERTEX_POINT ( 'NONE', #220 ) ;
#64 = DIRECTION ( 'NONE',  ( -9.654105576704728081E-17, 1.000000000000000000, -0.000000000000000000 ) ) ;
#65 = VERTEX_POINT ( 'NONE', #152 ) ;
#66 = FACE_OUTER_BOUND ( 'NONE', #280, .T. ) ;
#67 = COLOUR_RGB ( '',1.000000000000000000, 0.000000000000000000, 0.000000000000000000 ) ;
#68 = MECHANICAL_DESIGN_GEOMETRIC_PRESENTATION_REPRESENTATION (  '', ( #86 ), #128 ) ;
#69 = ORIENTED_EDGE ( 'NONE', *, *, #208, .F. ) ;
#70 = ORIENTED_EDGE ( 'NONE', *, *, #279, .F. ) ;
#71 = CONICAL_SURFACE ( 'NONE', #238, 0.03500000000000000333, 0.7853981633974500554 ) ;
#72 = EDGE_LOOP ( 'NONE', ( #44, #140 ) ) ;
#73 = FILL_AREA_STYLE_COLOUR ( '', #306 ) ;
#74 = CIRCLE ( 'NONE', #137, 0.1874999999999999167 ) ;
#75 = DIRECTION ( 'NONE',  ( -9.654105576704728081E-17, 1.000000000000000000, -0.000000000000000000 ) ) ;
#76 = CIRCLE ( 'NONE', #243, 0.03500000000000000333 ) ;
#77 = PRESENTATION_STYLE_ASSIGNMENT (( #101 ) ) ;
#78 = MECHANICAL_DESIGN_GEOMETRIC_PRESENTATION_REPRESENTATION (  '', ( #35 ), #106 ) ;
#79 = CARTESIAN_POINT ( 'NONE',  ( 1.449978133535231054E-18, 0.1524999999999994416, 0.000000000000000000 ) ) ;
#80 = LENGTH_MEASURE_WITH_UNIT ( LENGTH_MEASURE( 0.02539999999999999897 ), #149 );
#81 = CARTESIAN_POINT ( 'NONE',  ( 6.123233995736772199E-17, 2.500000000000000000, 0.000000000000000000 ) ) ;
#82 =( CONVERSION_BASED_UNIT ( 'INCH', #33 ) LENGTH_UNIT ( ) NAMED_UNIT ( #224 ) );
#83 =( LENGTH_UNIT ( ) NAMED_UNIT ( * ) SI_UNIT ( $, .METRE. ) );
#84 =( NAMED_UNIT ( * ) PLANE_ANGLE_UNIT ( ) SI_UNIT ( $, .RADIAN. ) );
#85 = CARTESIAN_POINT ( 'NONE',  ( 0.1874999999999999722, 2.500000000000000000, 2.296212748401286185E-17 ) ) ;
#86 = STYLED_ITEM ( 'NONE', ( #300 ), #89 ) ;
#87 = FILL_AREA_STYLE_COLOUR ( '', #309 ) ;
#88 = AXIS2_PLACEMENT_3D ( 'NONE', #12, #4, #27 ) ;
#89 = MANIFOLD_SOLID_BREP ( 'Revolve - Tool Body (Tipped Off)', #237 ) ;
#90 = PRODUCT_DEFINITION ( 'UNKNOWN', '', #189, #42 ) ;
#91 = CARTESIAN_POINT ( 'NONE',  ( 0.000000000000000000, 0.000000000000000000, 0.000000000000000000 ) ) ;
#92 = ORIENTED_EDGE ( 'NONE', *, *, #222, .F. ) ;
#93 = AXIS2_PLACEMENT_3D ( 'NONE', #15, #37, #226 ) ;
#94 = AXIS2_PLACEMENT_3D ( 'NONE', #183, #64, #249 ) ;
#95 = ORIENTED_EDGE ( 'NONE', *, *, #179, .T. ) ;
#96 = COLOUR_RGB ( '',1.000000000000000000, 0.000000000000000000, 0.000000000000000000 ) ;
#97 = DIRECTION ( 'NONE',  ( -9.654105576704728081E-17, 1.000000000000000000, -0.000000000000000000 ) ) ;
#98 = AXIS2_PLACEMENT_3D ( 'NONE', #125, #294, #275 ) ;
#99 = LENGTH_MEASURE_WITH_UNIT ( LENGTH_MEASURE( 0.02539999999999999897 ), #236 );
#100 = DIRECTION ( 'NONE',  ( -1.000000000000000000, -9.106159978880893419E-17, 0.000000000000000000 ) ) ;
#101 = SURFACE_STYLE_USAGE ( .BOTH. , #212 ) ;
#102 = DIRECTION ( 'NONE',  ( -1.000000000000000000, -9.106159978880893419E-17, 0.000000000000000000 ) ) ;
#103 =( LENGTH_UNIT ( ) NAMED_UNIT ( * ) SI_UNIT ( $, .METRE. ) );
#104 = SURFACE_STYLE_USAGE ( .BOTH. , #11 ) ;
#105 =( CONVERSION_BASED_UNIT ( 'INCH', #266 ) LENGTH_UNIT ( ) NAMED_UNIT ( #301 ) );
#106 =( GEOMETRIC_REPRESENTATION_CONTEXT ( 3 ) GLOBAL_UNCERTAINTY_ASSIGNED_CONTEXT ( ( #210 ) ) GLOBAL_UNIT_ASSIGNED_CONTEXT ( ( #197, #199, #202 ) ) REPRESENTATION_CONTEXT ( 'NONE', 'WORKASPACE' ) );
#107 = CARTESIAN_POINT ( 'NONE',  ( 2.878624683705112206E-16, 0.1524999999999994138, 0.000000000000000000 ) ) ;
#108 = CARTESIAN_POINT ( 'NONE',  ( -0.03500000000000000333, 6.655637334260103521E-19, 0.000000000000000000 ) ) ;
#109 = PRESENTATION_LAYER_ASSIGNMENT (  '', '', ( #171 ) ) ;
#110 = PRODUCT_RELATED_PRODUCT_CATEGORY ( 'part', '', ( #228 ) ) ;
#111 = AXIS2_PLACEMENT_3D ( 'NONE', #246, #245, #129 ) ;
#112 =( NAMED_UNIT ( * ) PLANE_ANGLE_UNIT ( ) SI_UNIT ( $, .RADIAN. ) );
#113 = SURFACE_SIDE_STYLE ('',( #184 ) ) ;
#114 = UNCERTAINTY_MEASURE_WITH_UNIT (LENGTH_MEASURE( 1.000000000000000082E-05 ), #105, 'distance_accuracy_value', 'NONE');
#115 = SHAPE_DEFINITION_REPRESENTATION ( #157, #296 ) ;
#116 = CIRCLE ( 'NONE', #156, 0.03500000000000000333 ) ;
#117 = EDGE_CURVE ( 'NONE', #20, #63, #235, .T. ) ;
#118 = ORIENTED_EDGE ( 'NONE', *, *, #117, .T. ) ;
#119 = FILL_AREA_STYLE ('',( #288 ) ) ;
#120 = PLANE ( 'NONE',  #242 ) ;
#121 =( NAMED_UNIT ( * ) PLANE_ANGLE_UNIT ( ) SI_UNIT ( $, .RADIAN. ) );
#122 = VECTOR ( 'NONE', #195, 39.37007874015748854 ) ;
#123 = SURFACE_STYLE_FILL_AREA ( #119 ) ;
#124 = CARTESIAN_POINT ( 'NONE',  ( 0.1874999999999999445, 0.1524999999999994416, 2.296212748401286493E-17 ) ) ;
#125 = CARTESIAN_POINT ( 'NONE',  ( 1.449978133535231439E-18, 0.1524999999999994416, 0.000000000000000000 ) ) ;
#126 = DIRECTION ( 'NONE',  ( -9.654105576704728081E-17, 1.000000000000000000, -0.000000000000000000 ) ) ;
#127 =( NAMED_UNIT ( * ) SI_UNIT ( $, .STERADIAN. ) SOLID_ANGLE_UNIT ( ) );
#128 =( GEOMETRIC_REPRESENTATION_CONTEXT ( 3 ) GLOBAL_UNCERTAINTY_ASSIGNED_CONTEXT ( ( #258 ) ) GLOBAL_UNIT_ASSIGNED_CONTEXT ( ( #19, #227, #136 ) ) REPRESENTATION_CONTEXT ( 'NONE', 'WORKASPACE' ) );
#129 = DIRECTION ( 'NONE',  ( 1.000000000000000000, 0.000000000000000000, 0.000000000000000000 ) ) ;
#130 = APPLICATION_CONTEXT ( 'automotive_design' ) ;
#131 =( NAMED_UNIT ( * ) SI_UNIT ( $, .STERADIAN. ) SOLID_ANGLE_UNIT ( ) );
#132 = LENGTH_MEASURE_WITH_UNIT ( LENGTH_MEASURE( 0.02539999999999999897 ), #177 );
#133 = CARTESIAN_POINT ( 'NONE',  ( 6.123233995736772199E-17, 2.500000000000000000, 0.000000000000000000 ) ) ;
#134 = ORIENTED_EDGE ( 'NONE', *, *, #30, .F. ) ;
#135 =( NAMED_UNIT ( * ) SI_UNIT ( $, .STERADIAN. ) SOLID_ANGLE_UNIT ( ) );
#136 =( NAMED_UNIT ( * ) SI_UNIT ( $, .STERADIAN. ) SOLID_ANGLE_UNIT ( ) );
#137 = AXIS2_PLACEMENT_3D ( 'NONE', #81, #75, #285 ) ;
#138 = APPLICATION_PROTOCOL_DEFINITION ( 'draft international standard', 'automotive_design', 1998, #130 ) ;
#139 = VECTOR ( 'NONE', #97, 39.37007874015748143 ) ;
#140 = ORIENTED_EDGE ( 'NONE', *, *, #30, .T. ) ;
#141 = ORIENTED_EDGE ( 'NONE', *, *, #279, .T. ) ;
#142 = ORIENTED_EDGE ( 'NONE', *, *, #263, .F. ) ;
#143 = STYLED_ITEM ( 'NONE', ( #292 ), #286 ) ;
#144 = STYLED_ITEM ( 'NONE', ( #77 ), #206 ) ;
#145 = ADVANCED_FACE ( 'NONE', ( #278 ), #274, .T. ) ;
#146 = DIRECTION ( 'NONE',  ( 1.000000000000000000, -9.508053334657290194E-18, 0.000000000000000000 ) ) ;
#147 = MECHANICAL_DESIGN_GEOMETRIC_PRESENTATION_REPRESENTATION (  '', ( #171 ), #302 ) ;
#148 = AXIS2_PLACEMENT_3D ( 'NONE', #133, #196, #268 ) ;
#149 =( LENGTH_UNIT ( ) NAMED_UNIT ( * ) SI_UNIT ( $, .METRE. ) );
#150 = DIRECTION ( 'NONE',  ( 1.000000000000000000, -9.508053334657290194E-18, 0.000000000000000000 ) ) ;
#151 = ADVANCED_FACE ( 'NONE', ( #66 ), #169, .T. ) ;
#152 = CARTESIAN_POINT ( 'NONE',  ( 0.1874999999999999445, 0.1524999999999995526, 2.296212748401285260E-17 ) ) ;
#153 = CARTESIAN_POINT ( 'NONE',  ( 0.03500000000000000333, 0.000000000000000000, 1.362419564051430200E-17 ) ) ;
#154 = DIMENSIONAL_EXPONENTS ( 1.000000000000000000, 0.000000000000000000, 0.000000000000000000, 0.000000000000000000, 0.000000000000000000, 0.000000000000000000, 0.000000000000000000 ) ;
#155 = ORIENTED_EDGE ( 'NONE', *, *, #260, .T. ) ;
#156 = AXIS2_PLACEMENT_3D ( 'NONE', #289, #244, #146 ) ;
#157 = PRODUCT_DEFINITION_SHAPE ( 'NONE', 'NONE',  #90 ) ;
#158 = EDGE_LOOP ( 'NONE', ( #276, #163, #95, #162 ) ) ;
#159 = PRESENTATION_STYLE_ASSIGNMENT (( #180 ) ) ;
#160 = ORIENTED_EDGE ( 'NONE', *, *, #222, .T. ) ;
#161 =( GEOMETRIC_REPRESENTATION_CONTEXT ( 3 ) GLOBAL_UNCERTAINTY_ASSIGNED_CONTEXT ( ( #191 ) ) GLOBAL_UNIT_ASSIGNED_CONTEXT ( ( #82, #174, #56 ) ) REPRESENTATION_CONTEXT ( 'NONE', 'WORKASPACE' ) );
#162 = ORIENTED_EDGE ( 'NONE', *, *, #198, .F. ) ;
#163 = ORIENTED_EDGE ( 'NONE', *, *, #58, .T. ) ;
#164 = ADVANCED_FACE ( 'NONE', ( #269 ), #13, .F. ) ;
#165 = SURFACE_STYLE_FILL_AREA ( #46 ) ;
#166 = FACE_OUTER_BOUND ( 'NONE', #255, .T. ) ;
#167 = CIRCLE ( 'NONE', #98, 0.1874999999999999722 ) ;
#168 = FILL_AREA_STYLE_COLOUR ( '', #60 ) ;
#169 = CONICAL_SURFACE ( 'NONE', #203, 0.03500000000000000333, 0.7853981633974500554 ) ;
#170 =( CONVERSION_BASED_UNIT ( 'INCH', #80 ) LENGTH_UNIT ( ) NAMED_UNIT ( #204 ) );
#171 = STYLED_ITEM ( 'NONE', ( #261 ), #1 ) ;
#172 = DIRECTION ( 'NONE',  ( -9.654105576704728081E-17, 1.000000000000000000, -0.000000000000000000 ) ) ;
#173 = ADVANCED_FACE ( 'NONE', ( #59 ), #182, .T. ) ;
#174 =( NAMED_UNIT ( * ) PLANE_ANGLE_UNIT ( ) SI_UNIT ( $, .RADIAN. ) );
#175 = CARTESIAN_POINT ( 'NONE',  ( 0.1874999999999998890, 2.500000000000000000, 2.296212748401284952E-17 ) ) ;
#176 = CARTESIAN_POINT ( 'NONE',  ( -0.1874999999999998335, 2.500000000000000000, 0.000000000000000000 ) ) ;
#177 =( LENGTH_UNIT ( ) NAMED_UNIT ( * ) SI_UNIT ( $, .METRE. ) );
#178 = PRESENTATION_LAYER_ASSIGNMENT (  '', '', ( #6 ) ) ;
#179 = EDGE_CURVE ( 'NONE', #185, #233, #234, .T. ) ;
#180 = SURFACE_STYLE_USAGE ( .BOTH. , #36 ) ;
#181 = LINE ( 'NONE', #293, #47 ) ;
#182 = CYLINDRICAL_SURFACE ( 'NONE', #88, 0.1874999999999998057 ) ;
#183 = CARTESIAN_POINT ( 'NONE',  ( 6.123233995736772199E-17, 2.500000000000000000, 0.000000000000000000 ) ) ;
#184 = SURFACE_STYLE_FILL_AREA ( #262 ) ;
#185 = VERTEX_POINT ( 'NONE', #49 ) ;
#186 = DIRECTION ( 'NONE',  ( 9.508053334657290194E-18, 1.000000000000000000, 0.000000000000000000 ) ) ;
#187 = PRODUCT_CONTEXT ( 'NONE', #193, 'mechanical' ) ;
#188 = EDGE_LOOP ( 'NONE', ( #155, #38 ) ) ;
#189 = PRODUCT_DEFINITION_FORMATION_WITH_SPECIFIED_SOURCE ( 'ANY', '', #228, .NOT_KNOWN. ) ;
#190 = ORIENTED_EDGE ( 'NONE', *, *, #260, .F. ) ;
#191 = UNCERTAINTY_MEASURE_WITH_UNIT (LENGTH_MEASURE( 1.000000000000000082E-05 ), #82, 'distance_accuracy_value', 'NONE');
#192 = SURFACE_STYLE_FILL_AREA ( #28 ) ;
#193 = APPLICATION_CONTEXT ( 'automotive_design' ) ;
#194 = LINE ( 'NONE', #175, #139 ) ;
#195 = DIRECTION ( 'NONE',  ( -0.7071067811865486830, 0.7071067811865462405, 0.000000000000000000 ) ) ;
#196 = DIRECTION ( 'NONE',  ( -9.654105576704728081E-17, 1.000000000000000000, -0.000000000000000000 ) ) ;
#197 =( CONVERSION_BASED_UNIT ( 'INCH', #43 ) LENGTH_UNIT ( ) NAMED_UNIT ( #299 ) );
#198 = EDGE_CURVE ( 'NONE', #232, #233, #74, .T. ) ;
#199 =( NAMED_UNIT ( * ) PLANE_ANGLE_UNIT ( ) SI_UNIT ( $, .RADIAN. ) );
#200 = CLOSED_SHELL ( 'NONE', ( #151, #1, #206, #53 ) ) ;
#201 = PLANE ( 'NONE',  #93 ) ;
#202 =( NAMED_UNIT ( * ) SI_UNIT ( $, .STERADIAN. ) SOLID_ANGLE_UNIT ( ) );
#203 = AXIS2_PLACEMENT_3D ( 'NONE', #251, #186, #41 ) ;
#204 = DIMENSIONAL_EXPONENTS ( 1.000000000000000000, 0.000000000000000000, 0.000000000000000000, 0.000000000000000000, 0.000000000000000000, 0.000000000000000000, 0.000000000000000000 ) ;
#205 = SURFACE_STYLE_USAGE ( .BOTH. , #113 ) ;
#206 = ADVANCED_FACE ( 'NONE', ( #166 ), #71, .T. ) ;
#207 = PRESENTATION_LAYER_ASSIGNMENT (  '', '', ( #35 ) ) ;
#208 = EDGE_CURVE ( 'NONE', #63, #20, #167, .T. ) ;
#209 = DIRECTION ( 'NONE',  ( 0.000000000000000000, 0.000000000000000000, 1.000000000000000000 ) ) ;
#210 = UNCERTAINTY_MEASURE_WITH_UNIT (LENGTH_MEASURE( 1.000000000000000082E-05 ), #197, 'distance_accuracy_value', 'NONE');
#211 = ORIENTED_EDGE ( 'NONE', *, *, #14, .T. ) ;
#212 = SURFACE_SIDE_STYLE ('',( #123 ) ) ;
#213 = CARTESIAN_POINT ( 'NONE',  ( -0.1874999999999997502, 2.500000000000000000, 0.000000000000000000 ) ) ;
#214 = PRESENTATION_LAYER_ASSIGNMENT (  '', '', ( #144 ) ) ;
#215 =( GEOMETRIC_REPRESENTATION_CONTEXT ( 3 ) GLOBAL_UNCERTAINTY_ASSIGNED_CONTEXT ( ( #17 ) ) GLOBAL_UNIT_ASSIGNED_CONTEXT ( ( #7, #221, #127 ) ) REPRESENTATION_CONTEXT ( 'NONE', 'WORKASPACE' ) );
#216 = UNCERTAINTY_MEASURE_WITH_UNIT (LENGTH_MEASURE( 1.000000000000000082E-05 ), #32, 'distance_accuracy_value', 'NONE');
#217 = DIRECTION ( 'NONE',  ( 9.508053334657290194E-18, 1.000000000000000000, 0.000000000000000000 ) ) ;
#218 = SURFACE_STYLE_FILL_AREA ( #239 ) ;
#219 = MECHANICAL_DESIGN_GEOMETRIC_PRESENTATION_REPRESENTATION (  '', ( #143 ), #290 ) ;
#220 = CARTESIAN_POINT ( 'NONE',  ( -0.1874999999999999445, 0.1524999999999994416, 0.000000000000000000 ) ) ;
#221 =( NAMED_UNIT ( * ) PLANE_ANGLE_UNIT ( ) SI_UNIT ( $, .RADIAN. ) );
#222 = EDGE_CURVE ( 'NONE', #16, #63, #272, .T. ) ;
#223 = CARTESIAN_POINT ( 'NONE',  ( 3.164107737514066853E-36, 3.327818667130051761E-19, 0.000000000000000000 ) ) ;
#224 = DIMENSIONAL_EXPONENTS ( 1.000000000000000000, 0.000000000000000000, 0.000000000000000000, 0.000000000000000000, 0.000000000000000000, 0.000000000000000000, 0.000000000000000000 ) ;
#225 = FACE_OUTER_BOUND ( 'NONE', #188, .T. ) ;
#226 = DIRECTION ( 'NONE',  ( 1.000000000000000000, 9.654105576704728081E-17, 0.000000000000000000 ) ) ;
#227 =( NAMED_UNIT ( * ) PLANE_ANGLE_UNIT ( ) SI_UNIT ( $, .RADIAN. ) );
#228 = PRODUCT ( '59821', '59821', '', ( #187 ) ) ;
#229 = DIMENSIONAL_EXPONENTS ( 1.000000000000000000, 0.000000000000000000, 0.000000000000000000, 0.000000000000000000, 0.000000000000000000, 0.000000000000000000, 0.000000000000000000 ) ;
#230 = FILL_AREA_STYLE ('',( #21 ) ) ;
#231 = ORIENTED_EDGE ( 'NONE', *, *, #117, .F. ) ;
#232 = VERTEX_POINT ( 'NONE', #85 ) ;
#233 = VERTEX_POINT ( 'NONE', #176 ) ;
#234 = LINE ( 'NONE', #213, #273 ) ;
#235 = CIRCLE ( 'NONE', #111, 0.1874999999999999722 ) ;
#236 =( LENGTH_UNIT ( ) NAMED_UNIT ( * ) SI_UNIT ( $, .METRE. ) );
#237 = CLOSED_SHELL ( 'NONE', ( #145, #164, #173, #283 ) ) ;
#238 = AXIS2_PLACEMENT_3D ( 'NONE', #48, #297, #247 ) ;
#239 = FILL_AREA_STYLE ('',( #87 ) ) ;
#240 = CARTESIAN_POINT ( 'NONE',  ( 2.878624683705112206E-16, 0.1524999999999995248, 0.000000000000000000 ) ) ;
#241 = LENGTH_MEASURE_WITH_UNIT ( LENGTH_MEASURE( 0.02539999999999999897 ), #298 );
#242 = AXIS2_PLACEMENT_3D ( 'NONE', #79, #217, #8 ) ;
#243 = AXIS2_PLACEMENT_3D ( 'NONE', #223, #57, #150 ) ;
#244 = DIRECTION ( 'NONE',  ( -9.508053334657290194E-18, -1.000000000000000000, -0.000000000000000000 ) ) ;
#245 = DIRECTION ( 'NONE',  ( -9.508053334657290194E-18, -1.000000000000000000, -0.000000000000000000 ) ) ;
#246 = CARTESIAN_POINT ( 'NONE',  ( 1.449978133535231439E-18, 0.1524999999999994416, 0.000000000000000000 ) ) ;
#247 = DIRECTION ( 'NONE',  ( -1.000000000000000000, 9.508053334657290194E-18, 0.000000000000000000 ) ) ;
#248 = ORIENTED_EDGE ( 'NONE', *, *, #5, .T. ) ;
#249 = DIRECTION ( 'NONE',  ( -1.000000000000000000, 0.000000000000000000, 0.000000000000000000 ) ) ;
#250 = EDGE_LOOP ( 'NONE', ( #248, #211, #190, #40 ) ) ;
#251 = CARTESIAN_POINT ( 'NONE',  ( 3.164107737514066853E-36, 3.327818667130051761E-19, 0.000000000000000000 ) ) ;
#252 = EDGE_LOOP ( 'NONE', ( #69, #231 ) ) ;
#253 = DIRECTION ( 'NONE',  ( 1.000000000000000000, 0.000000000000000000, 0.000000000000000000 ) ) ;
#254 =( GEOMETRIC_REPRESENTATION_CONTEXT ( 3 ) GLOBAL_UNCERTAINTY_ASSIGNED_CONTEXT ( ( #216 ) ) GLOBAL_UNIT_ASSIGNED_CONTEXT ( ( #32, #112, #135 ) ) REPRESENTATION_CONTEXT ( 'NONE', 'WORKASPACE' ) );
#255 = EDGE_LOOP ( 'NONE', ( #70, #142, #160, #24 ) ) ;
#256 = FACE_OUTER_BOUND ( 'NONE', #252, .T. ) ;
#257 = ORIENTED_EDGE ( 'NONE', *, *, #5, .F. ) ;
#258 = UNCERTAINTY_MEASURE_WITH_UNIT (LENGTH_MEASURE( 1.000000000000000082E-05 ), #19, 'distance_accuracy_value', 'NONE');
#259 = SURFACE_SIDE_STYLE ('',( #165 ) ) ;
#260 = EDGE_CURVE ( 'NONE', #233, #232, #270, .T. ) ;
#261 = PRESENTATION_STYLE_ASSIGNMENT (( #284 ) ) ;
#262 = FILL_AREA_STYLE ('',( #168 ) ) ;
#263 = EDGE_CURVE ( 'NONE', #16, #305, #76, .T. ) ;
#264 = AXIS2_PLACEMENT_3D ( 'NONE', #91, #209, #253 ) ;
#265 = CARTESIAN_POINT ( 'NONE',  ( -0.03500000000000000333, 6.655637334260103521E-19, 0.000000000000000000 ) ) ;
#266 = LENGTH_MEASURE_WITH_UNIT ( LENGTH_MEASURE( 0.02539999999999999897 ), #83 );
#267 = PRESENTATION_STYLE_ASSIGNMENT (( #291 ) ) ;
#268 = DIRECTION ( 'NONE',  ( -1.000000000000000000, 0.000000000000000000, 0.000000000000000000 ) ) ;
#269 = FACE_OUTER_BOUND ( 'NONE', #308, .T. ) ;
#270 = CIRCLE ( 'NONE', #148, 0.1874999999999999167 ) ;
#271 = DIRECTION ( 'NONE',  ( -1.000000000000000000, -9.654105576704728081E-17, 0.000000000000000000 ) ) ;
#272 = LINE ( 'NONE', #108, #122 ) ;
#273 = VECTOR ( 'NONE', #3, 39.37007874015748143 ) ;
#274 = CYLINDRICAL_SURFACE ( 'NONE', #94, 0.1874999999999998057 ) ;
#275 = DIRECTION ( 'NONE',  ( 1.000000000000000000, 0.000000000000000000, 0.000000000000000000 ) ) ;
#276 = ORIENTED_EDGE ( 'NONE', *, *, #14, .F. ) ;
#277 = APPLICATION_PROTOCOL_DEFINITION ( 'draft international standard', 'automotive_design', 1998, #193 ) ;
#278 = FACE_OUTER_BOUND ( 'NONE', #250, .T. ) ;
#279 = EDGE_CURVE ( 'NONE', #305, #20, #181, .T. ) ;
#280 = EDGE_LOOP ( 'NONE', ( #134, #141, #118, #92 ) ) ;
#281 = PRESENTATION_LAYER_ASSIGNMENT (  '', '', ( #143 ) ) ;
#282 = AXIS2_PLACEMENT_3D ( 'NONE', #31, #126, #102 ) ;
#283 = ADVANCED_FACE ( 'NONE', ( #225 ), #201, .F. ) ;
#284 = SURFACE_STYLE_USAGE ( .BOTH. , #259 ) ;
#285 = DIRECTION ( 'NONE',  ( -1.000000000000000000, 0.000000000000000000, 0.000000000000000000 ) ) ;
#286 = MANIFOLD_SOLID_BREP ( 'Revolve - Cutting Edge', #200 ) ;
#287 = DIRECTION ( 'NONE',  ( -9.508053334657290194E-18, -1.000000000000000000, 0.000000000000000000 ) ) ;
#288 = FILL_AREA_STYLE_COLOUR ( '', #67 ) ;
#289 = CARTESIAN_POINT ( 'NONE',  ( 3.164107737514066853E-36, 3.327818667130051761E-19, 0.000000000000000000 ) ) ;
#290 =( GEOMETRIC_REPRESENTATION_CONTEXT ( 3 ) GLOBAL_UNCERTAINTY_ASSIGNED_CONTEXT ( ( #114 ) ) GLOBAL_UNIT_ASSIGNED_CONTEXT ( ( #105, #84, #131 ) ) REPRESENTATION_CONTEXT ( 'NONE', 'WORKASPACE' ) );
#291 = SURFACE_STYLE_USAGE ( .BOTH. , #10 ) ;
#292 = PRESENTATION_STYLE_ASSIGNMENT (( #104 ) ) ;
#293 = CARTESIAN_POINT ( 'NONE',  ( 0.03500000000000000333, 0.000000000000000000, 4.286263797015735979E-18 ) ) ;
#294 = DIRECTION ( 'NONE',  ( -9.508053334657290194E-18, -1.000000000000000000, -0.000000000000000000 ) ) ;
#295 = DIRECTION ( 'NONE',  ( -9.654105576704728081E-17, 1.000000000000000000, 0.000000000000000000 ) ) ;
#296 = ADVANCED_BREP_SHAPE_REPRESENTATION ( '59821', ( #286, #89, #264 ), #254 ) ;
#297 = DIRECTION ( 'NONE',  ( 9.508053334657290194E-18, 1.000000000000000000, 0.000000000000000000 ) ) ;
#298 =( LENGTH_UNIT ( ) NAMED_UNIT ( * ) SI_UNIT ( $, .METRE. ) );
#299 = DIMENSIONAL_EXPONENTS ( 1.000000000000000000, 0.000000000000000000, 0.000000000000000000, 0.000000000000000000, 0.000000000000000000, 0.000000000000000000, 0.000000000000000000 ) ;
#300 = PRESENTATION_STYLE_ASSIGNMENT (( #205 ) ) ;
#301 = DIMENSIONAL_EXPONENTS ( 1.000000000000000000, 0.000000000000000000, 0.000000000000000000, 0.000000000000000000, 0.000000000000000000, 0.000000000000000000, 0.000000000000000000 ) ;
#302 =( GEOMETRIC_REPRESENTATION_CONTEXT ( 3 ) GLOBAL_UNCERTAINTY_ASSIGNED_CONTEXT ( ( #2 ) ) GLOBAL_UNIT_ASSIGNED_CONTEXT ( ( #170, #121, #55 ) ) REPRESENTATION_CONTEXT ( 'NONE', 'WORKASPACE' ) );
#303 = ORIENTED_EDGE ( 'NONE', *, *, #58, .F. ) ;
#304 = MECHANICAL_DESIGN_GEOMETRIC_PRESENTATION_REPRESENTATION (  '', ( #144 ), #215 ) ;
#305 = VERTEX_POINT ( 'NONE', #153 ) ;
#306 = COLOUR_RGB ( '',1.000000000000000000, 0.000000000000000000, 0.000000000000000000 ) ;
#307 = MECHANICAL_DESIGN_GEOMETRIC_PRESENTATION_REPRESENTATION (  '', ( #6 ), #161 ) ;
#308 = EDGE_LOOP ( 'NONE', ( #257, #303 ) ) ;
#309 = COLOUR_RGB ( '',0.7921568627450980005, 0.8196078431372548767, 0.9333333333333333481 ) ;
ENDSEC;
END-ISO-10303-21;
