ISO-10303-21;
HEADER;
FILE_DESCRIPTION (( 'STEP AP214' ),
    '1' );
FILE_NAME ('82389.STEP',
    '2023-06-23T05:27:29',
    ( '' ),
    ( '' ),
    'SwSTEP 2.0',
    'SolidWorks 2023',
    '' );
FILE_SCHEMA (( 'AUTOMOTIVE_DESIGN' ));
ENDSEC;

DATA;
#1 = LENGTH_MEASURE_WITH_UNIT ( LENGTH_MEASURE( 0.02539999999999999897 ), #223 );
#2 = STYLED_ITEM ( 'NONE', ( #27 ), #277 ) ;
#3 =( GEOMETRIC_REPRESENTATION_CONTEXT ( 3 ) GLOBAL_UNCERTAINTY_ASSIGNED_CONTEXT ( ( #79 ) ) GLOBAL_UNIT_ASSIGNED_CONTEXT ( ( #287, #74, #29 ) ) REPRESENTATION_CONTEXT ( 'NONE', 'WORKASPACE' ) );
#4 =( GEOMETRIC_REPRESENTATION_CONTEXT ( 3 ) GLOBAL_UNCERTAINTY_ASSIGNED_CONTEXT ( ( #73 ) ) GLOBAL_UNIT_ASSIGNED_CONTEXT ( ( #103, #60, #143 ) ) REPRESENTATION_CONTEXT ( 'NONE', 'WORKASPACE' ) );
#5 = EDGE_CURVE ( 'NONE', #207, #252, #249, .T. ) ;
#6 = PRODUCT_DEFINITION ( 'UNKNOWN', '', #253, #36 ) ;
#7 = ORIENTED_EDGE ( 'NONE', *, *, #100, .F. ) ;
#8 = SURFACE_SIDE_STYLE ('',( #194 ) ) ;
#9 = SURFACE_STYLE_USAGE ( .BOTH. , #33 ) ;
#10 =( LENGTH_UNIT ( ) NAMED_UNIT ( * ) SI_UNIT ( $, .METRE. ) );
#11 = CARTESIAN_POINT ( 'NONE',  ( 0.000000000000000000, 0.000000000000000000, 0.000000000000000000 ) ) ;
#12 = AXIS2_PLACEMENT_3D ( 'NONE', #123, #17, #132 ) ;
#13 = ORIENTED_EDGE ( 'NONE', *, *, #42, .T. ) ;
#14 = DIRECTION ( 'NONE',  ( 1.632862398863137527E-16, 1.000000000000000000, -0.000000000000000000 ) ) ;
#15 = UNCERTAINTY_MEASURE_WITH_UNIT (LENGTH_MEASURE( 1.000000000000000082E-05 ), #71, 'distance_accuracy_value', 'NONE');
#16 = ORIENTED_EDGE ( 'NONE', *, *, #214, .T. ) ;
#17 = DIRECTION ( 'NONE',  ( 1.632862398863137527E-16, 1.000000000000000000, -0.000000000000000000 ) ) ;
#18 = CARTESIAN_POINT ( 'NONE',  ( 7.654042494670959086E-18, 0.6250000000000000000, 0.06250000000000001388 ) ) ;
#19 = CARTESIAN_POINT ( 'NONE',  ( 0.000000000000000000, 0.6250000000000000000, 0.000000000000000000 ) ) ;
#20 = AXIS2_PLACEMENT_3D ( 'NONE', #164, #133, #115 ) ;
#21 = DIRECTION ( 'NONE',  ( 0.000000000000000000, 0.000000000000000000, -1.000000000000000000 ) ) ;
#22 = CARTESIAN_POINT ( 'NONE',  ( 0.000000000000000000, 0.6250000000000000000, 0.000000000000000000 ) ) ;
#23 = SURFACE_STYLE_FILL_AREA ( #87 ) ;
#24 = DIRECTION ( 'NONE',  ( -1.632862398863137527E-16, -1.000000000000000000, 0.000000000000000000 ) ) ;
#25 = AXIS2_PLACEMENT_3D ( 'NONE', #301, #257, #38 ) ;
#26 = DIRECTION ( 'NONE',  ( 1.632862398863137527E-16, 1.000000000000000000, -0.000000000000000000 ) ) ;
#27 = PRESENTATION_STYLE_ASSIGNMENT (( #50 ) ) ;
#28 = DIRECTION ( 'NONE',  ( -0.000000000000000000, -1.000000000000000000, -0.000000000000000000 ) ) ;
#29 =( NAMED_UNIT ( * ) SI_UNIT ( $, .STERADIAN. ) SOLID_ANGLE_UNIT ( ) );
#30 = AXIS2_PLACEMENT_3D ( 'NONE', #244, #28, #94 ) ;
#31 = FILL_AREA_STYLE_COLOUR ( '', #89 ) ;
#32 = ADVANCED_FACE ( 'NONE', ( #113 ), #282, .T. ) ;
#33 = SURFACE_SIDE_STYLE ('',( #202 ) ) ;
#34 = VERTEX_POINT ( 'NONE', #185 ) ;
#35 = CIRCLE ( 'NONE', #76, 0.06249999999999970857 ) ;
#36 = PRODUCT_DEFINITION_CONTEXT ( 'detailed design', #190, 'design' ) ;
#37 = ORIENTED_EDGE ( 'NONE', *, *, #305, .T. ) ;
#38 = DIRECTION ( 'NONE',  ( -1.000000000000000000, 0.000000000000000000, 0.000000000000000000 ) ) ;
#39 = PRESENTATION_STYLE_ASSIGNMENT (( #233 ) ) ;
#40 = SURFACE_STYLE_USAGE ( .BOTH. , #127 ) ;
#41 = PRODUCT ( '82389', '82389', '', ( #122 ) ) ;
#42 = EDGE_CURVE ( 'NONE', #188, #34, #210, .T. ) ;
#43 = MANIFOLD_SOLID_BREP ( 'Revolve - Tool Body (Straight Shanked)', #308 ) ;
#44 = UNCERTAINTY_MEASURE_WITH_UNIT (LENGTH_MEASURE( 1.000000000000000082E-05 ), #64, 'distance_accuracy_value', 'NONE');
#45 = AXIS2_PLACEMENT_3D ( 'NONE', #243, #26, #117 ) ;
#46 = FILL_AREA_STYLE ('',( #31 ) ) ;
#47 =( NAMED_UNIT ( * ) SI_UNIT ( $, .STERADIAN. ) SOLID_ANGLE_UNIT ( ) );
#48 = SURFACE_SIDE_STYLE ('',( #159 ) ) ;
#49 = MANIFOLD_SOLID_BREP ( 'Revolve - Cutting Edge', #58 ) ;
#50 = SURFACE_STYLE_USAGE ( .BOTH. , #48 ) ;
#51 = CARTESIAN_POINT ( 'NONE',  ( 0.000000000000000000, 0.000000000000000000, -0.06250000000000001388 ) ) ;
#52 = FILL_AREA_STYLE_COLOUR ( '', #299 ) ;
#53 = FILL_AREA_STYLE_COLOUR ( '', #102 ) ;
#54 = PRESENTATION_LAYER_ASSIGNMENT (  '', '', ( #269 ) ) ;
#55 = ADVANCED_FACE ( 'NONE', ( #126 ), #109, .T. ) ;
#56 = VERTEX_POINT ( 'NONE', #84 ) ;
#57 = MECHANICAL_DESIGN_GEOMETRIC_PRESENTATION_REPRESENTATION (  '', ( #285 ), #141 ) ;
#58 = CLOSED_SHELL ( 'NONE', ( #168, #55, #277, #32 ) ) ;
#59 = VERTEX_POINT ( 'NONE', #213 ) ;
#60 =( NAMED_UNIT ( * ) PLANE_ANGLE_UNIT ( ) SI_UNIT ( $, .RADIAN. ) );
#61 = DIRECTION ( 'NONE',  ( -0.000000000000000000, -1.000000000000000000, -0.000000000000000000 ) ) ;
#62 = EDGE_LOOP ( 'NONE', ( #114, #250, #99, #146 ) ) ;
#63 = EDGE_LOOP ( 'NONE', ( #153, #83 ) ) ;
#64 =( CONVERSION_BASED_UNIT ( 'INCH', #208 ) LENGTH_UNIT ( ) NAMED_UNIT ( #248 ) );
#65 = MECHANICAL_DESIGN_GEOMETRIC_PRESENTATION_REPRESENTATION (  '', ( #269 ), #4 ) ;
#66 = UNCERTAINTY_MEASURE_WITH_UNIT (LENGTH_MEASURE( 1.000000000000000082E-05 ), #290, 'distance_accuracy_value', 'NONE');
#67 =( LENGTH_UNIT ( ) NAMED_UNIT ( * ) SI_UNIT ( $, .METRE. ) );
#68 = COLOUR_RGB ( '',1.000000000000000000, 0.000000000000000000, 0.000000000000000000 ) ;
#69 =( NAMED_UNIT ( * ) PLANE_ANGLE_UNIT ( ) SI_UNIT ( $, .RADIAN. ) );
#70 = PRESENTATION_STYLE_ASSIGNMENT (( #139 ) ) ;
#71 =( CONVERSION_BASED_UNIT ( 'INCH', #131 ) LENGTH_UNIT ( ) NAMED_UNIT ( #181 ) );
#72 = LINE ( 'NONE', #91, #193 ) ;
#73 = UNCERTAINTY_MEASURE_WITH_UNIT (LENGTH_MEASURE( 1.000000000000000082E-05 ), #103, 'distance_accuracy_value', 'NONE');
#74 =( NAMED_UNIT ( * ) PLANE_ANGLE_UNIT ( ) SI_UNIT ( $, .RADIAN. ) );
#75 = MECHANICAL_DESIGN_GEOMETRIC_PRESENTATION_REPRESENTATION (  '', ( #2 ), #273 ) ;
#76 = AXIS2_PLACEMENT_3D ( 'NONE', #177, #14, #107 ) ;
#77 = EDGE_CURVE ( 'NONE', #176, #56, #35, .T. ) ;
#78 = DIRECTION ( 'NONE',  ( -0.000000000000000000, -1.000000000000000000, -0.000000000000000000 ) ) ;
#79 = UNCERTAINTY_MEASURE_WITH_UNIT (LENGTH_MEASURE( 1.000000000000000082E-05 ), #287, 'distance_accuracy_value', 'NONE');
#80 = ORIENTED_EDGE ( 'NONE', *, *, #157, .T. ) ;
#81 = STYLED_ITEM ( 'NONE', ( #260 ), #55 ) ;
#82 = EDGE_LOOP ( 'NONE', ( #256, #13, #37, #203 ) ) ;
#83 = ORIENTED_EDGE ( 'NONE', *, *, #108, .T. ) ;
#84 = CARTESIAN_POINT ( 'NONE',  ( 0.06250000000000002776, 2.500000000000000000, 7.654042494670951382E-18 ) ) ;
#85 = ADVANCED_FACE ( 'NONE', ( #154 ), #212, .T. ) ;
#86 = PRESENTATION_LAYER_ASSIGNMENT (  '', '', ( #142 ) ) ;
#87 = FILL_AREA_STYLE ('',( #302 ) ) ;
#88 = CARTESIAN_POINT ( 'NONE',  ( 0.06250000000000001388, 2.500000000000000000, 0.000000000000000000 ) ) ;
#89 = COLOUR_RGB ( '',0.7921568627450980005, 0.8196078431372548767, 0.9333333333333333481 ) ;
#90 = SURFACE_STYLE_USAGE ( .BOTH. , #216 ) ;
#91 = CARTESIAN_POINT ( 'NONE',  ( -0.06249999999999955591, 2.500000000000000000, 0.000000000000000000 ) ) ;
#92 = DIRECTION ( 'NONE',  ( -1.000000000000000000, 0.000000000000000000, 0.000000000000000000 ) ) ;
#93 = DIRECTION ( 'NONE',  ( 1.632862398863137527E-16, 1.000000000000000000, -0.000000000000000000 ) ) ;
#94 = DIRECTION ( 'NONE',  ( 0.000000000000000000, 0.000000000000000000, -1.000000000000000000 ) ) ;
#95 =( LENGTH_UNIT ( ) NAMED_UNIT ( * ) SI_UNIT ( $, .METRE. ) );
#96 = ADVANCED_FACE ( 'NONE', ( #234 ), #209, .F. ) ;
#97 = COLOUR_RGB ( '',0.7921568627450980005, 0.8196078431372548767, 0.9333333333333333481 ) ;
#98 = CARTESIAN_POINT ( 'NONE',  ( 0.000000000000000000, 0.000000000000000000, 0.000000000000000000 ) ) ;
#99 = ORIENTED_EDGE ( 'NONE', *, *, #77, .F. ) ;
#100 = EDGE_CURVE ( 'NONE', #119, #59, #151, .T. ) ;
#101 = ORIENTED_EDGE ( 'NONE', *, *, #305, .F. ) ;
#102 = COLOUR_RGB ( '',1.000000000000000000, 0.000000000000000000, 0.000000000000000000 ) ;
#103 =( CONVERSION_BASED_UNIT ( 'INCH', #172 ) LENGTH_UNIT ( ) NAMED_UNIT ( #224 ) );
#104 = CYLINDRICAL_SURFACE ( 'NONE', #278, 0.06249999999999986122 ) ;
#105 = EDGE_LOOP ( 'NONE', ( #276, #16 ) ) ;
#106 = ORIENTED_EDGE ( 'NONE', *, *, #157, .F. ) ;
#107 = DIRECTION ( 'NONE',  ( -1.000000000000000000, 0.000000000000000000, 0.000000000000000000 ) ) ;
#108 = EDGE_CURVE ( 'NONE', #56, #176, #171, .T. ) ;
#109 = PLANE ( 'NONE',  #261 ) ;
#110 = PRESENTATION_LAYER_ASSIGNMENT (  '', '', ( #2 ) ) ;
#111 = CARTESIAN_POINT ( 'NONE',  ( -0.06250000000000001388, 0.6250000000000000000, 0.000000000000000000 ) ) ;
#112 = DIRECTION ( 'NONE',  ( 0.000000000000000000, 0.000000000000000000, -1.000000000000000000 ) ) ;
#113 = FACE_OUTER_BOUND ( 'NONE', #105, .T. ) ;
#114 = ORIENTED_EDGE ( 'NONE', *, *, #5, .T. ) ;
#115 = DIRECTION ( 'NONE',  ( 0.000000000000000000, 0.000000000000000000, -1.000000000000000000 ) ) ;
#116 = PRODUCT_DEFINITION_SHAPE ( 'NONE', 'NONE',  #6 ) ;
#117 = DIRECTION ( 'NONE',  ( -1.000000000000000000, 1.632862398863137527E-16, 0.000000000000000000 ) ) ;
#118 = EDGE_CURVE ( 'NONE', #207, #176, #72, .T. ) ;
#119 = VERTEX_POINT ( 'NONE', #51 ) ;
#120 = AXIS2_PLACEMENT_3D ( 'NONE', #306, #93, #137 ) ;
#121 = ORIENTED_EDGE ( 'NONE', *, *, #134, .F. ) ;
#122 = PRODUCT_CONTEXT ( 'NONE', #291, 'mechanical' ) ;
#123 = CARTESIAN_POINT ( 'NONE',  ( 0.000000000000000000, 0.6250000000000000000, 0.000000000000000000 ) ) ;
#124 = DIRECTION ( 'NONE',  ( -0.000000000000000000, -1.000000000000000000, -0.000000000000000000 ) ) ;
#125 = ADVANCED_FACE ( 'NONE', ( #162 ), #264, .F. ) ;
#126 = FACE_OUTER_BOUND ( 'NONE', #201, .T. ) ;
#127 = SURFACE_SIDE_STYLE ('',( #284 ) ) ;
#128 = CARTESIAN_POINT ( 'NONE',  ( -0.06249999999999940326, 2.500000000000000000, 0.000000000000000000 ) ) ;
#129 =( NAMED_UNIT ( * ) SI_UNIT ( $, .STERADIAN. ) SOLID_ANGLE_UNIT ( ) );
#130 = STYLED_ITEM ( 'NONE', ( #189 ), #43 ) ;
#131 = LENGTH_MEASURE_WITH_UNIT ( LENGTH_MEASURE( 0.02539999999999999897 ), #220 );
#132 = DIRECTION ( 'NONE',  ( -1.000000000000000000, 0.000000000000000000, 0.000000000000000000 ) ) ;
#133 = DIRECTION ( 'NONE',  ( -0.000000000000000000, -1.000000000000000000, -0.000000000000000000 ) ) ;
#134 = EDGE_CURVE ( 'NONE', #252, #207, #222, .T. ) ;
#135 = MECHANICAL_DESIGN_GEOMETRIC_PRESENTATION_REPRESENTATION (  '', ( #130 ), #3 ) ;
#136 = FACE_OUTER_BOUND ( 'NONE', #82, .T. ) ;
#137 = DIRECTION ( 'NONE',  ( -1.000000000000000000, 0.000000000000000000, 0.000000000000000000 ) ) ;
#138 = FILL_AREA_STYLE ('',( #52 ) ) ;
#139 = SURFACE_STYLE_USAGE ( .BOTH. , #8 ) ;
#140 = DIRECTION ( 'NONE',  ( 0.000000000000000000, 0.000000000000000000, -1.000000000000000000 ) ) ;
#141 =( GEOMETRIC_REPRESENTATION_CONTEXT ( 3 ) GLOBAL_UNCERTAINTY_ASSIGNED_CONTEXT ( ( #161 ) ) GLOBAL_UNIT_ASSIGNED_CONTEXT ( ( #281, #147, #259 ) ) REPRESENTATION_CONTEXT ( 'NONE', 'WORKASPACE' ) );
#142 = STYLED_ITEM ( 'NONE', ( #70 ), #49 ) ;
#143 =( NAMED_UNIT ( * ) SI_UNIT ( $, .STERADIAN. ) SOLID_ANGLE_UNIT ( ) );
#144 = DIMENSIONAL_EXPONENTS ( 1.000000000000000000, 0.000000000000000000, 0.000000000000000000, 0.000000000000000000, 0.000000000000000000, 0.000000000000000000, 0.000000000000000000 ) ;
#145 = FACE_OUTER_BOUND ( 'NONE', #62, .T. ) ;
#146 = ORIENTED_EDGE ( 'NONE', *, *, #118, .F. ) ;
#147 =( NAMED_UNIT ( * ) PLANE_ANGLE_UNIT ( ) SI_UNIT ( $, .RADIAN. ) );
#148 = EDGE_LOOP ( 'NONE', ( #80, #228, #7, #101 ) ) ;
#149 =( GEOMETRIC_REPRESENTATION_CONTEXT ( 3 ) GLOBAL_UNCERTAINTY_ASSIGNED_CONTEXT ( ( #66 ) ) GLOBAL_UNIT_ASSIGNED_CONTEXT ( ( #290, #232, #247 ) ) REPRESENTATION_CONTEXT ( 'NONE', 'WORKASPACE' ) );
#150 = ADVANCED_BREP_SHAPE_REPRESENTATION ( '82389', ( #49, #43, #265 ), #149 ) ;
#151 = CIRCLE ( 'NONE', #20, 0.06250000000000001388 ) ;
#152 = UNCERTAINTY_MEASURE_WITH_UNIT (LENGTH_MEASURE( 1.000000000000000082E-05 ), #239, 'distance_accuracy_value', 'NONE');
#153 = ORIENTED_EDGE ( 'NONE', *, *, #77, .T. ) ;
#154 = FACE_OUTER_BOUND ( 'NONE', #254, .T. ) ;
#155 = DIRECTION ( 'NONE',  ( 0.000000000000000000, 0.000000000000000000, -1.000000000000000000 ) ) ;
#156 =( NAMED_UNIT ( * ) SI_UNIT ( $, .STERADIAN. ) SOLID_ANGLE_UNIT ( ) );
#157 = EDGE_CURVE ( 'NONE', #34, #188, #295, .T. ) ;
#158 = DIRECTION ( 'NONE',  ( 0.000000000000000000, 0.000000000000000000, -1.000000000000000000 ) ) ;
#159 = SURFACE_STYLE_FILL_AREA ( #138 ) ;
#160 = AXIS2_PLACEMENT_3D ( 'NONE', #286, #218, #304 ) ;
#161 = UNCERTAINTY_MEASURE_WITH_UNIT (LENGTH_MEASURE( 1.000000000000000082E-05 ), #281, 'distance_accuracy_value', 'NONE');
#162 = FACE_OUTER_BOUND ( 'NONE', #192, .T. ) ;
#163 = PRESENTATION_LAYER_ASSIGNMENT (  '', '', ( #285 ) ) ;
#164 = CARTESIAN_POINT ( 'NONE',  ( 0.000000000000000000, 0.000000000000000000, 0.000000000000000000 ) ) ;
#165 = LINE ( 'NONE', #268, #215 ) ;
#166 = FILL_AREA_STYLE_COLOUR ( '', #68 ) ;
#167 =( GEOMETRIC_REPRESENTATION_CONTEXT ( 3 ) GLOBAL_UNCERTAINTY_ASSIGNED_CONTEXT ( ( #44 ) ) GLOBAL_UNIT_ASSIGNED_CONTEXT ( ( #64, #187, #129 ) ) REPRESENTATION_CONTEXT ( 'NONE', 'WORKASPACE' ) );
#168 = ADVANCED_FACE ( 'NONE', ( #289 ), #267, .T. ) ;
#169 = DIMENSIONAL_EXPONENTS ( 1.000000000000000000, 0.000000000000000000, 0.000000000000000000, 0.000000000000000000, 0.000000000000000000, 0.000000000000000000, 0.000000000000000000 ) ;
#170 = APPLICATION_PROTOCOL_DEFINITION ( 'draft international standard', 'automotive_design', 1998, #190 ) ;
#171 = CIRCLE ( 'NONE', #160, 0.06249999999999970857 ) ;
#172 = LENGTH_MEASURE_WITH_UNIT ( LENGTH_MEASURE( 0.02539999999999999897 ), #10 );
#173 = CARTESIAN_POINT ( 'NONE',  ( 7.654042494670959086E-18, 0.000000000000000000, 0.06250000000000001388 ) ) ;
#174 = ORIENTED_EDGE ( 'NONE', *, *, #118, .T. ) ;
#175 = SURFACE_STYLE_FILL_AREA ( #196 ) ;
#176 = VERTEX_POINT ( 'NONE', #128 ) ;
#177 = CARTESIAN_POINT ( 'NONE',  ( 3.061616997868383141E-16, 2.500000000000000000, 0.000000000000000000 ) ) ;
#178 = ORIENTED_EDGE ( 'NONE', *, *, #42, .F. ) ;
#179 = PRESENTATION_STYLE_ASSIGNMENT (( #9 ) ) ;
#180 = ORIENTED_EDGE ( 'NONE', *, *, #198, .F. ) ;
#181 = DIMENSIONAL_EXPONENTS ( 1.000000000000000000, 0.000000000000000000, 0.000000000000000000, 0.000000000000000000, 0.000000000000000000, 0.000000000000000000, 0.000000000000000000 ) ;
#182 = MECHANICAL_DESIGN_GEOMETRIC_PRESENTATION_REPRESENTATION (  '', ( #142 ), #237 ) ;
#183 = LENGTH_MEASURE_WITH_UNIT ( LENGTH_MEASURE( 0.02539999999999999897 ), #275 );
#184 = SURFACE_SIDE_STYLE ('',( #175 ) ) ;
#185 = CARTESIAN_POINT ( 'NONE',  ( 0.000000000000000000, 0.6250000000000000000, -0.06250000000000001388 ) ) ;
#186 = LENGTH_MEASURE_WITH_UNIT ( LENGTH_MEASURE( 0.02539999999999999897 ), #288 );
#187 =( NAMED_UNIT ( * ) PLANE_ANGLE_UNIT ( ) SI_UNIT ( $, .RADIAN. ) );
#188 = VERTEX_POINT ( 'NONE', #18 ) ;
#189 = PRESENTATION_STYLE_ASSIGNMENT (( #90 ) ) ;
#190 = APPLICATION_CONTEXT ( 'automotive_design' ) ;
#191 = DIRECTION ( 'NONE',  ( 1.632862398863137527E-16, 1.000000000000000000, -0.000000000000000000 ) ) ;
#192 = EDGE_LOOP ( 'NONE', ( #294, #121 ) ) ;
#193 = VECTOR ( 'NONE', #191, 39.37007874015748143 ) ;
#194 = SURFACE_STYLE_FILL_AREA ( #46 ) ;
#195 = DIRECTION ( 'NONE',  ( 0.000000000000000000, 0.000000000000000000, 1.000000000000000000 ) ) ;
#196 = FILL_AREA_STYLE ('',( #53 ) ) ;
#197 = MECHANICAL_DESIGN_GEOMETRIC_PRESENTATION_REPRESENTATION (  '', ( #81 ), #167 ) ;
#198 = EDGE_CURVE ( 'NONE', #252, #56, #231, .T. ) ;
#199 = DIRECTION ( 'NONE',  ( 1.000000000000000000, 0.000000000000000000, 0.000000000000000000 ) ) ;
#200 = ORIENTED_EDGE ( 'NONE', *, *, #134, .T. ) ;
#201 = EDGE_LOOP ( 'NONE', ( #106, #178 ) ) ;
#202 = SURFACE_STYLE_FILL_AREA ( #242 ) ;
#203 = ORIENTED_EDGE ( 'NONE', *, *, #214, .F. ) ;
#204 = AXIS2_PLACEMENT_3D ( 'NONE', #11, #211, #112 ) ;
#205 = COLOUR_RGB ( '',1.000000000000000000, 0.000000000000000000, 0.000000000000000000 ) ;
#206 = DIRECTION ( 'NONE',  ( 1.632862398863137527E-16, 1.000000000000000000, -0.000000000000000000 ) ) ;
#207 = VERTEX_POINT ( 'NONE', #111 ) ;
#208 = LENGTH_MEASURE_WITH_UNIT ( LENGTH_MEASURE( 0.02539999999999999897 ), #67 );
#209 = PLANE ( 'NONE',  #217 ) ;
#210 = CIRCLE ( 'NONE', #298, 0.06250000000000001388 ) ;
#211 = DIRECTION ( 'NONE',  ( -0.000000000000000000, -1.000000000000000000, -0.000000000000000000 ) ) ;
#212 = CYLINDRICAL_SURFACE ( 'NONE', #25, 0.06249999999999986122 ) ;
#213 = CARTESIAN_POINT ( 'NONE',  ( 7.654042494670959086E-18, 0.000000000000000000, 0.06250000000000001388 ) ) ;
#214 = EDGE_CURVE ( 'NONE', #59, #119, #225, .T. ) ;
#215 = VECTOR ( 'NONE', #309, 39.37007874015748143 ) ;
#216 = SURFACE_SIDE_STYLE ('',( #23 ) ) ;
#217 = AXIS2_PLACEMENT_3D ( 'NONE', #88, #24, #307 ) ;
#218 = DIRECTION ( 'NONE',  ( 1.632862398863137527E-16, 1.000000000000000000, -0.000000000000000000 ) ) ;
#219 = CARTESIAN_POINT ( 'NONE',  ( 0.000000000000000000, 0.000000000000000000, 0.000000000000000000 ) ) ;
#220 =( LENGTH_UNIT ( ) NAMED_UNIT ( * ) SI_UNIT ( $, .METRE. ) );
#221 = LENGTH_MEASURE_WITH_UNIT ( LENGTH_MEASURE( 0.02539999999999999897 ), #95 );
#222 = CIRCLE ( 'NONE', #120, 0.06250000000000001388 ) ;
#223 =( LENGTH_UNIT ( ) NAMED_UNIT ( * ) SI_UNIT ( $, .METRE. ) );
#224 = DIMENSIONAL_EXPONENTS ( 1.000000000000000000, 0.000000000000000000, 0.000000000000000000, 0.000000000000000000, 0.000000000000000000, 0.000000000000000000, 0.000000000000000000 ) ;
#225 = CIRCLE ( 'NONE', #204, 0.06250000000000001388 ) ;
#226 = PRESENTATION_LAYER_ASSIGNMENT (  '', '', ( #130 ) ) ;
#227 = AXIS2_PLACEMENT_3D ( 'NONE', #219, #78, #140 ) ;
#228 = ORIENTED_EDGE ( 'NONE', *, *, #255, .T. ) ;
#229 = CARTESIAN_POINT ( 'NONE',  ( 0.06250000000000016653, 2.500000000000000000, 7.654042494670940597E-18 ) ) ;
#230 = FILL_AREA_STYLE_COLOUR ( '', #205 ) ;
#231 = LINE ( 'NONE', #229, #236 ) ;
#232 =( NAMED_UNIT ( * ) PLANE_ANGLE_UNIT ( ) SI_UNIT ( $, .RADIAN. ) );
#233 = SURFACE_STYLE_USAGE ( .BOTH. , #184 ) ;
#234 = FACE_OUTER_BOUND ( 'NONE', #63, .T. ) ;
#235 = CARTESIAN_POINT ( 'NONE',  ( 0.000000000000000000, 0.000000000000000000, 0.000000000000000000 ) ) ;
#236 = VECTOR ( 'NONE', #206, 39.37007874015748143 ) ;
#237 =( GEOMETRIC_REPRESENTATION_CONTEXT ( 3 ) GLOBAL_UNCERTAINTY_ASSIGNED_CONTEXT ( ( #15 ) ) GLOBAL_UNIT_ASSIGNED_CONTEXT ( ( #71, #280, #156 ) ) REPRESENTATION_CONTEXT ( 'NONE', 'WORKASPACE' ) );
#238 = DIRECTION ( 'NONE',  ( 0.000000000000000000, -0.000000000000000000, 1.000000000000000000 ) ) ;
#239 =( CONVERSION_BASED_UNIT ( 'INCH', #186 ) LENGTH_UNIT ( ) NAMED_UNIT ( #144 ) );
#240 = AXIS2_PLACEMENT_3D ( 'NONE', #235, #124, #155 ) ;
#241 = AXIS2_PLACEMENT_3D ( 'NONE', #258, #263, #21 ) ;
#242 = FILL_AREA_STYLE ('',( #166 ) ) ;
#243 = CARTESIAN_POINT ( 'NONE',  ( 8.331998792565876739E-34, 0.6250000000000000000, 0.000000000000000000 ) ) ;
#244 = CARTESIAN_POINT ( 'NONE',  ( 0.000000000000000000, 0.6250000000000000000, 0.000000000000000000 ) ) ;
#245 = PRODUCT_RELATED_PRODUCT_CATEGORY ( 'part', '', ( #41 ) ) ;
#246 = VECTOR ( 'NONE', #61, 39.37007874015748143 ) ;
#247 =( NAMED_UNIT ( * ) SI_UNIT ( $, .STERADIAN. ) SOLID_ANGLE_UNIT ( ) );
#248 = DIMENSIONAL_EXPONENTS ( 1.000000000000000000, 0.000000000000000000, 0.000000000000000000, 0.000000000000000000, 0.000000000000000000, 0.000000000000000000, 0.000000000000000000 ) ;
#249 = CIRCLE ( 'NONE', #12, 0.06250000000000001388 ) ;
#250 = ORIENTED_EDGE ( 'NONE', *, *, #198, .T. ) ;
#251 = DIMENSIONAL_EXPONENTS ( 1.000000000000000000, 0.000000000000000000, 0.000000000000000000, 0.000000000000000000, 0.000000000000000000, 0.000000000000000000, 0.000000000000000000 ) ;
#252 = VERTEX_POINT ( 'NONE', #300 ) ;
#253 = PRODUCT_DEFINITION_FORMATION_WITH_SPECIFIED_SOURCE ( 'ANY', '', #41, .NOT_KNOWN. ) ;
#254 = EDGE_LOOP ( 'NONE', ( #180, #200, #174, #292 ) ) ;
#255 = EDGE_CURVE ( 'NONE', #188, #59, #293, .T. ) ;
#256 = ORIENTED_EDGE ( 'NONE', *, *, #255, .F. ) ;
#257 = DIRECTION ( 'NONE',  ( 1.632862398863137527E-16, 1.000000000000000000, -0.000000000000000000 ) ) ;
#258 = CARTESIAN_POINT ( 'NONE',  ( 0.000000000000000000, 0.000000000000000000, 0.000000000000000000 ) ) ;
#259 =( NAMED_UNIT ( * ) SI_UNIT ( $, .STERADIAN. ) SOLID_ANGLE_UNIT ( ) );
#260 = PRESENTATION_STYLE_ASSIGNMENT (( #40 ) ) ;
#261 = AXIS2_PLACEMENT_3D ( 'NONE', #19, #297, #238 ) ;
#262 = DIRECTION ( 'NONE',  ( 1.632862398863137527E-16, 1.000000000000000000, -0.000000000000000000 ) ) ;
#263 = DIRECTION ( 'NONE',  ( 0.000000000000000000, -1.000000000000000000, -0.000000000000000000 ) ) ;
#264 = PLANE ( 'NONE',  #45 ) ;
#265 = AXIS2_PLACEMENT_3D ( 'NONE', #98, #195, #199 ) ;
#266 = ADVANCED_FACE ( 'NONE', ( #145 ), #104, .T. ) ;
#267 = CYLINDRICAL_SURFACE ( 'NONE', #240, 0.06250000000000001388 ) ;
#268 = CARTESIAN_POINT ( 'NONE',  ( 0.000000000000000000, 0.000000000000000000, -0.06250000000000001388 ) ) ;
#269 = STYLED_ITEM ( 'NONE', ( #179 ), #32 ) ;
#270 = DIMENSIONAL_EXPONENTS ( 1.000000000000000000, 0.000000000000000000, 0.000000000000000000, 0.000000000000000000, 0.000000000000000000, 0.000000000000000000, 0.000000000000000000 ) ;
#271 = APPLICATION_PROTOCOL_DEFINITION ( 'draft international standard', 'automotive_design', 1998, #291 ) ;
#272 = SHAPE_DEFINITION_REPRESENTATION ( #116, #150 ) ;
#273 =( GEOMETRIC_REPRESENTATION_CONTEXT ( 3 ) GLOBAL_UNCERTAINTY_ASSIGNED_CONTEXT ( ( #152 ) ) GLOBAL_UNIT_ASSIGNED_CONTEXT ( ( #239, #69, #47 ) ) REPRESENTATION_CONTEXT ( 'NONE', 'WORKASPACE' ) );
#274 = PRESENTATION_LAYER_ASSIGNMENT (  '', '', ( #81 ) ) ;
#275 =( LENGTH_UNIT ( ) NAMED_UNIT ( * ) SI_UNIT ( $, .METRE. ) );
#276 = ORIENTED_EDGE ( 'NONE', *, *, #100, .T. ) ;
#277 = ADVANCED_FACE ( 'NONE', ( #136 ), #303, .T. ) ;
#278 = AXIS2_PLACEMENT_3D ( 'NONE', #296, #262, #92 ) ;
#279 = FILL_AREA_STYLE ('',( #230 ) ) ;
#280 =( NAMED_UNIT ( * ) PLANE_ANGLE_UNIT ( ) SI_UNIT ( $, .RADIAN. ) );
#281 =( CONVERSION_BASED_UNIT ( 'INCH', #183 ) LENGTH_UNIT ( ) NAMED_UNIT ( #270 ) );
#282 = PLANE ( 'NONE',  #241 ) ;
#283 = DIRECTION ( 'NONE',  ( -0.000000000000000000, -1.000000000000000000, -0.000000000000000000 ) ) ;
#284 = SURFACE_STYLE_FILL_AREA ( #279 ) ;
#285 = STYLED_ITEM ( 'NONE', ( #39 ), #168 ) ;
#286 = CARTESIAN_POINT ( 'NONE',  ( 3.061616997868383141E-16, 2.500000000000000000, 0.000000000000000000 ) ) ;
#287 =( CONVERSION_BASED_UNIT ( 'INCH', #1 ) LENGTH_UNIT ( ) NAMED_UNIT ( #251 ) );
#288 =( LENGTH_UNIT ( ) NAMED_UNIT ( * ) SI_UNIT ( $, .METRE. ) );
#289 = FACE_OUTER_BOUND ( 'NONE', #148, .T. ) ;
#290 =( CONVERSION_BASED_UNIT ( 'INCH', #221 ) LENGTH_UNIT ( ) NAMED_UNIT ( #169 ) );
#291 = APPLICATION_CONTEXT ( 'automotive_design' ) ;
#292 = ORIENTED_EDGE ( 'NONE', *, *, #108, .F. ) ;
#293 = LINE ( 'NONE', #173, #246 ) ;
#294 = ORIENTED_EDGE ( 'NONE', *, *, #5, .F. ) ;
#295 = CIRCLE ( 'NONE', #30, 0.06250000000000001388 ) ;
#296 = CARTESIAN_POINT ( 'NONE',  ( 3.061616997868383141E-16, 2.500000000000000000, 0.000000000000000000 ) ) ;
#297 = DIRECTION ( 'NONE',  ( 0.000000000000000000, 1.000000000000000000, 0.000000000000000000 ) ) ;
#298 = AXIS2_PLACEMENT_3D ( 'NONE', #22, #283, #158 ) ;
#299 = COLOUR_RGB ( '',1.000000000000000000, 0.000000000000000000, 0.000000000000000000 ) ;
#300 = CARTESIAN_POINT ( 'NONE',  ( 0.06250000000000002776, 0.6250000000000000000, 7.654042494670951382E-18 ) ) ;
#301 = CARTESIAN_POINT ( 'NONE',  ( 3.061616997868383141E-16, 2.500000000000000000, 0.000000000000000000 ) ) ;
#302 = FILL_AREA_STYLE_COLOUR ( '', #97 ) ;
#303 = CYLINDRICAL_SURFACE ( 'NONE', #227, 0.06250000000000001388 ) ;
#304 = DIRECTION ( 'NONE',  ( -1.000000000000000000, 0.000000000000000000, 0.000000000000000000 ) ) ;
#305 = EDGE_CURVE ( 'NONE', #34, #119, #165, .T. ) ;
#306 = CARTESIAN_POINT ( 'NONE',  ( 0.000000000000000000, 0.6250000000000000000, 0.000000000000000000 ) ) ;
#307 = DIRECTION ( 'NONE',  ( 1.000000000000000000, -1.632862398863137527E-16, 0.000000000000000000 ) ) ;
#308 = CLOSED_SHELL ( 'NONE', ( #266, #125, #85, #96 ) ) ;
#309 = DIRECTION ( 'NONE',  ( -0.000000000000000000, -1.000000000000000000, -0.000000000000000000 ) ) ;
ENDSEC;
END-ISO-10303-21;
