ISO-10303-21;
HEADER;
FILE_DESCRIPTION (( 'STEP AP214' ),
    '1' );
FILE_NAME ('82523.STEP',
    '2023-06-23T06:04:20',
    ( '' ),
    ( '' ),
    'SwSTEP 2.0',
    'SolidWorks 2023',
    '' );
FILE_SCHEMA (( 'AUTOMOTIVE_DESIGN' ));
ENDSEC;

DATA;
#1 = ADVANCED_BREP_SHAPE_REPRESENTATION ( '82523', ( #202, #210, #34 ), #40 ) ;
#2 = DIRECTION ( 'NONE',  ( 0.000000000000000000, 1.000000000000000000, 0.000000000000000000 ) ) ;
#3 = FILL_AREA_STYLE ('',( #271 ) ) ;
#4 = AXIS2_PLACEMENT_3D ( 'NONE', #187, #217, #162 ) ;
#5 = STYLED_ITEM ( 'NONE', ( #29 ), #210 ) ;
#6 = DIRECTION ( 'NONE',  ( 1.000000000000000000, 0.000000000000000000, 0.000000000000000000 ) ) ;
#7 = DIRECTION ( 'NONE',  ( 0.000000000000000000, 0.000000000000000000, -1.000000000000000000 ) ) ;
#8 = APPLICATION_CONTEXT ( 'automotive_design' ) ;
#9 =( CONVERSION_BASED_UNIT ( 'INCH', #222 ) LENGTH_UNIT ( ) NAMED_UNIT ( #30 ) );
#10 = CARTESIAN_POINT ( 'NONE',  ( 0.000000000000000000, 3.625000000000000444, -0.2500000000000000000 ) ) ;
#11 = EDGE_CURVE ( 'NONE', #226, #274, #291, .T. ) ;
#12 = SURFACE_SIDE_STYLE ('',( #224 ) ) ;
#13 = CARTESIAN_POINT ( 'NONE',  ( -2.449293598294707400E-16, 6.000000000000000888, 0.000000000000000000 ) ) ;
#14 = ORIENTED_EDGE ( 'NONE', *, *, #135, .T. ) ;
#15 = UNCERTAINTY_MEASURE_WITH_UNIT (LENGTH_MEASURE( 1.000000000000000082E-05 ), #23, 'distance_accuracy_value', 'NONE');
#16 = CARTESIAN_POINT ( 'NONE',  ( -0.2500000000000003886, 6.000000000000000888, 0.000000000000000000 ) ) ;
#17 = DIRECTION ( 'NONE',  ( -1.031281515071455799E-16, 1.000000000000000000, -0.000000000000000000 ) ) ;
#18 = CARTESIAN_POINT ( 'NONE',  ( 3.061616997868383018E-17, 0.000000000000000000, 0.2500000000000000000 ) ) ;
#19 = VERTEX_POINT ( 'NONE', #184 ) ;
#20 = DIRECTION ( 'NONE',  ( 0.000000000000000000, 0.000000000000000000, -1.000000000000000000 ) ) ;
#21 = PRODUCT_DEFINITION_CONTEXT ( 'detailed design', #8, 'design' ) ;
#22 = CARTESIAN_POINT ( 'NONE',  ( 0.000000000000000000, 3.625000000000000444, 0.000000000000000000 ) ) ;
#23 =( CONVERSION_BASED_UNIT ( 'INCH', #189 ) LENGTH_UNIT ( ) NAMED_UNIT ( #131 ) );
#24 = PLANE ( 'NONE',  #47 ) ;
#25 = SHAPE_DEFINITION_REPRESENTATION ( #286, #1 ) ;
#26 = SURFACE_SIDE_STYLE ('',( #192 ) ) ;
#27 = MECHANICAL_DESIGN_GEOMETRIC_PRESENTATION_REPRESENTATION (  '', ( #90 ), #283 ) ;
#28 =( GEOMETRIC_REPRESENTATION_CONTEXT ( 3 ) GLOBAL_UNCERTAINTY_ASSIGNED_CONTEXT ( ( #205 ) ) GLOBAL_UNIT_ASSIGNED_CONTEXT ( ( #264, #63, #142 ) ) REPRESENTATION_CONTEXT ( 'NONE', 'WORKASPACE' ) );
#29 = PRESENTATION_STYLE_ASSIGNMENT (( #267 ) ) ;
#30 = DIMENSIONAL_EXPONENTS ( 1.000000000000000000, 0.000000000000000000, 0.000000000000000000, 0.000000000000000000, 0.000000000000000000, 0.000000000000000000, 0.000000000000000000 ) ;
#31 =( CONVERSION_BASED_UNIT ( 'INCH', #263 ) LENGTH_UNIT ( ) NAMED_UNIT ( #213 ) );
#32 = DIRECTION ( 'NONE',  ( -0.000000000000000000, -1.000000000000000000, -0.000000000000000000 ) ) ;
#33 = CIRCLE ( 'NONE', #137, 0.2500000000000002220 ) ;
#34 = AXIS2_PLACEMENT_3D ( 'NONE', #175, #71, #6 ) ;
#35 = CIRCLE ( 'NONE', #278, 0.2500000000000000000 ) ;
#36 = ORIENTED_EDGE ( 'NONE', *, *, #253, .F. ) ;
#37 = EDGE_LOOP ( 'NONE', ( #156, #41, #128, #296 ) ) ;
#38 = PRESENTATION_STYLE_ASSIGNMENT (( #261 ) ) ;
#39 = ORIENTED_EDGE ( 'NONE', *, *, #300, .F. ) ;
#40 =( GEOMETRIC_REPRESENTATION_CONTEXT ( 3 ) GLOBAL_UNCERTAINTY_ASSIGNED_CONTEXT ( ( #133 ) ) GLOBAL_UNIT_ASSIGNED_CONTEXT ( ( #31, #98, #75 ) ) REPRESENTATION_CONTEXT ( 'NONE', 'WORKASPACE' ) );
#41 = ORIENTED_EDGE ( 'NONE', *, *, #285, .T. ) ;
#42 = CLOSED_SHELL ( 'NONE', ( #197, #227, #118, #93 ) ) ;
#43 = STYLED_ITEM ( 'NONE', ( #38 ), #203 ) ;
#44 = EDGE_CURVE ( 'NONE', #19, #204, #251, .T. ) ;
#45 = DIRECTION ( 'NONE',  ( -1.031281515071455676E-16, 1.000000000000000000, -0.000000000000000000 ) ) ;
#46 = DIMENSIONAL_EXPONENTS ( 1.000000000000000000, 0.000000000000000000, 0.000000000000000000, 0.000000000000000000, 0.000000000000000000, 0.000000000000000000, 0.000000000000000000 ) ;
#47 = AXIS2_PLACEMENT_3D ( 'NONE', #115, #194, #116 ) ;
#48 = FILL_AREA_STYLE ('',( #246 ) ) ;
#49 = LINE ( 'NONE', #147, #211 ) ;
#50 = MECHANICAL_DESIGN_GEOMETRIC_PRESENTATION_REPRESENTATION (  '', ( #198 ), #80 ) ;
#51 = ORIENTED_EDGE ( 'NONE', *, *, #11, .F. ) ;
#52 = LINE ( 'NONE', #97, #129 ) ;
#53 = EDGE_LOOP ( 'NONE', ( #130, #14, #282, #177 ) ) ;
#54 = FILL_AREA_STYLE ('',( #143 ) ) ;
#55 = AXIS2_PLACEMENT_3D ( 'NONE', #22, #110, #230 ) ;
#56 = ORIENTED_EDGE ( 'NONE', *, *, #44, .T. ) ;
#57 =( NAMED_UNIT ( * ) PLANE_ANGLE_UNIT ( ) SI_UNIT ( $, .RADIAN. ) );
#58 = ORIENTED_EDGE ( 'NONE', *, *, #253, .T. ) ;
#59 = FACE_OUTER_BOUND ( 'NONE', #181, .T. ) ;
#60 = DIRECTION ( 'NONE',  ( -1.031281515071455799E-16, 1.000000000000000000, -0.000000000000000000 ) ) ;
#61 = PRODUCT_DEFINITION ( 'UNKNOWN', '', #91, #21 ) ;
#62 = DIMENSIONAL_EXPONENTS ( 1.000000000000000000, 0.000000000000000000, 0.000000000000000000, 0.000000000000000000, 0.000000000000000000, 0.000000000000000000, 0.000000000000000000 ) ;
#63 =( NAMED_UNIT ( * ) PLANE_ANGLE_UNIT ( ) SI_UNIT ( $, .RADIAN. ) );
#64 = CIRCLE ( 'NONE', #153, 0.2500000000000000000 ) ;
#65 = VECTOR ( 'NONE', #45, 39.37007874015748143 ) ;
#66 = CARTESIAN_POINT ( 'NONE',  ( 0.000000000000000000, 0.000000000000000000, 0.000000000000000000 ) ) ;
#67 =( NAMED_UNIT ( * ) SI_UNIT ( $, .STERADIAN. ) SOLID_ANGLE_UNIT ( ) );
#68 = FACE_OUTER_BOUND ( 'NONE', #37, .T. ) ;
#69 = APPLICATION_CONTEXT ( 'automotive_design' ) ;
#70 = COLOUR_RGB ( '',1.000000000000000000, 0.000000000000000000, 0.000000000000000000 ) ;
#71 = DIRECTION ( 'NONE',  ( 0.000000000000000000, 0.000000000000000000, 1.000000000000000000 ) ) ;
#72 = CYLINDRICAL_SURFACE ( 'NONE', #112, 0.2500000000000000000 ) ;
#73 = COLOUR_RGB ( '',1.000000000000000000, 0.000000000000000000, 0.000000000000000000 ) ;
#74 = AXIS2_PLACEMENT_3D ( 'NONE', #66, #242, #114 ) ;
#75 =( NAMED_UNIT ( * ) SI_UNIT ( $, .STERADIAN. ) SOLID_ANGLE_UNIT ( ) );
#76 = VERTEX_POINT ( 'NONE', #297 ) ;
#77 = FACE_OUTER_BOUND ( 'NONE', #255, .T. ) ;
#78 = SURFACE_STYLE_USAGE ( .BOTH. , #12 ) ;
#79 = DIRECTION ( 'NONE',  ( -1.000000000000000000, 0.000000000000000000, 0.000000000000000000 ) ) ;
#80 =( GEOMETRIC_REPRESENTATION_CONTEXT ( 3 ) GLOBAL_UNCERTAINTY_ASSIGNED_CONTEXT ( ( #136 ) ) GLOBAL_UNIT_ASSIGNED_CONTEXT ( ( #9, #245, #241 ) ) REPRESENTATION_CONTEXT ( 'NONE', 'WORKASPACE' ) );
#81 =( LENGTH_UNIT ( ) NAMED_UNIT ( * ) SI_UNIT ( $, .METRE. ) );
#82 = ORIENTED_EDGE ( 'NONE', *, *, #285, .F. ) ;
#83 = ORIENTED_EDGE ( 'NONE', *, *, #126, .T. ) ;
#84 = PRESENTATION_LAYER_ASSIGNMENT (  '', '', ( #117 ) ) ;
#85 = AXIS2_PLACEMENT_3D ( 'NONE', #196, #168, #309 ) ;
#86 = DIRECTION ( 'NONE',  ( -0.000000000000000000, -1.000000000000000000, -0.000000000000000000 ) ) ;
#87 = FILL_AREA_STYLE_COLOUR ( '', #179 ) ;
#88 = DIRECTION ( 'NONE',  ( 0.000000000000000000, -0.000000000000000000, 1.000000000000000000 ) ) ;
#89 = CARTESIAN_POINT ( 'NONE',  ( 0.000000000000000000, 0.000000000000000000, -0.2500000000000000000 ) ) ;
#90 = STYLED_ITEM ( 'NONE', ( #191 ), #202 ) ;
#91 = PRODUCT_DEFINITION_FORMATION_WITH_SPECIFIED_SOURCE ( 'ANY', '', #279, .NOT_KNOWN. ) ;
#92 = CARTESIAN_POINT ( 'NONE',  ( 0.000000000000000000, 3.625000000000000444, 0.000000000000000000 ) ) ;
#93 = ADVANCED_FACE ( 'NONE', ( #59 ), #158, .F. ) ;
#94 = DIRECTION ( 'NONE',  ( -0.000000000000000000, -1.000000000000000000, -0.000000000000000000 ) ) ;
#95 = PRESENTATION_LAYER_ASSIGNMENT (  '', '', ( #43 ) ) ;
#96 = DIRECTION ( 'NONE',  ( -1.031281515071455799E-16, 1.000000000000000000, -0.000000000000000000 ) ) ;
#97 = CARTESIAN_POINT ( 'NONE',  ( 0.000000000000000000, 0.000000000000000000, -0.2500000000000000000 ) ) ;
#98 =( NAMED_UNIT ( * ) PLANE_ANGLE_UNIT ( ) SI_UNIT ( $, .RADIAN. ) );
#99 =( GEOMETRIC_REPRESENTATION_CONTEXT ( 3 ) GLOBAL_UNCERTAINTY_ASSIGNED_CONTEXT ( ( #15 ) ) GLOBAL_UNIT_ASSIGNED_CONTEXT ( ( #23, #289, #166 ) ) REPRESENTATION_CONTEXT ( 'NONE', 'WORKASPACE' ) );
#100 = FILL_AREA_STYLE_COLOUR ( '', #73 ) ;
#101 = EDGE_LOOP ( 'NONE', ( #36, #257 ) ) ;
#102 = EDGE_LOOP ( 'NONE', ( #58, #228, #51, #39 ) ) ;
#103 = ORIENTED_EDGE ( 'NONE', *, *, #126, .F. ) ;
#104 = MECHANICAL_DESIGN_GEOMETRIC_PRESENTATION_REPRESENTATION (  '', ( #5 ), #186 ) ;
#105 = ORIENTED_EDGE ( 'NONE', *, *, #11, .T. ) ;
#106 = DIRECTION ( 'NONE',  ( -1.000000000000000000, 0.000000000000000000, 0.000000000000000000 ) ) ;
#107 = LINE ( 'NONE', #265, #65 ) ;
#108 =( NAMED_UNIT ( * ) PLANE_ANGLE_UNIT ( ) SI_UNIT ( $, .RADIAN. ) );
#109 = DIRECTION ( 'NONE',  ( -0.000000000000000000, -1.000000000000000000, -0.000000000000000000 ) ) ;
#110 = DIRECTION ( 'NONE',  ( -1.031281515071455799E-16, 1.000000000000000000, -0.000000000000000000 ) ) ;
#111 = CARTESIAN_POINT ( 'NONE',  ( 0.000000000000000000, 0.000000000000000000, 0.000000000000000000 ) ) ;
#112 = AXIS2_PLACEMENT_3D ( 'NONE', #182, #256, #20 ) ;
#113 = SURFACE_STYLE_FILL_AREA ( #303 ) ;
#114 = DIRECTION ( 'NONE',  ( 0.000000000000000000, 0.000000000000000000, -1.000000000000000000 ) ) ;
#115 = CARTESIAN_POINT ( 'NONE',  ( 1.329426954160096669E-33, 3.625000000000000444, 0.000000000000000000 ) ) ;
#116 = DIRECTION ( 'NONE',  ( -1.000000000000000000, -1.031281515071455676E-16, 0.000000000000000000 ) ) ;
#117 = STYLED_ITEM ( 'NONE', ( #260 ), #159 ) ;
#118 = ADVANCED_FACE ( 'NONE', ( #77 ), #176, .T. ) ;
#119 = DIMENSIONAL_EXPONENTS ( 1.000000000000000000, 0.000000000000000000, 0.000000000000000000, 0.000000000000000000, 0.000000000000000000, 0.000000000000000000, 0.000000000000000000 ) ;
#120 = UNCERTAINTY_MEASURE_WITH_UNIT (LENGTH_MEASURE( 1.000000000000000082E-05 ), #155, 'distance_accuracy_value', 'NONE');
#121 = FILL_AREA_STYLE ('',( #149 ) ) ;
#122 = FACE_OUTER_BOUND ( 'NONE', #102, .T. ) ;
#123 = PLANE ( 'NONE',  #85 ) ;
#124 = PRESENTATION_LAYER_ASSIGNMENT (  '', '', ( #268 ) ) ;
#125 = DIRECTION ( 'NONE',  ( 1.031281515071455676E-16, -1.000000000000000000, 0.000000000000000000 ) ) ;
#126 = EDGE_CURVE ( 'NONE', #76, #204, #33, .T. ) ;
#127 = LENGTH_MEASURE_WITH_UNIT ( LENGTH_MEASURE( 0.02539999999999999897 ), #81 );
#128 = ORIENTED_EDGE ( 'NONE', *, *, #185, .F. ) ;
#129 = VECTOR ( 'NONE', #174, 39.37007874015748143 ) ;
#130 = ORIENTED_EDGE ( 'NONE', *, *, #293, .F. ) ;
#131 = DIMENSIONAL_EXPONENTS ( 1.000000000000000000, 0.000000000000000000, 0.000000000000000000, 0.000000000000000000, 0.000000000000000000, 0.000000000000000000, 0.000000000000000000 ) ;
#132 = APPLICATION_PROTOCOL_DEFINITION ( 'draft international standard', 'automotive_design', 1998, #8 ) ;
#133 = UNCERTAINTY_MEASURE_WITH_UNIT (LENGTH_MEASURE( 1.000000000000000082E-05 ), #31, 'distance_accuracy_value', 'NONE');
#134 = FACE_OUTER_BOUND ( 'NONE', #101, .T. ) ;
#135 = EDGE_CURVE ( 'NONE', #235, #152, #64, .T. ) ;
#136 = UNCERTAINTY_MEASURE_WITH_UNIT (LENGTH_MEASURE( 1.000000000000000082E-05 ), #9, 'distance_accuracy_value', 'NONE');
#137 = AXIS2_PLACEMENT_3D ( 'NONE', #308, #272, #150 ) ;
#138 = SURFACE_STYLE_FILL_AREA ( #3 ) ;
#139 = DIRECTION ( 'NONE',  ( -1.000000000000000000, 0.000000000000000000, 0.000000000000000000 ) ) ;
#140 = CYLINDRICAL_SURFACE ( 'NONE', #74, 0.2500000000000000000 ) ;
#141 = EDGE_CURVE ( 'NONE', #19, #154, #277, .T. ) ;
#142 =( NAMED_UNIT ( * ) SI_UNIT ( $, .STERADIAN. ) SOLID_ANGLE_UNIT ( ) );
#143 = FILL_AREA_STYLE_COLOUR ( '', #231 ) ;
#144 =( NAMED_UNIT ( * ) PLANE_ANGLE_UNIT ( ) SI_UNIT ( $, .RADIAN. ) );
#145 = DIMENSIONAL_EXPONENTS ( 1.000000000000000000, 0.000000000000000000, 0.000000000000000000, 0.000000000000000000, 0.000000000000000000, 0.000000000000000000, 0.000000000000000000 ) ;
#146 = CARTESIAN_POINT ( 'NONE',  ( 0.000000000000000000, 3.625000000000000444, 0.000000000000000000 ) ) ;
#147 = CARTESIAN_POINT ( 'NONE',  ( 3.061616997868383018E-17, 0.000000000000000000, 0.2500000000000000000 ) ) ;
#148 = PRESENTATION_LAYER_ASSIGNMENT (  '', '', ( #5 ) ) ;
#149 = FILL_AREA_STYLE_COLOUR ( '', #70 ) ;
#150 = DIRECTION ( 'NONE',  ( -1.000000000000000000, 0.000000000000000000, 0.000000000000000000 ) ) ;
#151 = SURFACE_SIDE_STYLE ('',( #273 ) ) ;
#152 = VERTEX_POINT ( 'NONE', #10 ) ;
#153 = AXIS2_PLACEMENT_3D ( 'NONE', #220, #249, #7 ) ;
#154 = VERTEX_POINT ( 'NONE', #294 ) ;
#155 =( CONVERSION_BASED_UNIT ( 'INCH', #127 ) LENGTH_UNIT ( ) NAMED_UNIT ( #119 ) );
#156 = ORIENTED_EDGE ( 'NONE', *, *, #141, .T. ) ;
#157 = PRESENTATION_LAYER_ASSIGNMENT (  '', '', ( #90 ) ) ;
#158 = PLANE ( 'NONE',  #161 ) ;
#159 = ADVANCED_FACE ( 'NONE', ( #122 ), #72, .T. ) ;
#160 =( NAMED_UNIT ( * ) SI_UNIT ( $, .STERADIAN. ) SOLID_ANGLE_UNIT ( ) );
#161 = AXIS2_PLACEMENT_3D ( 'NONE', #298, #125, #259 ) ;
#162 = DIRECTION ( 'NONE',  ( -1.000000000000000000, 0.000000000000000000, 0.000000000000000000 ) ) ;
#163 = AXIS2_PLACEMENT_3D ( 'NONE', #146, #2, #88 ) ;
#164 = SURFACE_SIDE_STYLE ('',( #138 ) ) ;
#165 =( LENGTH_UNIT ( ) NAMED_UNIT ( * ) SI_UNIT ( $, .METRE. ) );
#166 =( NAMED_UNIT ( * ) SI_UNIT ( $, .STERADIAN. ) SOLID_ANGLE_UNIT ( ) );
#167 = PRESENTATION_STYLE_ASSIGNMENT (( #269 ) ) ;
#168 = DIRECTION ( 'NONE',  ( 0.000000000000000000, -1.000000000000000000, -0.000000000000000000 ) ) ;
#169 = EDGE_CURVE ( 'NONE', #154, #19, #252, .T. ) ;
#170 = PRESENTATION_STYLE_ASSIGNMENT (( #78 ) ) ;
#171 = FILL_AREA_STYLE ('',( #100 ) ) ;
#172 = AXIS2_PLACEMENT_3D ( 'NONE', #280, #109, #229 ) ;
#173 = MECHANICAL_DESIGN_GEOMETRIC_PRESENTATION_REPRESENTATION (  '', ( #43 ), #239 ) ;
#174 = DIRECTION ( 'NONE',  ( -0.000000000000000000, -1.000000000000000000, -0.000000000000000000 ) ) ;
#175 = CARTESIAN_POINT ( 'NONE',  ( 0.000000000000000000, 0.000000000000000000, 0.000000000000000000 ) ) ;
#176 = CYLINDRICAL_SURFACE ( 'NONE', #178, 0.2500000000000001110 ) ;
#177 = ORIENTED_EDGE ( 'NONE', *, *, #266, .F. ) ;
#178 = AXIS2_PLACEMENT_3D ( 'NONE', #13, #60, #139 ) ;
#179 = COLOUR_RGB ( '',1.000000000000000000, 0.000000000000000000, 0.000000000000000000 ) ;
#180 = ORIENTED_EDGE ( 'NONE', *, *, #141, .F. ) ;
#181 = EDGE_LOOP ( 'NONE', ( #208, #83 ) ) ;
#182 = CARTESIAN_POINT ( 'NONE',  ( 0.000000000000000000, 0.000000000000000000, 0.000000000000000000 ) ) ;
#183 = LENGTH_MEASURE_WITH_UNIT ( LENGTH_MEASURE( 0.02539999999999999897 ), #207 );
#184 = CARTESIAN_POINT ( 'NONE',  ( -0.2500000000000000000, 3.625000000000000444, 0.000000000000000000 ) ) ;
#185 = EDGE_CURVE ( 'NONE', #204, #76, #248, .T. ) ;
#186 =( GEOMETRIC_REPRESENTATION_CONTEXT ( 3 ) GLOBAL_UNCERTAINTY_ASSIGNED_CONTEXT ( ( #233 ) ) GLOBAL_UNIT_ASSIGNED_CONTEXT ( ( #288, #144, #67 ) ) REPRESENTATION_CONTEXT ( 'NONE', 'WORKASPACE' ) );
#187 = CARTESIAN_POINT ( 'NONE',  ( -2.449293598294707400E-16, 6.000000000000000888, 0.000000000000000000 ) ) ;
#188 = DIRECTION ( 'NONE',  ( 0.000000000000000000, 0.000000000000000000, -1.000000000000000000 ) ) ;
#189 = LENGTH_MEASURE_WITH_UNIT ( LENGTH_MEASURE( 0.02539999999999999897 ), #237 );
#190 = UNCERTAINTY_MEASURE_WITH_UNIT (LENGTH_MEASURE( 1.000000000000000082E-05 ), #284, 'distance_accuracy_value', 'NONE');
#191 = PRESENTATION_STYLE_ASSIGNMENT (( #299 ) ) ;
#192 = SURFACE_STYLE_FILL_AREA ( #48 ) ;
#193 = SURFACE_SIDE_STYLE ('',( #232 ) ) ;
#194 = DIRECTION ( 'NONE',  ( -1.031281515071455676E-16, 1.000000000000000000, 0.000000000000000000 ) ) ;
#195 = COLOUR_RGB ( '',0.7921568627450980005, 0.8196078431372548767, 0.9333333333333333481 ) ;
#196 = CARTESIAN_POINT ( 'NONE',  ( 0.000000000000000000, 0.000000000000000000, 0.000000000000000000 ) ) ;
#197 = ADVANCED_FACE ( 'NONE', ( #68 ), #275, .T. ) ;
#198 = STYLED_ITEM ( 'NONE', ( #170 ), #306 ) ;
#199 = PRODUCT_CONTEXT ( 'NONE', #69, 'mechanical' ) ;
#200 = ORIENTED_EDGE ( 'NONE', *, *, #266, .T. ) ;
#201 = CARTESIAN_POINT ( 'NONE',  ( 0.000000000000000000, 3.625000000000000444, 0.000000000000000000 ) ) ;
#202 = MANIFOLD_SOLID_BREP ( 'Revolve - Cutting Edge', #218 ) ;
#203 = ADVANCED_FACE ( 'NONE', ( #134 ), #281, .T. ) ;
#204 = VERTEX_POINT ( 'NONE', #216 ) ;
#205 = UNCERTAINTY_MEASURE_WITH_UNIT (LENGTH_MEASURE( 1.000000000000000082E-05 ), #264, 'distance_accuracy_value', 'NONE');
#206 = ORIENTED_EDGE ( 'NONE', *, *, #169, .F. ) ;
#207 =( LENGTH_UNIT ( ) NAMED_UNIT ( * ) SI_UNIT ( $, .METRE. ) );
#208 = ORIENTED_EDGE ( 'NONE', *, *, #185, .T. ) ;
#209 = ADVANCED_FACE ( 'NONE', ( #287 ), #140, .T. ) ;
#210 = MANIFOLD_SOLID_BREP ( 'Revolve - Tool Body (Straight Shanked)', #42 ) ;
#211 = VECTOR ( 'NONE', #32, 39.37007874015748143 ) ;
#212 = SURFACE_SIDE_STYLE ('',( #113 ) ) ;
#213 = DIMENSIONAL_EXPONENTS ( 1.000000000000000000, 0.000000000000000000, 0.000000000000000000, 0.000000000000000000, 0.000000000000000000, 0.000000000000000000, 0.000000000000000000 ) ;
#214 = VECTOR ( 'NONE', #302, 39.37007874015748143 ) ;
#215 = CARTESIAN_POINT ( 'NONE',  ( 3.061616997868383018E-17, 3.625000000000000444, 0.2500000000000000000 ) ) ;
#216 = CARTESIAN_POINT ( 'NONE',  ( -0.2500000000000004996, 6.000000000000000888, 0.000000000000000000 ) ) ;
#217 = DIRECTION ( 'NONE',  ( -1.031281515071455799E-16, 1.000000000000000000, -0.000000000000000000 ) ) ;
#218 = CLOSED_SHELL ( 'NONE', ( #159, #203, #209, #306 ) ) ;
#219 = CIRCLE ( 'NONE', #225, 0.2500000000000000000 ) ;
#220 = CARTESIAN_POINT ( 'NONE',  ( 0.000000000000000000, 3.625000000000000444, 0.000000000000000000 ) ) ;
#221 = PRODUCT_RELATED_PRODUCT_CATEGORY ( 'part', '', ( #279 ) ) ;
#222 = LENGTH_MEASURE_WITH_UNIT ( LENGTH_MEASURE( 0.02539999999999999897 ), #254 );
#223 = SURFACE_STYLE_USAGE ( .BOTH. , #151 ) ;
#224 = SURFACE_STYLE_FILL_AREA ( #121 ) ;
#225 = AXIS2_PLACEMENT_3D ( 'NONE', #92, #94, #290 ) ;
#226 = VERTEX_POINT ( 'NONE', #89 ) ;
#227 = ADVANCED_FACE ( 'NONE', ( #262 ), #24, .F. ) ;
#228 = ORIENTED_EDGE ( 'NONE', *, *, #293, .T. ) ;
#229 = DIRECTION ( 'NONE',  ( 0.000000000000000000, 0.000000000000000000, -1.000000000000000000 ) ) ;
#230 = DIRECTION ( 'NONE',  ( -1.000000000000000000, 0.000000000000000000, 0.000000000000000000 ) ) ;
#231 = COLOUR_RGB ( '',0.7921568627450980005, 0.8196078431372548767, 0.9333333333333333481 ) ;
#232 = SURFACE_STYLE_FILL_AREA ( #54 ) ;
#233 = UNCERTAINTY_MEASURE_WITH_UNIT (LENGTH_MEASURE( 1.000000000000000082E-05 ), #288, 'distance_accuracy_value', 'NONE');
#234 =( NAMED_UNIT ( * ) SI_UNIT ( $, .STERADIAN. ) SOLID_ANGLE_UNIT ( ) );
#235 = VERTEX_POINT ( 'NONE', #215 ) ;
#236 = EDGE_LOOP ( 'NONE', ( #180, #206 ) ) ;
#237 =( LENGTH_UNIT ( ) NAMED_UNIT ( * ) SI_UNIT ( $, .METRE. ) );
#238 = AXIS2_PLACEMENT_3D ( 'NONE', #305, #17, #106 ) ;
#239 =( GEOMETRIC_REPRESENTATION_CONTEXT ( 3 ) GLOBAL_UNCERTAINTY_ASSIGNED_CONTEXT ( ( #120 ) ) GLOBAL_UNIT_ASSIGNED_CONTEXT ( ( #155, #57, #234 ) ) REPRESENTATION_CONTEXT ( 'NONE', 'WORKASPACE' ) );
#240 = LENGTH_MEASURE_WITH_UNIT ( LENGTH_MEASURE( 0.02539999999999999897 ), #243 );
#241 =( NAMED_UNIT ( * ) SI_UNIT ( $, .STERADIAN. ) SOLID_ANGLE_UNIT ( ) );
#242 = DIRECTION ( 'NONE',  ( -0.000000000000000000, -1.000000000000000000, -0.000000000000000000 ) ) ;
#243 =( LENGTH_UNIT ( ) NAMED_UNIT ( * ) SI_UNIT ( $, .METRE. ) );
#244 = COLOUR_RGB ( '',1.000000000000000000, 0.000000000000000000, 0.000000000000000000 ) ;
#245 =( NAMED_UNIT ( * ) PLANE_ANGLE_UNIT ( ) SI_UNIT ( $, .RADIAN. ) );
#246 = FILL_AREA_STYLE_COLOUR ( '', #244 ) ;
#247 = APPLICATION_PROTOCOL_DEFINITION ( 'draft international standard', 'automotive_design', 1998, #69 ) ;
#248 = CIRCLE ( 'NONE', #238, 0.2500000000000002220 ) ;
#249 = DIRECTION ( 'NONE',  ( -0.000000000000000000, -1.000000000000000000, -0.000000000000000000 ) ) ;
#250 = FACE_OUTER_BOUND ( 'NONE', #301, .T. ) ;
#251 = LINE ( 'NONE', #16, #214 ) ;
#252 = CIRCLE ( 'NONE', #55, 0.2500000000000000000 ) ;
#253 = EDGE_CURVE ( 'NONE', #152, #235, #219, .T. ) ;
#254 =( LENGTH_UNIT ( ) NAMED_UNIT ( * ) SI_UNIT ( $, .METRE. ) );
#255 = EDGE_LOOP ( 'NONE', ( #82, #276, #56, #103 ) ) ;
#256 = DIRECTION ( 'NONE',  ( -0.000000000000000000, -1.000000000000000000, -0.000000000000000000 ) ) ;
#257 = ORIENTED_EDGE ( 'NONE', *, *, #135, .F. ) ;
#258 = MECHANICAL_DESIGN_GEOMETRIC_PRESENTATION_REPRESENTATION (  '', ( #268 ), #28 ) ;
#259 = DIRECTION ( 'NONE',  ( 1.000000000000000000, 1.031281515071455676E-16, 0.000000000000000000 ) ) ;
#260 = PRESENTATION_STYLE_ASSIGNMENT (( #223 ) ) ;
#261 = SURFACE_STYLE_USAGE ( .BOTH. , #212 ) ;
#262 = FACE_OUTER_BOUND ( 'NONE', #236, .T. ) ;
#263 = LENGTH_MEASURE_WITH_UNIT ( LENGTH_MEASURE( 0.02539999999999999897 ), #270 );
#264 =( CONVERSION_BASED_UNIT ( 'INCH', #240 ) LENGTH_UNIT ( ) NAMED_UNIT ( #46 ) );
#265 = CARTESIAN_POINT ( 'NONE',  ( 0.2499999999999998890, 6.000000000000000888, 3.061616997868384251E-17 ) ) ;
#266 = EDGE_CURVE ( 'NONE', #274, #226, #35, .T. ) ;
#267 = SURFACE_STYLE_USAGE ( .BOTH. , #164 ) ;
#268 = STYLED_ITEM ( 'NONE', ( #167 ), #209 ) ;
#269 = SURFACE_STYLE_USAGE ( .BOTH. , #26 ) ;
#270 =( LENGTH_UNIT ( ) NAMED_UNIT ( * ) SI_UNIT ( $, .METRE. ) );
#271 = FILL_AREA_STYLE_COLOUR ( '', #195 ) ;
#272 = DIRECTION ( 'NONE',  ( -1.031281515071455799E-16, 1.000000000000000000, -0.000000000000000000 ) ) ;
#273 = SURFACE_STYLE_FILL_AREA ( #171 ) ;
#274 = VERTEX_POINT ( 'NONE', #18 ) ;
#275 = CYLINDRICAL_SURFACE ( 'NONE', #4, 0.2500000000000001110 ) ;
#276 = ORIENTED_EDGE ( 'NONE', *, *, #169, .T. ) ;
#277 = CIRCLE ( 'NONE', #304, 0.2500000000000000000 ) ;
#278 = AXIS2_PLACEMENT_3D ( 'NONE', #111, #86, #188 ) ;
#279 = PRODUCT ( '82523', '82523', '', ( #199 ) ) ;
#280 = CARTESIAN_POINT ( 'NONE',  ( 0.000000000000000000, 0.000000000000000000, 0.000000000000000000 ) ) ;
#281 = PLANE ( 'NONE',  #163 ) ;
#282 = ORIENTED_EDGE ( 'NONE', *, *, #300, .T. ) ;
#283 =( GEOMETRIC_REPRESENTATION_CONTEXT ( 3 ) GLOBAL_UNCERTAINTY_ASSIGNED_CONTEXT ( ( #190 ) ) GLOBAL_UNIT_ASSIGNED_CONTEXT ( ( #284, #108, #160 ) ) REPRESENTATION_CONTEXT ( 'NONE', 'WORKASPACE' ) );
#284 =( CONVERSION_BASED_UNIT ( 'INCH', #183 ) LENGTH_UNIT ( ) NAMED_UNIT ( #62 ) );
#285 = EDGE_CURVE ( 'NONE', #154, #76, #107, .T. ) ;
#286 = PRODUCT_DEFINITION_SHAPE ( 'NONE', 'NONE',  #61 ) ;
#287 = FACE_OUTER_BOUND ( 'NONE', #53, .T. ) ;
#288 =( CONVERSION_BASED_UNIT ( 'INCH', #307 ) LENGTH_UNIT ( ) NAMED_UNIT ( #145 ) );
#289 =( NAMED_UNIT ( * ) PLANE_ANGLE_UNIT ( ) SI_UNIT ( $, .RADIAN. ) );
#290 = DIRECTION ( 'NONE',  ( 0.000000000000000000, 0.000000000000000000, -1.000000000000000000 ) ) ;
#291 = CIRCLE ( 'NONE', #172, 0.2500000000000000000 ) ;
#292 = PRESENTATION_LAYER_ASSIGNMENT (  '', '', ( #198 ) ) ;
#293 = EDGE_CURVE ( 'NONE', #235, #274, #49, .T. ) ;
#294 = CARTESIAN_POINT ( 'NONE',  ( 0.2500000000000000000, 3.625000000000000444, 3.061616997868385483E-17 ) ) ;
#295 = MECHANICAL_DESIGN_GEOMETRIC_PRESENTATION_REPRESENTATION (  '', ( #117 ), #99 ) ;
#296 = ORIENTED_EDGE ( 'NONE', *, *, #44, .F. ) ;
#297 = CARTESIAN_POINT ( 'NONE',  ( 0.2500000000000000000, 6.000000000000000888, 3.061616997868385483E-17 ) ) ;
#298 = CARTESIAN_POINT ( 'NONE',  ( 0.2500000000000000000, 6.000000000000000888, 0.000000000000000000 ) ) ;
#299 = SURFACE_STYLE_USAGE ( .BOTH. , #193 ) ;
#300 = EDGE_CURVE ( 'NONE', #152, #226, #52, .T. ) ;
#301 = EDGE_LOOP ( 'NONE', ( #105, #200 ) ) ;
#302 = DIRECTION ( 'NONE',  ( -1.031281515071455676E-16, 1.000000000000000000, -0.000000000000000000 ) ) ;
#303 = FILL_AREA_STYLE ('',( #87 ) ) ;
#304 = AXIS2_PLACEMENT_3D ( 'NONE', #201, #96, #79 ) ;
#305 = CARTESIAN_POINT ( 'NONE',  ( -2.449293598294707400E-16, 6.000000000000000888, 0.000000000000000000 ) ) ;
#306 = ADVANCED_FACE ( 'NONE', ( #250 ), #123, .T. ) ;
#307 = LENGTH_MEASURE_WITH_UNIT ( LENGTH_MEASURE( 0.02539999999999999897 ), #165 );
#308 = CARTESIAN_POINT ( 'NONE',  ( -2.449293598294707400E-16, 6.000000000000000888, 0.000000000000000000 ) ) ;
#309 = DIRECTION ( 'NONE',  ( 0.000000000000000000, 0.000000000000000000, -1.000000000000000000 ) ) ;
ENDSEC;
END-ISO-10303-21;
