ISO-10303-21;
HEADER;
FILE_DESCRIPTION (( 'STEP AP214' ),
    '1' );
FILE_NAME ('Micro_GEM-125-4X.STEP',
    '2021-09-01T19:39:06',
    ( '' ),
    ( '' ),
    'SwSTEP 2.0',
    'SolidWorks 2020',
    '' );
FILE_SCHEMA (( 'AUTOMOTIVE_DESIGN' ));
ENDSEC;

DATA;
#1 = CIRCLE ( 'NONE', #289, 0.06243749999999999994 ) ;
#2 = DIRECTION ( 'NONE',  ( -1.224646799147353700E-16, -0.0000000000000000000, -1.000000000000000000 ) ) ;
#3 = EDGE_LOOP ( 'NONE', ( #94, #95, #69, #6 ) ) ;
#4 =( CONVERSION_BASED_UNIT ( 'INCH', #208 ) LENGTH_UNIT ( ) NAMED_UNIT ( #234 ) );
#5 = ORIENTED_EDGE ( 'NONE', *, *, #33, .T. ) ;
#6 = ORIENTED_EDGE ( 'NONE', *, *, #295, .F. ) ;
#7 = CARTESIAN_POINT ( 'NONE',  ( 0.0000000000000000000, 0.0000000000000000000, 1.500000000000000222 ) ) ;
#8 = CARTESIAN_POINT ( 'NONE',  ( 0.0000000000000000000, 0.0000000000000000000, 0.0000000000000000000 ) ) ;
#9 = ORIENTED_EDGE ( 'NONE', *, *, #260, .F. ) ;
#10 = DIRECTION ( 'NONE',  ( 1.000000000000000000, 0.0000000000000000000, 0.0000000000000000000 ) ) ;
#11 = CONICAL_SURFACE ( 'NONE', #156, 0.04750000000000064587, 0.7853981633974466137 ) ;
#12 = LINE ( 'NONE', #37, #26 ) ;
#13 = DIRECTION ( 'NONE',  ( 1.000000000000000000, 0.0000000000000000000, 0.0000000000000000000 ) ) ;
#14 = DIRECTION ( 'NONE',  ( 1.000000000000000000, 0.0000000000000000000, -0.0000000000000000000 ) ) ;
#15 = LINE ( 'NONE', #271, #181 ) ;
#16 = EDGE_CURVE ( 'NONE', #187, #141, #118, .T. ) ;
#17 = CYLINDRICAL_SURFACE ( 'NONE', #128, 0.06250000000000002776 ) ;
#18 = DIRECTION ( 'NONE',  ( -1.000000000000000000, 0.0000000000000000000, 0.0000000000000000000 ) ) ;
#19 = ORIENTED_EDGE ( 'NONE', *, *, #33, .F. ) ;
#20 = CARTESIAN_POINT ( 'NONE',  ( 0.04750000000000064587, 5.817072295950006528E-18, 1.500000000000000222 ) ) ;
#21 = FILL_AREA_STYLE_COLOUR ( '', #167 ) ;
#22 = ORIENTED_EDGE ( 'NONE', *, *, #240, .F. ) ;
#23 = APPLICATION_CONTEXT ( 'automotive_design' ) ;
#24 = EDGE_LOOP ( 'NONE', ( #235, #28, #250, #259 ) ) ;
#25 = EDGE_CURVE ( 'NONE', #182, #52, #1, .T. ) ;
#26 = VECTOR ( 'NONE', #122, 39.37007874015748854 ) ;
#27 = CARTESIAN_POINT ( 'NONE',  ( 6.123233995736768501E-17, 0.0000000000000000000, 0.5000000000000000000 ) ) ;
#28 = ORIENTED_EDGE ( 'NONE', *, *, #86, .F. ) ;
#29 = ADVANCED_FACE ( 'NONE', ( #49 ), #138, .T. ) ;
#30 = LINE ( 'NONE', #119, #196 ) ;
#31 = APPLICATION_CONTEXT ( 'automotive_design' ) ;
#32 = CIRCLE ( 'NONE', #120, 0.04750000000000064587 ) ;
#33 = EDGE_CURVE ( 'NONE', #284, #189, #224, .T. ) ;
#34 = FACE_OUTER_BOUND ( 'NONE', #183, .T. ) ;
#35 = DIRECTION ( 'NONE',  ( -1.000000000000000000, 0.0000000000000000000, 0.0000000000000000000 ) ) ;
#36 =( LENGTH_UNIT ( ) NAMED_UNIT ( * ) SI_UNIT ( $, .METRE. ) );
#37 = CARTESIAN_POINT ( 'NONE',  ( -0.06243749999999994443, 7.646388452176287375E-18, 0.5000000000000000000 ) ) ;
#38 = LINE ( 'NONE', #127, #293 ) ;
#39 = DIRECTION ( 'NONE',  ( 1.000000000000000000, 0.0000000000000000000, 0.0000000000000000000 ) ) ;
#40 = CIRCLE ( 'NONE', #106, 0.06250000000000002776 ) ;
#41 = PRODUCT ( 'Micro_GEM-125-4X', 'Micro_GEM-125-4X', '', ( #157 ) ) ;
#42 = CYLINDRICAL_SURFACE ( 'NONE', #276, 0.06243749999999999994 ) ;
#43 = FACE_OUTER_BOUND ( 'NONE', #159, .T. ) ;
#44 =( GEOMETRIC_REPRESENTATION_CONTEXT ( 3 ) GLOBAL_UNCERTAINTY_ASSIGNED_CONTEXT ( ( #204 ) ) GLOBAL_UNIT_ASSIGNED_CONTEXT ( ( #4, #188, #283 ) ) REPRESENTATION_CONTEXT ( 'NONE', 'WORKASPACE' ) );
#45 = EDGE_LOOP ( 'NONE', ( #273, #65, #205, #114 ) ) ;
#46 = UNCERTAINTY_MEASURE_WITH_UNIT (LENGTH_MEASURE( 1.000000000000000082E-05 ), #100, 'distance_accuracy_value', 'NONE');
#47 = SURFACE_SIDE_STYLE ('',( #184 ) ) ;
#48 = ORIENTED_EDGE ( 'NONE', *, *, #131, .F. ) ;
#49 = FACE_OUTER_BOUND ( 'NONE', #85, .T. ) ;
#50 = AXIS2_PLACEMENT_3D ( 'NONE', #63, #296, #133 ) ;
#51 = FACE_OUTER_BOUND ( 'NONE', #68, .T. ) ;
#52 = VERTEX_POINT ( 'NONE', #256 ) ;
#53 = ORIENTED_EDGE ( 'NONE', *, *, #109, .T. ) ;
#54 = AXIS2_PLACEMENT_3D ( 'NONE', #107, #294, #83 ) ;
#55 = DIRECTION ( 'NONE',  ( 1.224646799147353700E-16, 0.0000000000000000000, 1.000000000000000000 ) ) ;
#56 = AXIS2_PLACEMENT_3D ( 'NONE', #101, #55, #147 ) ;
#57 = SURFACE_STYLE_FILL_AREA ( #239 ) ;
#58 = CARTESIAN_POINT ( 'NONE',  ( 0.0000000000000000000, 0.0000000000000000000, 0.0000000000000000000 ) ) ;
#59 = PRODUCT_RELATED_PRODUCT_CATEGORY ( 'part', '', ( #41 ) ) ;
#60 = DIRECTION ( 'NONE',  ( -1.000000000000000000, 0.0000000000000000000, 1.224646799147353947E-16 ) ) ;
#61 = LENGTH_MEASURE_WITH_UNIT ( LENGTH_MEASURE( 0.02539999999999999897 ), #129 );
#62 = VECTOR ( 'NONE', #198, 39.37007874015748854 ) ;
#63 = CARTESIAN_POINT ( 'NONE',  ( 6.123233995736768501E-17, 0.0000000000000000000, 0.5000000000000000000 ) ) ;
#64 =( CONVERSION_BASED_UNIT ( 'INCH', #61 ) LENGTH_UNIT ( ) NAMED_UNIT ( #282 ) );
#65 = ORIENTED_EDGE ( 'NONE', *, *, #206, .T. ) ;
#66 = APPLICATION_PROTOCOL_DEFINITION ( 'draft international standard', 'automotive_design', 1998, #23 ) ;
#67 = COLOUR_RGB ( '',0.7921568627450980005, 0.8196078431372548767, 0.9333333333333333481 ) ;
#68 = EDGE_LOOP ( 'NONE', ( #214, #164, #136, #237 ) ) ;
#69 = ORIENTED_EDGE ( 'NONE', *, *, #131, .T. ) ;
#70 = DIRECTION ( 'NONE',  ( -1.224646799147353700E-16, -0.0000000000000000000, -1.000000000000000000 ) ) ;
#71 = CIRCLE ( 'NONE', #253, 0.06243749999999999994 ) ;
#72 = CARTESIAN_POINT ( 'NONE',  ( 9.364125142994982608E-34, 0.0000000000000000000, 7.646388452176290456E-18 ) ) ;
#73 = ORIENTED_EDGE ( 'NONE', *, *, #125, .T. ) ;
#74 = ADVANCED_FACE ( 'NONE', ( #51 ), #98, .T. ) ;
#75 = AXIS2_PLACEMENT_3D ( 'NONE', #7, #97, #163 ) ;
#76 = DIRECTION ( 'NONE',  ( -1.224646799147353700E-16, -0.0000000000000000000, -1.000000000000000000 ) ) ;
#77 = ADVANCED_BREP_SHAPE_REPRESENTATION ( 'Micro_GEM-125-4X', ( #142, #213 ), #102 ) ;
#78 = CARTESIAN_POINT ( 'NONE',  ( -0.06250000000000002776, 0.0000000000000000000, 1.500000000000000222 ) ) ;
#79 = FILL_AREA_STYLE_COLOUR ( '', #67 ) ;
#80 = EDGE_CURVE ( 'NONE', #182, #189, #30, .T. ) ;
#81 = CARTESIAN_POINT ( 'NONE',  ( 0.0000000000000000000, 0.0000000000000000000, 1.485000000000000764 ) ) ;
#82 = EDGE_CURVE ( 'NONE', #158, #187, #200, .T. ) ;
#83 = DIRECTION ( 'NONE',  ( 1.000000000000000000, 0.0000000000000000000, 0.0000000000000000000 ) ) ;
#84 = DIRECTION ( 'NONE',  ( 0.0000000000000000000, 0.0000000000000000000, 1.000000000000000000 ) ) ;
#85 = EDGE_LOOP ( 'NONE', ( #112, #203, #9, #48 ) ) ;
#86 = EDGE_CURVE ( 'NONE', #52, #182, #71, .T. ) ;
#87 = ADVANCED_FACE ( 'NONE', ( #34 ), #168, .T. ) ;
#88 =( NAMED_UNIT ( * ) PLANE_ANGLE_UNIT ( ) SI_UNIT ( $, .RADIAN. ) );
#89 = PRESENTATION_LAYER_ASSIGNMENT (  '', '', ( #186 ) ) ;
#90 = DIRECTION ( 'NONE',  ( -1.000000000000000000, 0.0000000000000000000, 1.224646799147353947E-16 ) ) ;
#91 = FACE_OUTER_BOUND ( 'NONE', #277, .T. ) ;
#92 =( LENGTH_UNIT ( ) NAMED_UNIT ( * ) SI_UNIT ( $, .METRE. ) );
#93 =( GEOMETRIC_REPRESENTATION_CONTEXT ( 3 ) GLOBAL_UNCERTAINTY_ASSIGNED_CONTEXT ( ( #46 ) ) GLOBAL_UNIT_ASSIGNED_CONTEXT ( ( #100, #287, #241 ) ) REPRESENTATION_CONTEXT ( 'NONE', 'WORKASPACE' ) );
#94 = ORIENTED_EDGE ( 'NONE', *, *, #16, .F. ) ;
#95 = ORIENTED_EDGE ( 'NONE', *, *, #149, .T. ) ;
#96 = ORIENTED_EDGE ( 'NONE', *, *, #192, .T. ) ;
#97 = DIRECTION ( 'NONE',  ( 0.0000000000000000000, 0.0000000000000000000, -1.000000000000000000 ) ) ;
#98 = CONICAL_SURFACE ( 'NONE', #75, 0.04750000000000064587, 0.7853981633974466137 ) ;
#99 = ORIENTED_EDGE ( 'NONE', *, *, #170, .F. ) ;
#100 =( CONVERSION_BASED_UNIT ( 'INCH', #217 ) LENGTH_UNIT ( ) NAMED_UNIT ( #257 ) );
#101 = CARTESIAN_POINT ( 'NONE',  ( 6.123233995736768501E-17, 0.0000000000000000000, 0.5000000000000000000 ) ) ;
#102 =( GEOMETRIC_REPRESENTATION_CONTEXT ( 3 ) GLOBAL_UNCERTAINTY_ASSIGNED_CONTEXT ( ( #229 ) ) GLOBAL_UNIT_ASSIGNED_CONTEXT ( ( #64, #88, #249 ) ) REPRESENTATION_CONTEXT ( 'NONE', 'WORKASPACE' ) );
#103 = CARTESIAN_POINT ( 'NONE',  ( 0.0000000000000000000, 0.0000000000000000000, 1.500000000000000222 ) ) ;
#104 = CARTESIAN_POINT ( 'NONE',  ( -0.06249999999999996531, 0.0000000000000000000, 0.5003544551137262264 ) ) ;
#105 = DIRECTION ( 'NONE',  ( 0.0000000000000000000, 0.0000000000000000000, 1.000000000000000000 ) ) ;
#106 = AXIS2_PLACEMENT_3D ( 'NONE', #262, #216, #10 ) ;
#107 = CARTESIAN_POINT ( 'NONE',  ( 6.127574818941430966E-17, 0.0000000000000000000, 0.5003544551137262264 ) ) ;
#108 = PRODUCT_DEFINITION_SHAPE ( 'NONE', 'NONE',  #269 ) ;
#109 = EDGE_CURVE ( 'NONE', #231, #226, #243, .T. ) ;
#110 = AXIS2_PLACEMENT_3D ( 'NONE', #58, #292, #263 ) ;
#111 = DIRECTION ( 'NONE',  ( -1.224646799147353700E-16, -0.0000000000000000000, -1.000000000000000000 ) ) ;
#112 = ORIENTED_EDGE ( 'NONE', *, *, #82, .T. ) ;
#113 = PRESENTATION_LAYER_ASSIGNMENT (  '', '', ( #298 ) ) ;
#114 = ORIENTED_EDGE ( 'NONE', *, *, #80, .F. ) ;
#115 = DIRECTION ( 'NONE',  ( 1.000000000000000000, 0.0000000000000000000, 0.0000000000000000000 ) ) ;
#116 = DIRECTION ( 'NONE',  ( -0.0000000000000000000, -0.0000000000000000000, -1.000000000000000000 ) ) ;
#117 = ADVANCED_FACE ( 'NONE', ( #193 ), #265, .T. ) ;
#118 = LINE ( 'NONE', #212, #219 ) ;
#119 = CARTESIAN_POINT ( 'NONE',  ( -0.06243749999999999994, 0.0000000000000000000, 7.646388452176290456E-18 ) ) ;
#120 = AXIS2_PLACEMENT_3D ( 'NONE', #223, #84, #197 ) ;
#121 = PRESENTATION_STYLE_ASSIGNMENT (( #267 ) ) ;
#122 = DIRECTION ( 'NONE',  ( -0.1736481776669310251, 2.126576849575781468E-17, 0.9848077530122080203 ) ) ;
#123 = LINE ( 'NONE', #171, #297 ) ;
#124 = VECTOR ( 'NONE', #166, 39.37007874015748143 ) ;
#125 = EDGE_CURVE ( 'NONE', #182, #153, #12, .T. ) ;
#126 = FACE_OUTER_BOUND ( 'NONE', #24, .T. ) ;
#127 = CARTESIAN_POINT ( 'NONE',  ( -0.04750000000000064587, 0.0000000000000000000, 1.500000000000000222 ) ) ;
#128 = AXIS2_PLACEMENT_3D ( 'NONE', #174, #268, #18 ) ;
#129 =( LENGTH_UNIT ( ) NAMED_UNIT ( * ) SI_UNIT ( $, .METRE. ) );
#130 = CARTESIAN_POINT ( 'NONE',  ( -0.06243749999999999994, 0.0000000000000000000, 1.529277690435258091E-17 ) ) ;
#131 = EDGE_CURVE ( 'NONE', #158, #153, #215, .T. ) ;
#132 = MECHANICAL_DESIGN_GEOMETRIC_PRESENTATION_REPRESENTATION (  '', ( #186 ), #44 ) ;
#133 = DIRECTION ( 'NONE',  ( 1.000000000000000000, 0.0000000000000000000, 0.0000000000000000000 ) ) ;
#134 = FILL_AREA_STYLE ('',( #21 ) ) ;
#135 = DIRECTION ( 'NONE',  ( 0.0000000000000000000, 0.0000000000000000000, 1.000000000000000000 ) ) ;
#136 = ORIENTED_EDGE ( 'NONE', *, *, #240, .T. ) ;
#137 = SURFACE_STYLE_USAGE ( .BOTH. , #47 ) ;
#138 = CYLINDRICAL_SURFACE ( 'NONE', #274, 0.06250000000000002776 ) ;
#139 = ADVANCED_FACE ( 'NONE', ( #126 ), #218, .T. ) ;
#140 = ORIENTED_EDGE ( 'NONE', *, *, #80, .T. ) ;
#141 = VERTEX_POINT ( 'NONE', #172 ) ;
#142 = MANIFOLD_SOLID_BREP ( 'Cut-Revolve1', #211 ) ;
#143 = EDGE_LOOP ( 'NONE', ( #179, #96, #155, #22 ) ) ;
#144 = AXIS2_PLACEMENT_3D ( 'NONE', #81, #220, #13 ) ;
#145 = DIRECTION ( 'NONE',  ( -1.000000000000000000, 0.0000000000000000000, 0.0000000000000000000 ) ) ;
#146 = CARTESIAN_POINT ( 'NONE',  ( 0.0000000000000000000, 0.0000000000000000000, 1.500000000000000222 ) ) ;
#147 = DIRECTION ( 'NONE',  ( 1.000000000000000000, 0.0000000000000000000, 0.0000000000000000000 ) ) ;
#148 = CARTESIAN_POINT ( 'NONE',  ( -0.04750000000000064587, 0.0000000000000000000, 1.500000000000000222 ) ) ;
#149 = EDGE_CURVE ( 'NONE', #187, #158, #40, .T. ) ;
#150 = DIRECTION ( 'NONE',  ( -1.224646799147353700E-16, -0.0000000000000000000, -1.000000000000000000 ) ) ;
#151 = AXIS2_PLACEMENT_3D ( 'NONE', #195, #105, #245 ) ;
#152 = CARTESIAN_POINT ( 'NONE',  ( 0.0000000000000000000, 0.0000000000000000000, 0.0000000000000000000 ) ) ;
#153 = VERTEX_POINT ( 'NONE', #104 ) ;
#154 = CARTESIAN_POINT ( 'NONE',  ( 0.0000000000000000000, 0.0000000000000000000, 0.0000000000000000000 ) ) ;
#155 = ORIENTED_EDGE ( 'NONE', *, *, #82, .F. ) ;
#156 = AXIS2_PLACEMENT_3D ( 'NONE', #146, #290, #35 ) ;
#157 = PRODUCT_CONTEXT ( 'NONE', #23, 'mechanical' ) ;
#158 = VERTEX_POINT ( 'NONE', #194 ) ;
#159 = EDGE_LOOP ( 'NONE', ( #252, #280, #140, #19 ) ) ;
#160 = CONICAL_SURFACE ( 'NONE', #50, 0.06243749999999999994, 0.1745329251994337527 ) ;
#161 = DIRECTION ( 'NONE',  ( -1.000000000000000000, 0.0000000000000000000, 1.224646799147353947E-16 ) ) ;
#162 = PRESENTATION_STYLE_ASSIGNMENT (( #137 ) ) ;
#163 = DIRECTION ( 'NONE',  ( -1.000000000000000000, 0.0000000000000000000, 0.0000000000000000000 ) ) ;
#164 = ORIENTED_EDGE ( 'NONE', *, *, #236, .F. ) ;
#165 = ADVANCED_FACE ( 'NONE', ( #288 ), #11, .T. ) ;
#166 = DIRECTION ( 'NONE',  ( -0.0000000000000000000, -0.0000000000000000000, -1.000000000000000000 ) ) ;
#167 = COLOUR_RGB ( '',0.7921568627450980005, 0.8196078431372548767, 0.9333333333333333481 ) ;
#168 = PLANE ( 'NONE',  #191 ) ;
#169 = DIRECTION ( 'NONE',  ( -1.224646799147353700E-16, -0.0000000000000000000, -1.000000000000000000 ) ) ;
#170 = EDGE_CURVE ( 'NONE', #52, #141, #123, .T. ) ;
#171 = CARTESIAN_POINT ( 'NONE',  ( 0.06243750000000006239, 0.0000000000000000000, 0.5000000000000000000 ) ) ;
#172 = CARTESIAN_POINT ( 'NONE',  ( 0.06250000000000008327, 7.654042494670966789E-18, 0.5003544551137262264 ) ) ;
#173 = FACE_OUTER_BOUND ( 'NONE', #3, .T. ) ;
#174 = CARTESIAN_POINT ( 'NONE',  ( 0.0000000000000000000, 0.0000000000000000000, 1.500000000000000222 ) ) ;
#175 = ADVANCED_FACE ( 'NONE', ( #91 ), #160, .T. ) ;
#176 = CARTESIAN_POINT ( 'NONE',  ( -0.06243749999999994443, 7.650215473423623230E-18, 0.5000000000000000000 ) ) ;
#177 = CARTESIAN_POINT ( 'NONE',  ( 6.127574818941430966E-17, 0.0000000000000000000, 0.5003544551137262264 ) ) ;
#178 = ADVANCED_FACE ( 'NONE', ( #275 ), #247, .F. ) ;
#179 = ORIENTED_EDGE ( 'NONE', *, *, #109, .F. ) ;
#180 = LINE ( 'NONE', #20, #62 ) ;
#181 = VECTOR ( 'NONE', #111, 39.37007874015748143 ) ;
#182 = VERTEX_POINT ( 'NONE', #176 ) ;
#183 = EDGE_LOOP ( 'NONE', ( #254, #53 ) ) ;
#184 = SURFACE_STYLE_FILL_AREA ( #134 ) ;
#185 = ORIENTED_EDGE ( 'NONE', *, *, #25, .F. ) ;
#186 = STYLED_ITEM ( 'NONE', ( #162 ), #77 ) ;
#187 = VERTEX_POINT ( 'NONE', #251 ) ;
#188 =( NAMED_UNIT ( * ) PLANE_ANGLE_UNIT ( ) SI_UNIT ( $, .RADIAN. ) );
#189 = VERTEX_POINT ( 'NONE', #130 ) ;
#190 = AXIS2_PLACEMENT_3D ( 'NONE', #72, #70, #161 ) ;
#191 = AXIS2_PLACEMENT_3D ( 'NONE', #103, #264, #14 ) ;
#192 = EDGE_CURVE ( 'NONE', #231, #187, #180, .T. ) ;
#193 = FACE_OUTER_BOUND ( 'NONE', #45, .T. ) ;
#194 = CARTESIAN_POINT ( 'NONE',  ( -0.06250000000000002776, 0.0000000000000000000, 1.485000000000000764 ) ) ;
#195 = CARTESIAN_POINT ( 'NONE',  ( 0.0000000000000000000, 0.0000000000000000000, 1.500000000000000222 ) ) ;
#196 = VECTOR ( 'NONE', #169, 39.37007874015748143 ) ;
#197 = DIRECTION ( 'NONE',  ( 1.000000000000000000, 0.0000000000000000000, 0.0000000000000000000 ) ) ;
#198 = DIRECTION ( 'NONE',  ( 0.7071067811865462405, 8.659560562354916834E-17, -0.7071067811865486830 ) ) ;
#199 = DIRECTION ( 'NONE',  ( -1.224646799147353700E-16, -0.0000000000000000000, -1.000000000000000000 ) ) ;
#200 = CIRCLE ( 'NONE', #144, 0.06250000000000002776 ) ;
#201 = ADVANCED_FACE ( 'NONE', ( #43 ), #42, .T. ) ;
#202 = DIRECTION ( 'NONE',  ( -0.7071067811865462405, 0.0000000000000000000, -0.7071067811865486830 ) ) ;
#203 = ORIENTED_EDGE ( 'NONE', *, *, #16, .T. ) ;
#204 = UNCERTAINTY_MEASURE_WITH_UNIT (LENGTH_MEASURE( 1.000000000000000082E-05 ), #4, 'distance_accuracy_value', 'NONE');
#205 = ORIENTED_EDGE ( 'NONE', *, *, #291, .F. ) ;
#206 = EDGE_CURVE ( 'NONE', #52, #284, #15, .T. ) ;
#207 = AXIS2_PLACEMENT_3D ( 'NONE', #225, #199, #60 ) ;
#208 = LENGTH_MEASURE_WITH_UNIT ( LENGTH_MEASURE( 0.02539999999999999897 ), #92 );
#209 = ORIENTED_EDGE ( 'NONE', *, *, #260, .T. ) ;
#210 = DIRECTION ( 'NONE',  ( -1.224646799147353700E-16, -0.0000000000000000000, -1.000000000000000000 ) ) ;
#211 = CLOSED_SHELL ( 'NONE', ( #117, #175, #165, #29, #286, #87, #74, #139, #201, #178 ) ) ;
#212 = CARTESIAN_POINT ( 'NONE',  ( 0.06250000000000002776, 7.654042494670959086E-18, 1.500000000000000222 ) ) ;
#213 = AXIS2_PLACEMENT_3D ( 'NONE', #8, #135, #115 ) ;
#214 = ORIENTED_EDGE ( 'NONE', *, *, #192, .F. ) ;
#215 = LINE ( 'NONE', #78, #124 ) ;
#216 = DIRECTION ( 'NONE',  ( 0.0000000000000000000, 0.0000000000000000000, -1.000000000000000000 ) ) ;
#217 = LENGTH_MEASURE_WITH_UNIT ( LENGTH_MEASURE( 0.02539999999999999897 ), #36 );
#218 = CONICAL_SURFACE ( 'NONE', #56, 0.06243749999999999994, 0.1745329251994337527 ) ;
#219 = VECTOR ( 'NONE', #278, 39.37007874015748143 ) ;
#220 = DIRECTION ( 'NONE',  ( 0.0000000000000000000, 0.0000000000000000000, -1.000000000000000000 ) ) ;
#221 = DIRECTION ( 'NONE',  ( 0.1736481776669312471, 0.0000000000000000000, 0.9848077530122077983 ) ) ;
#222 = CIRCLE ( 'NONE', #207, 0.06243749999999999994 ) ;
#223 = CARTESIAN_POINT ( 'NONE',  ( 0.0000000000000000000, 0.0000000000000000000, 1.500000000000000222 ) ) ;
#224 = CIRCLE ( 'NONE', #190, 0.06243749999999999994 ) ;
#225 = CARTESIAN_POINT ( 'NONE',  ( 9.364125142994982608E-34, 0.0000000000000000000, 7.646388452176290456E-18 ) ) ;
#226 = VERTEX_POINT ( 'NONE', #148 ) ;
#227 = AXIS2_PLACEMENT_3D ( 'NONE', #177, #150, #39 ) ;
#228 = DIRECTION ( 'NONE',  ( 0.0000000000000000000, 0.0000000000000000000, 1.000000000000000000 ) ) ;
#229 = UNCERTAINTY_MEASURE_WITH_UNIT (LENGTH_MEASURE( 1.000000000000000082E-05 ), #64, 'distance_accuracy_value', 'NONE');
#230 = SHAPE_DEFINITION_REPRESENTATION ( #108, #77 ) ;
#231 = VERTEX_POINT ( 'NONE', #246 ) ;
#232 = CIRCLE ( 'NONE', #227, 0.06250000000000002776 ) ;
#233 = CARTESIAN_POINT ( 'NONE',  ( 0.0000000000000000000, 0.0000000000000000000, 1.500000000000000222 ) ) ;
#234 = DIMENSIONAL_EXPONENTS ( 1.000000000000000000, 0.0000000000000000000, 0.0000000000000000000, 0.0000000000000000000, 0.0000000000000000000, 0.0000000000000000000, 0.0000000000000000000 ) ;
#235 = ORIENTED_EDGE ( 'NONE', *, *, #125, .F. ) ;
#236 = EDGE_CURVE ( 'NONE', #226, #231, #32, .T. ) ;
#237 = ORIENTED_EDGE ( 'NONE', *, *, #149, .F. ) ;
#238 = SURFACE_SIDE_STYLE ('',( #57 ) ) ;
#239 = FILL_AREA_STYLE ('',( #79 ) ) ;
#240 = EDGE_CURVE ( 'NONE', #226, #158, #38, .T. ) ;
#241 =( NAMED_UNIT ( * ) SI_UNIT ( $, .STERADIAN. ) SOLID_ANGLE_UNIT ( ) );
#242 = CARTESIAN_POINT ( 'NONE',  ( 6.123233995736768501E-17, 0.0000000000000000000, 0.5000000000000000000 ) ) ;
#243 = CIRCLE ( 'NONE', #151, 0.04750000000000064587 ) ;
#244 = PRODUCT_DEFINITION_FORMATION_WITH_SPECIFIED_SOURCE ( 'ANY', '', #41, .NOT_KNOWN. ) ;
#245 = DIRECTION ( 'NONE',  ( 1.000000000000000000, 0.0000000000000000000, 0.0000000000000000000 ) ) ;
#246 = CARTESIAN_POINT ( 'NONE',  ( 0.04750000000000064587, 6.735557395310483192E-18, 1.500000000000000222 ) ) ;
#247 = PLANE ( 'NONE',  #281 ) ;
#248 = DIRECTION ( 'NONE',  ( 1.000000000000000000, 0.0000000000000000000, -0.0000000000000000000 ) ) ;
#249 =( NAMED_UNIT ( * ) SI_UNIT ( $, .STERADIAN. ) SOLID_ANGLE_UNIT ( ) );
#250 = ORIENTED_EDGE ( 'NONE', *, *, #170, .T. ) ;
#251 = CARTESIAN_POINT ( 'NONE',  ( 0.06250000000000002776, 7.654042494670959086E-18, 1.485000000000000764 ) ) ;
#252 = ORIENTED_EDGE ( 'NONE', *, *, #206, .F. ) ;
#253 = AXIS2_PLACEMENT_3D ( 'NONE', #242, #76, #145 ) ;
#254 = ORIENTED_EDGE ( 'NONE', *, *, #236, .T. ) ;
#255 = DIRECTION ( 'NONE',  ( -1.000000000000000000, 0.0000000000000000000, 0.0000000000000000000 ) ) ;
#256 = CARTESIAN_POINT ( 'NONE',  ( 0.06243750000000006239, 0.0000000000000000000, 0.5000000000000000000 ) ) ;
#257 = DIMENSIONAL_EXPONENTS ( 1.000000000000000000, 0.0000000000000000000, 0.0000000000000000000, 0.0000000000000000000, 0.0000000000000000000, 0.0000000000000000000, 0.0000000000000000000 ) ;
#258 = DIRECTION ( 'NONE',  ( -1.000000000000000000, 0.0000000000000000000, 0.0000000000000000000 ) ) ;
#259 = ORIENTED_EDGE ( 'NONE', *, *, #295, .T. ) ;
#260 = EDGE_CURVE ( 'NONE', #153, #141, #261, .T. ) ;
#261 = CIRCLE ( 'NONE', #54, 0.06250000000000002776 ) ;
#262 = CARTESIAN_POINT ( 'NONE',  ( 0.0000000000000000000, 0.0000000000000000000, 1.485000000000000764 ) ) ;
#263 = DIRECTION ( 'NONE',  ( -1.000000000000000000, 0.0000000000000000000, 1.224646799147353947E-16 ) ) ;
#264 = DIRECTION ( 'NONE',  ( 0.0000000000000000000, 0.0000000000000000000, 1.000000000000000000 ) ) ;
#265 = CYLINDRICAL_SURFACE ( 'NONE', #110, 0.06243749999999999994 ) ;
#266 = MECHANICAL_DESIGN_GEOMETRIC_PRESENTATION_REPRESENTATION (  '', ( #298 ), #93 ) ;
#267 = SURFACE_STYLE_USAGE ( .BOTH. , #238 ) ;
#268 = DIRECTION ( 'NONE',  ( -0.0000000000000000000, -0.0000000000000000000, -1.000000000000000000 ) ) ;
#269 = PRODUCT_DEFINITION ( 'UNKNOWN', '', #244, #299 ) ;
#270 = EDGE_LOOP ( 'NONE', ( #285, #5 ) ) ;
#271 = CARTESIAN_POINT ( 'NONE',  ( 0.06243749999999999994, 7.646388452176287375E-18, -7.646388452176290456E-18 ) ) ;
#272 = CARTESIAN_POINT ( 'NONE',  ( 0.06243749999999999994, 7.646388452176287375E-18, 0.0000000000000000000 ) ) ;
#273 = ORIENTED_EDGE ( 'NONE', *, *, #25, .T. ) ;
#274 = AXIS2_PLACEMENT_3D ( 'NONE', #233, #116, #258 ) ;
#275 = FACE_OUTER_BOUND ( 'NONE', #270, .T. ) ;
#276 = AXIS2_PLACEMENT_3D ( 'NONE', #152, #2, #90 ) ;
#277 = EDGE_LOOP ( 'NONE', ( #185, #73, #209, #99 ) ) ;
#278 = DIRECTION ( 'NONE',  ( -0.0000000000000000000, -0.0000000000000000000, -1.000000000000000000 ) ) ;
#279 = APPLICATION_PROTOCOL_DEFINITION ( 'draft international standard', 'automotive_design', 1998, #31 ) ;
#280 = ORIENTED_EDGE ( 'NONE', *, *, #86, .T. ) ;
#281 = AXIS2_PLACEMENT_3D ( 'NONE', #154, #228, #248 ) ;
#282 = DIMENSIONAL_EXPONENTS ( 1.000000000000000000, 0.0000000000000000000, 0.0000000000000000000, 0.0000000000000000000, 0.0000000000000000000, 0.0000000000000000000, 0.0000000000000000000 ) ;
#283 =( NAMED_UNIT ( * ) SI_UNIT ( $, .STERADIAN. ) SOLID_ANGLE_UNIT ( ) );
#284 = VERTEX_POINT ( 'NONE', #272 ) ;
#285 = ORIENTED_EDGE ( 'NONE', *, *, #291, .T. ) ;
#286 = ADVANCED_FACE ( 'NONE', ( #173 ), #17, .T. ) ;
#287 =( NAMED_UNIT ( * ) PLANE_ANGLE_UNIT ( ) SI_UNIT ( $, .RADIAN. ) );
#288 = FACE_OUTER_BOUND ( 'NONE', #143, .T. ) ;
#289 = AXIS2_PLACEMENT_3D ( 'NONE', #27, #210, #255 ) ;
#290 = DIRECTION ( 'NONE',  ( 0.0000000000000000000, 0.0000000000000000000, -1.000000000000000000 ) ) ;
#291 = EDGE_CURVE ( 'NONE', #189, #284, #222, .T. ) ;
#292 = DIRECTION ( 'NONE',  ( -1.224646799147353700E-16, -0.0000000000000000000, -1.000000000000000000 ) ) ;
#293 = VECTOR ( 'NONE', #202, 39.37007874015748854 ) ;
#294 = DIRECTION ( 'NONE',  ( -1.224646799147353700E-16, -0.0000000000000000000, -1.000000000000000000 ) ) ;
#295 = EDGE_CURVE ( 'NONE', #141, #153, #232, .T. ) ;
#296 = DIRECTION ( 'NONE',  ( 1.224646799147353700E-16, 0.0000000000000000000, 1.000000000000000000 ) ) ;
#297 = VECTOR ( 'NONE', #221, 39.37007874015748143 ) ;
#298 = STYLED_ITEM ( 'NONE', ( #121 ), #142 ) ;
#299 = PRODUCT_DEFINITION_CONTEXT ( 'detailed design', #31, 'design' ) ;
ENDSEC;
END-ISO-10303-21;
