ISO-10303-21;
HEADER;
FILE_DESCRIPTION (( 'STEP AP214' ),
    '1' );
FILE_NAME ('01705.STEP',
    '2023-06-22T14:44:48',
    ( '' ),
    ( '' ),
    'SwSTEP 2.0',
    'SolidWorks 2023',
    '' );
FILE_SCHEMA (( 'AUTOMOTIVE_DESIGN' ));
ENDSEC;

DATA;
#1 = SURFACE_STYLE_FILL_AREA ( #212 ) ;
#2 = AXIS2_PLACEMENT_3D ( 'NONE', #45, #62, #232 ) ;
#3 = CARTESIAN_POINT ( 'NONE',  ( 4.592425496802575451E-17, 0.000000000000000000, 0.3750000000000000555 ) ) ;
#4 = EDGE_LOOP ( 'NONE', ( #128, #79, #30, #144 ) ) ;
#5 = PRODUCT_DEFINITION_SHAPE ( 'NONE', 'NONE',  #120 ) ;
#6 =( GEOMETRIC_REPRESENTATION_CONTEXT ( 3 ) GLOBAL_UNCERTAINTY_ASSIGNED_CONTEXT ( ( #86 ) ) GLOBAL_UNIT_ASSIGNED_CONTEXT ( ( #152, #15, #103 ) ) REPRESENTATION_CONTEXT ( 'NONE', 'WORKASPACE' ) );
#7 = CIRCLE ( 'NONE', #215, 0.3750000000000000555 ) ;
#8 = UNCERTAINTY_MEASURE_WITH_UNIT (LENGTH_MEASURE( 1.000000000000000082E-05 ), #308, 'distance_accuracy_value', 'NONE');
#9 = DIRECTION ( 'NONE',  ( -2.449293598294704072E-17, 1.000000000000000000, -0.000000000000000000 ) ) ;
#10 = SURFACE_STYLE_FILL_AREA ( #221 ) ;
#11 = VERTEX_POINT ( 'NONE', #3 ) ;
#12 = DIRECTION ( 'NONE',  ( -2.449293598294704072E-17, 1.000000000000000000, -0.000000000000000000 ) ) ;
#13 = DIRECTION ( 'NONE',  ( 0.000000000000000000, 0.000000000000000000, -1.000000000000000000 ) ) ;
#14 = SURFACE_SIDE_STYLE ('',( #10 ) ) ;
#15 =( NAMED_UNIT ( * ) PLANE_ANGLE_UNIT ( ) SI_UNIT ( $, .RADIAN. ) );
#16 = SURFACE_STYLE_FILL_AREA ( #149 ) ;
#17 = DIRECTION ( 'NONE',  ( 0.000000000000000000, 0.000000000000000000, -1.000000000000000000 ) ) ;
#18 =( NAMED_UNIT ( * ) PLANE_ANGLE_UNIT ( ) SI_UNIT ( $, .RADIAN. ) );
#19 =( NAMED_UNIT ( * ) PLANE_ANGLE_UNIT ( ) SI_UNIT ( $, .RADIAN. ) );
#20 = STYLED_ITEM ( 'NONE', ( #96 ), #189 ) ;
#21 = DIRECTION ( 'NONE',  ( 0.000000000000000000, 0.000000000000000000, -1.000000000000000000 ) ) ;
#22 = ADVANCED_FACE ( 'NONE', ( #99 ), #28, .T. ) ;
#23 = FILL_AREA_STYLE_COLOUR ( '', #126 ) ;
#24 = CARTESIAN_POINT ( 'NONE',  ( -6.123233995736759873E-17, 6.500000000000000000, 0.000000000000000000 ) ) ;
#25 = AXIS2_PLACEMENT_3D ( 'NONE', #151, #201, #226 ) ;
#26 = AXIS2_PLACEMENT_3D ( 'NONE', #24, #65, #139 ) ;
#27 = ORIENTED_EDGE ( 'NONE', *, *, #130, .T. ) ;
#28 = CYLINDRICAL_SURFACE ( 'NONE', #286, 0.3750000000000001110 ) ;
#29 = PRESENTATION_STYLE_ASSIGNMENT (( #248 ) ) ;
#30 = ORIENTED_EDGE ( 'NONE', *, *, #195, .F. ) ;
#31 = MECHANICAL_DESIGN_GEOMETRIC_PRESENTATION_REPRESENTATION (  '', ( #166 ), #202 ) ;
#32 = EDGE_CURVE ( 'NONE', #291, #242, #129, .T. ) ;
#33 = CARTESIAN_POINT ( 'NONE',  ( 0.000000000000000000, 4.000000000000000000, 0.000000000000000000 ) ) ;
#34 = PLANE ( 'NONE',  #64 ) ;
#35 =( NAMED_UNIT ( * ) PLANE_ANGLE_UNIT ( ) SI_UNIT ( $, .RADIAN. ) );
#36 = DIMENSIONAL_EXPONENTS ( 1.000000000000000000, 0.000000000000000000, 0.000000000000000000, 0.000000000000000000, 0.000000000000000000, 0.000000000000000000, 0.000000000000000000 ) ;
#37 = MECHANICAL_DESIGN_GEOMETRIC_PRESENTATION_REPRESENTATION (  '', ( #287 ), #47 ) ;
#38 = LENGTH_MEASURE_WITH_UNIT ( LENGTH_MEASURE( 0.02539999999999999897 ), #249 );
#39 = DIRECTION ( 'NONE',  ( 2.449293598294703764E-17, -1.000000000000000000, 0.000000000000000000 ) ) ;
#40 = CARTESIAN_POINT ( 'NONE',  ( -0.3750000000000001665, 6.500000000000000000, 0.000000000000000000 ) ) ;
#41 = SURFACE_SIDE_STYLE ('',( #155 ) ) ;
#42 = APPLICATION_CONTEXT ( 'automotive_design' ) ;
#43 = SURFACE_SIDE_STYLE ('',( #16 ) ) ;
#44 = DIRECTION ( 'NONE',  ( 0.000000000000000000, -1.000000000000000000, -0.000000000000000000 ) ) ;
#45 = CARTESIAN_POINT ( 'NONE',  ( 0.000000000000000000, 0.000000000000000000, 0.000000000000000000 ) ) ;
#46 = VECTOR ( 'NONE', #200, 39.37007874015748143 ) ;
#47 =( GEOMETRIC_REPRESENTATION_CONTEXT ( 3 ) GLOBAL_UNCERTAINTY_ASSIGNED_CONTEXT ( ( #182 ) ) GLOBAL_UNIT_ASSIGNED_CONTEXT ( ( #301, #275, #259 ) ) REPRESENTATION_CONTEXT ( 'NONE', 'WORKASPACE' ) );
#48 = COLOUR_RGB ( '',1.000000000000000000, 0.000000000000000000, 0.000000000000000000 ) ;
#49 = ORIENTED_EDGE ( 'NONE', *, *, #130, .F. ) ;
#50 = ORIENTED_EDGE ( 'NONE', *, *, #52, .F. ) ;
#51 = ORIENTED_EDGE ( 'NONE', *, *, #207, .T. ) ;
#52 = EDGE_CURVE ( 'NONE', #123, #11, #112, .T. ) ;
#53 = LINE ( 'NONE', #55, #302 ) ;
#54 = VECTOR ( 'NONE', #136, 39.37007874015748143 ) ;
#55 = CARTESIAN_POINT ( 'NONE',  ( -0.3750000000000001665, 6.500000000000000000, 0.000000000000000000 ) ) ;
#56 = ORIENTED_EDGE ( 'NONE', *, *, #174, .T. ) ;
#57 = FILL_AREA_STYLE_COLOUR ( '', #95 ) ;
#58 = DIRECTION ( 'NONE',  ( -1.000000000000000000, 0.000000000000000000, 0.000000000000000000 ) ) ;
#59 = DIRECTION ( 'NONE',  ( 0.000000000000000000, 0.000000000000000000, -1.000000000000000000 ) ) ;
#60 =( GEOMETRIC_REPRESENTATION_CONTEXT ( 3 ) GLOBAL_UNCERTAINTY_ASSIGNED_CONTEXT ( ( #159 ) ) GLOBAL_UNIT_ASSIGNED_CONTEXT ( ( #115, #18, #307 ) ) REPRESENTATION_CONTEXT ( 'NONE', 'WORKASPACE' ) );
#61 = DIRECTION ( 'NONE',  ( -1.000000000000000000, 0.000000000000000000, 0.000000000000000000 ) ) ;
#62 = DIRECTION ( 'NONE',  ( -0.000000000000000000, -1.000000000000000000, -0.000000000000000000 ) ) ;
#63 = PRODUCT_RELATED_PRODUCT_CATEGORY ( 'part', '', ( #124 ) ) ;
#64 = AXIS2_PLACEMENT_3D ( 'NONE', #116, #227, #163 ) ;
#65 = DIRECTION ( 'NONE',  ( -2.449293598294704072E-17, 1.000000000000000000, -0.000000000000000000 ) ) ;
#66 = LENGTH_MEASURE_WITH_UNIT ( LENGTH_MEASURE( 0.02539999999999999897 ), #158 );
#67 = APPLICATION_PROTOCOL_DEFINITION ( 'draft international standard', 'automotive_design', 1998, #235 ) ;
#68 =( CONVERSION_BASED_UNIT ( 'INCH', #209 ) LENGTH_UNIT ( ) NAMED_UNIT ( #36 ) );
#69 =( NAMED_UNIT ( * ) SI_UNIT ( $, .STERADIAN. ) SOLID_ANGLE_UNIT ( ) );
#70 = MECHANICAL_DESIGN_GEOMETRIC_PRESENTATION_REPRESENTATION (  '', ( #94 ), #6 ) ;
#71 = SURFACE_STYLE_USAGE ( .BOTH. , #285 ) ;
#72 = ADVANCED_FACE ( 'NONE', ( #135 ), #256, .F. ) ;
#73 = EDGE_LOOP ( 'NONE', ( #246, #27 ) ) ;
#74 = ORIENTED_EDGE ( 'NONE', *, *, #32, .F. ) ;
#75 = VERTEX_POINT ( 'NONE', #304 ) ;
#76 = EDGE_CURVE ( 'NONE', #169, #75, #160, .T. ) ;
#77 = ORIENTED_EDGE ( 'NONE', *, *, #237, .T. ) ;
#78 = CARTESIAN_POINT ( 'NONE',  ( 0.000000000000000000, 0.000000000000000000, -0.3750000000000000555 ) ) ;
#79 = ORIENTED_EDGE ( 'NONE', *, *, #76, .T. ) ;
#80 = FACE_OUTER_BOUND ( 'NONE', #73, .T. ) ;
#81 = FACE_OUTER_BOUND ( 'NONE', #290, .T. ) ;
#82 =( NAMED_UNIT ( * ) PLANE_ANGLE_UNIT ( ) SI_UNIT ( $, .RADIAN. ) );
#83 = DIRECTION ( 'NONE',  ( -1.000000000000000000, 0.000000000000000000, 0.000000000000000000 ) ) ;
#84 = DIRECTION ( 'NONE',  ( -0.000000000000000000, -1.000000000000000000, -0.000000000000000000 ) ) ;
#85 = ADVANCED_FACE ( 'NONE', ( #81 ), #276, .T. ) ;
#86 = UNCERTAINTY_MEASURE_WITH_UNIT (LENGTH_MEASURE( 1.000000000000000082E-05 ), #152, 'distance_accuracy_value', 'NONE');
#87 = CARTESIAN_POINT ( 'NONE',  ( -6.123233995736759873E-17, 6.500000000000000000, 0.000000000000000000 ) ) ;
#88 = DIRECTION ( 'NONE',  ( -1.000000000000000000, 0.000000000000000000, 0.000000000000000000 ) ) ;
#89 = PLANE ( 'NONE',  #223 ) ;
#90 =( NAMED_UNIT ( * ) PLANE_ANGLE_UNIT ( ) SI_UNIT ( $, .RADIAN. ) );
#91 = PRESENTATION_LAYER_ASSIGNMENT (  '', '', ( #166 ) ) ;
#92 = PRODUCT_DEFINITION_CONTEXT ( 'detailed design', #42, 'design' ) ;
#93 = PRESENTATION_STYLE_ASSIGNMENT (( #258 ) ) ;
#94 = STYLED_ITEM ( 'NONE', ( #272 ), #85 ) ;
#95 = COLOUR_RGB ( '',0.7921568627450980005, 0.8196078431372548767, 0.9333333333333333481 ) ;
#96 = PRESENTATION_STYLE_ASSIGNMENT (( #233 ) ) ;
#97 = EDGE_LOOP ( 'NONE', ( #122, #56 ) ) ;
#98 =( LENGTH_UNIT ( ) NAMED_UNIT ( * ) SI_UNIT ( $, .METRE. ) );
#99 = FACE_OUTER_BOUND ( 'NONE', #175, .T. ) ;
#100 = AXIS2_PLACEMENT_3D ( 'NONE', #192, #141, #210 ) ;
#101 = DIRECTION ( 'NONE',  ( -1.000000000000000000, 0.000000000000000000, 0.000000000000000000 ) ) ;
#102 = ORIENTED_EDGE ( 'NONE', *, *, #52, .T. ) ;
#103 =( NAMED_UNIT ( * ) SI_UNIT ( $, .STERADIAN. ) SOLID_ANGLE_UNIT ( ) );
#104 = COLOUR_RGB ( '',1.000000000000000000, 0.000000000000000000, 0.000000000000000000 ) ;
#105 = AXIS2_PLACEMENT_3D ( 'NONE', #206, #119, #283 ) ;
#106 =( NAMED_UNIT ( * ) SI_UNIT ( $, .STERADIAN. ) SOLID_ANGLE_UNIT ( ) );
#107 = DIMENSIONAL_EXPONENTS ( 1.000000000000000000, 0.000000000000000000, 0.000000000000000000, 0.000000000000000000, 0.000000000000000000, 0.000000000000000000, 0.000000000000000000 ) ;
#108 = CARTESIAN_POINT ( 'NONE',  ( 0.000000000000000000, 0.000000000000000000, -0.3750000000000000555 ) ) ;
#109 = CARTESIAN_POINT ( 'NONE',  ( 0.000000000000000000, 0.000000000000000000, 0.000000000000000000 ) ) ;
#110 = LENGTH_MEASURE_WITH_UNIT ( LENGTH_MEASURE( 0.02539999999999999897 ), #173 );
#111 = EDGE_CURVE ( 'NONE', #169, #145, #239, .T. ) ;
#112 = LINE ( 'NONE', #225, #46 ) ;
#113 = DIMENSIONAL_EXPONENTS ( 1.000000000000000000, 0.000000000000000000, 0.000000000000000000, 0.000000000000000000, 0.000000000000000000, 0.000000000000000000, 0.000000000000000000 ) ;
#114 = CARTESIAN_POINT ( 'NONE',  ( 0.3750000000000000555, 4.000000000000000000, 4.592425496802576068E-17 ) ) ;
#115 =( CONVERSION_BASED_UNIT ( 'INCH', #262 ) LENGTH_UNIT ( ) NAMED_UNIT ( #113 ) );
#116 = CARTESIAN_POINT ( 'NONE',  ( 0.000000000000000000, 4.000000000000000000, 0.000000000000000000 ) ) ;
#117 = CIRCLE ( 'NONE', #142, 0.3750000000000000555 ) ;
#118 =( LENGTH_UNIT ( ) NAMED_UNIT ( * ) SI_UNIT ( $, .METRE. ) );
#119 = DIRECTION ( 'NONE',  ( 0.000000000000000000, 0.000000000000000000, 1.000000000000000000 ) ) ;
#120 = PRODUCT_DEFINITION ( 'UNKNOWN', '', #282, #92 ) ;
#121 = CLOSED_SHELL ( 'NONE', ( #85, #255, #183, #189 ) ) ;
#122 = ORIENTED_EDGE ( 'NONE', *, *, #294, .T. ) ;
#123 = VERTEX_POINT ( 'NONE', #220 ) ;
#124 = PRODUCT ( '01705', '01705', '', ( #211 ) ) ;
#125 = CARTESIAN_POINT ( 'NONE',  ( -6.123233995736759873E-17, 6.500000000000000000, 0.000000000000000000 ) ) ;
#126 = COLOUR_RGB ( '',1.000000000000000000, 0.000000000000000000, 0.000000000000000000 ) ;
#127 =( GEOMETRIC_REPRESENTATION_CONTEXT ( 3 ) GLOBAL_UNCERTAINTY_ASSIGNED_CONTEXT ( ( #306 ) ) GLOBAL_UNIT_ASSIGNED_CONTEXT ( ( #297, #82, #236 ) ) REPRESENTATION_CONTEXT ( 'NONE', 'WORKASPACE' ) );
#128 = ORIENTED_EDGE ( 'NONE', *, *, #270, .T. ) ;
#129 = LINE ( 'NONE', #108, #54 ) ;
#130 = EDGE_CURVE ( 'NONE', #75, #170, #179, .T. ) ;
#131 = PLANE ( 'NONE',  #203 ) ;
#132 = CARTESIAN_POINT ( 'NONE',  ( -6.123233995736759873E-17, 6.500000000000000000, 0.000000000000000000 ) ) ;
#133 = FILL_AREA_STYLE ('',( #279 ) ) ;
#134 = EDGE_CURVE ( 'NONE', #123, #291, #117, .T. ) ;
#135 = FACE_OUTER_BOUND ( 'NONE', #217, .T. ) ;
#136 = DIRECTION ( 'NONE',  ( -0.000000000000000000, -1.000000000000000000, -0.000000000000000000 ) ) ;
#137 = MECHANICAL_DESIGN_GEOMETRIC_PRESENTATION_REPRESENTATION (  '', ( #245 ), #143 ) ;
#138 = DIMENSIONAL_EXPONENTS ( 1.000000000000000000, 0.000000000000000000, 0.000000000000000000, 0.000000000000000000, 0.000000000000000000, 0.000000000000000000, 0.000000000000000000 ) ;
#139 = DIRECTION ( 'NONE',  ( -1.000000000000000000, 0.000000000000000000, 0.000000000000000000 ) ) ;
#140 = CIRCLE ( 'NONE', #289, 0.3750000000000000555 ) ;
#141 = DIRECTION ( 'NONE',  ( -0.000000000000000000, -1.000000000000000000, -0.000000000000000000 ) ) ;
#142 = AXIS2_PLACEMENT_3D ( 'NONE', #33, #181, #17 ) ;
#143 =( GEOMETRIC_REPRESENTATION_CONTEXT ( 3 ) GLOBAL_UNCERTAINTY_ASSIGNED_CONTEXT ( ( #150 ) ) GLOBAL_UNIT_ASSIGNED_CONTEXT ( ( #171, #35, #106 ) ) REPRESENTATION_CONTEXT ( 'NONE', 'WORKASPACE' ) );
#144 = ORIENTED_EDGE ( 'NONE', *, *, #237, .F. ) ;
#145 = VERTEX_POINT ( 'NONE', #295 ) ;
#146 = STYLED_ITEM ( 'NONE', ( #247 ), #213 ) ;
#147 = ORIENTED_EDGE ( 'NONE', *, *, #32, .T. ) ;
#148 = ORIENTED_EDGE ( 'NONE', *, *, #76, .F. ) ;
#149 = FILL_AREA_STYLE ('',( #57 ) ) ;
#150 = UNCERTAINTY_MEASURE_WITH_UNIT (LENGTH_MEASURE( 1.000000000000000082E-05 ), #171, 'distance_accuracy_value', 'NONE');
#151 = CARTESIAN_POINT ( 'NONE',  ( 1.124819836996391367E-34, 4.000000000000000000, 0.000000000000000000 ) ) ;
#152 =( CONVERSION_BASED_UNIT ( 'INCH', #38 ) LENGTH_UNIT ( ) NAMED_UNIT ( #204 ) );
#153 = FACE_OUTER_BOUND ( 'NONE', #241, .T. ) ;
#154 = PRESENTATION_LAYER_ASSIGNMENT (  '', '', ( #146 ) ) ;
#155 = SURFACE_STYLE_FILL_AREA ( #133 ) ;
#156 = ADVANCED_BREP_SHAPE_REPRESENTATION ( '01705', ( #213, #216, #105 ), #240 ) ;
#157 = DIRECTION ( 'NONE',  ( -2.449293598294703764E-17, 1.000000000000000000, -0.000000000000000000 ) ) ;
#158 =( LENGTH_UNIT ( ) NAMED_UNIT ( * ) SI_UNIT ( $, .METRE. ) );
#159 = UNCERTAINTY_MEASURE_WITH_UNIT (LENGTH_MEASURE( 1.000000000000000082E-05 ), #115, 'distance_accuracy_value', 'NONE');
#160 = LINE ( 'NONE', #303, #196 ) ;
#161 = MECHANICAL_DESIGN_GEOMETRIC_PRESENTATION_REPRESENTATION (  '', ( #146 ), #127 ) ;
#162 = DIRECTION ( 'NONE',  ( 0.000000000000000000, 0.000000000000000000, -1.000000000000000000 ) ) ;
#163 = DIRECTION ( 'NONE',  ( 0.000000000000000000, -0.000000000000000000, 1.000000000000000000 ) ) ;
#164 = FILL_AREA_STYLE ('',( #281 ) ) ;
#165 = ADVANCED_FACE ( 'NONE', ( #176 ), #252, .T. ) ;
#166 = STYLED_ITEM ( 'NONE', ( #93 ), #183 ) ;
#167 = SURFACE_SIDE_STYLE ('',( #1 ) ) ;
#168 = ORIENTED_EDGE ( 'NONE', *, *, #134, .T. ) ;
#169 = VERTEX_POINT ( 'NONE', #114 ) ;
#170 = VERTEX_POINT ( 'NONE', #40 ) ;
#171 =( CONVERSION_BASED_UNIT ( 'INCH', #214 ) LENGTH_UNIT ( ) NAMED_UNIT ( #299 ) );
#172 = ORIENTED_EDGE ( 'NONE', *, *, #111, .T. ) ;
#173 =( LENGTH_UNIT ( ) NAMED_UNIT ( * ) SI_UNIT ( $, .METRE. ) );
#174 = EDGE_CURVE ( 'NONE', #11, #242, #140, .T. ) ;
#175 = EDGE_LOOP ( 'NONE', ( #148, #172, #77, #49 ) ) ;
#176 = FACE_OUTER_BOUND ( 'NONE', #4, .T. ) ;
#177 = LENGTH_MEASURE_WITH_UNIT ( LENGTH_MEASURE( 0.02539999999999999897 ), #98 );
#178 = SURFACE_STYLE_USAGE ( .BOTH. , #14 ) ;
#179 = CIRCLE ( 'NONE', #250, 0.3750000000000001110 ) ;
#180 = COLOUR_RGB ( '',0.7921568627450980005, 0.8196078431372548767, 0.9333333333333333481 ) ;
#181 = DIRECTION ( 'NONE',  ( -0.000000000000000000, -1.000000000000000000, -0.000000000000000000 ) ) ;
#182 = UNCERTAINTY_MEASURE_WITH_UNIT (LENGTH_MEASURE( 1.000000000000000082E-05 ), #301, 'distance_accuracy_value', 'NONE');
#183 = ADVANCED_FACE ( 'NONE', ( #199 ), #298, .T. ) ;
#184 = CARTESIAN_POINT ( 'NONE',  ( 0.000000000000000000, 0.000000000000000000, 0.000000000000000000 ) ) ;
#185 = AXIS2_PLACEMENT_3D ( 'NONE', #205, #84, #59 ) ;
#186 = CIRCLE ( 'NONE', #2, 0.3750000000000000555 ) ;
#187 = DIRECTION ( 'NONE',  ( -0.000000000000000000, -1.000000000000000000, -0.000000000000000000 ) ) ;
#188 = CARTESIAN_POINT ( 'NONE',  ( 0.000000000000000000, 4.000000000000000000, 0.000000000000000000 ) ) ;
#189 = ADVANCED_FACE ( 'NONE', ( #229 ), #89, .T. ) ;
#190 = SURFACE_STYLE_FILL_AREA ( #284 ) ;
#191 = PRESENTATION_LAYER_ASSIGNMENT (  '', '', ( #287 ) ) ;
#192 = CARTESIAN_POINT ( 'NONE',  ( 0.000000000000000000, 0.000000000000000000, 0.000000000000000000 ) ) ;
#193 = ORIENTED_EDGE ( 'NONE', *, *, #134, .F. ) ;
#194 = CARTESIAN_POINT ( 'NONE',  ( 0.3750000000000000555, 6.500000000000000000, 0.000000000000000000 ) ) ;
#195 = EDGE_CURVE ( 'NONE', #170, #75, #260, .T. ) ;
#196 = VECTOR ( 'NONE', #157, 39.37007874015748143 ) ;
#197 = COLOUR_RGB ( '',1.000000000000000000, 0.000000000000000000, 0.000000000000000000 ) ;
#198 = DIRECTION ( 'NONE',  ( -2.449293598294704072E-17, 1.000000000000000000, -0.000000000000000000 ) ) ;
#199 = FACE_OUTER_BOUND ( 'NONE', #265, .T. ) ;
#200 = DIRECTION ( 'NONE',  ( -0.000000000000000000, -1.000000000000000000, -0.000000000000000000 ) ) ;
#201 = DIRECTION ( 'NONE',  ( -2.449293598294703764E-17, 1.000000000000000000, 0.000000000000000000 ) ) ;
#202 =( GEOMETRIC_REPRESENTATION_CONTEXT ( 3 ) GLOBAL_UNCERTAINTY_ASSIGNED_CONTEXT ( ( #278 ) ) GLOBAL_UNIT_ASSIGNED_CONTEXT ( ( #68, #19, #234 ) ) REPRESENTATION_CONTEXT ( 'NONE', 'WORKASPACE' ) );
#203 = AXIS2_PLACEMENT_3D ( 'NONE', #194, #39, #219 ) ;
#204 = DIMENSIONAL_EXPONENTS ( 1.000000000000000000, 0.000000000000000000, 0.000000000000000000, 0.000000000000000000, 0.000000000000000000, 0.000000000000000000, 0.000000000000000000 ) ;
#205 = CARTESIAN_POINT ( 'NONE',  ( 0.000000000000000000, 0.000000000000000000, 0.000000000000000000 ) ) ;
#206 = CARTESIAN_POINT ( 'NONE',  ( 0.000000000000000000, 0.000000000000000000, 0.000000000000000000 ) ) ;
#207 = EDGE_CURVE ( 'NONE', #291, #123, #228, .T. ) ;
#208 =( LENGTH_UNIT ( ) NAMED_UNIT ( * ) SI_UNIT ( $, .METRE. ) );
#209 = LENGTH_MEASURE_WITH_UNIT ( LENGTH_MEASURE( 0.02539999999999999897 ), #118 );
#210 = DIRECTION ( 'NONE',  ( 0.000000000000000000, 0.000000000000000000, -1.000000000000000000 ) ) ;
#211 = PRODUCT_CONTEXT ( 'NONE', #235, 'mechanical' ) ;
#212 = FILL_AREA_STYLE ('',( #23 ) ) ;
#213 = MANIFOLD_SOLID_BREP ( 'Revolve - Cutting Edge', #121 ) ;
#214 = LENGTH_MEASURE_WITH_UNIT ( LENGTH_MEASURE( 0.02539999999999999897 ), #218 );
#215 = AXIS2_PLACEMENT_3D ( 'NONE', #230, #277, #88 ) ;
#216 = MANIFOLD_SOLID_BREP ( 'Revolve - Tool Body (Straight Shanked)', #292 ) ;
#217 = EDGE_LOOP ( 'NONE', ( #269, #266 ) ) ;
#218 =( LENGTH_UNIT ( ) NAMED_UNIT ( * ) SI_UNIT ( $, .METRE. ) );
#219 = DIRECTION ( 'NONE',  ( 1.000000000000000000, 2.449293598294703764E-17, 0.000000000000000000 ) ) ;
#220 = CARTESIAN_POINT ( 'NONE',  ( 4.592425496802575451E-17, 4.000000000000000000, 0.3750000000000000555 ) ) ;
#221 = FILL_AREA_STYLE ('',( #296 ) ) ;
#222 = AXIS2_PLACEMENT_3D ( 'NONE', #132, #253, #58 ) ;
#223 = AXIS2_PLACEMENT_3D ( 'NONE', #184, #44, #162 ) ;
#224 = DIRECTION ( 'NONE',  ( -0.000000000000000000, -1.000000000000000000, -0.000000000000000000 ) ) ;
#225 = CARTESIAN_POINT ( 'NONE',  ( 4.592425496802575451E-17, 0.000000000000000000, 0.3750000000000000555 ) ) ;
#226 = DIRECTION ( 'NONE',  ( -1.000000000000000000, -2.449293598294703764E-17, 0.000000000000000000 ) ) ;
#227 = DIRECTION ( 'NONE',  ( 0.000000000000000000, 1.000000000000000000, 0.000000000000000000 ) ) ;
#228 = CIRCLE ( 'NONE', #264, 0.3750000000000000555 ) ;
#229 = FACE_OUTER_BOUND ( 'NONE', #97, .T. ) ;
#230 = CARTESIAN_POINT ( 'NONE',  ( 7.582401355855259480E-33, 4.000000000000000000, 0.000000000000000000 ) ) ;
#231 = SURFACE_SIDE_STYLE ('',( #263 ) ) ;
#232 = DIRECTION ( 'NONE',  ( 0.000000000000000000, 0.000000000000000000, -1.000000000000000000 ) ) ;
#233 = SURFACE_STYLE_USAGE ( .BOTH. , #167 ) ;
#234 =( NAMED_UNIT ( * ) SI_UNIT ( $, .STERADIAN. ) SOLID_ANGLE_UNIT ( ) );
#235 = APPLICATION_CONTEXT ( 'automotive_design' ) ;
#236 =( NAMED_UNIT ( * ) SI_UNIT ( $, .STERADIAN. ) SOLID_ANGLE_UNIT ( ) );
#237 = EDGE_CURVE ( 'NONE', #145, #170, #53, .T. ) ;
#238 = ADVANCED_FACE ( 'NONE', ( #80 ), #131, .F. ) ;
#239 = CIRCLE ( 'NONE', #280, 0.3750000000000000555 ) ;
#240 =( GEOMETRIC_REPRESENTATION_CONTEXT ( 3 ) GLOBAL_UNCERTAINTY_ASSIGNED_CONTEXT ( ( #8 ) ) GLOBAL_UNIT_ASSIGNED_CONTEXT ( ( #308, #90, #69 ) ) REPRESENTATION_CONTEXT ( 'NONE', 'WORKASPACE' ) );
#241 = EDGE_LOOP ( 'NONE', ( #288, #193 ) ) ;
#242 = VERTEX_POINT ( 'NONE', #78 ) ;
#243 = ORIENTED_EDGE ( 'NONE', *, *, #174, .F. ) ;
#244 = MECHANICAL_DESIGN_GEOMETRIC_PRESENTATION_REPRESENTATION (  '', ( #20 ), #60 ) ;
#245 = STYLED_ITEM ( 'NONE', ( #29 ), #216 ) ;
#246 = ORIENTED_EDGE ( 'NONE', *, *, #195, .T. ) ;
#247 = PRESENTATION_STYLE_ASSIGNMENT (( #71 ) ) ;
#248 = SURFACE_STYLE_USAGE ( .BOTH. , #43 ) ;
#249 =( LENGTH_UNIT ( ) NAMED_UNIT ( * ) SI_UNIT ( $, .METRE. ) );
#250 = AXIS2_PLACEMENT_3D ( 'NONE', #87, #12, #61 ) ;
#251 = DIMENSIONAL_EXPONENTS ( 1.000000000000000000, 0.000000000000000000, 0.000000000000000000, 0.000000000000000000, 0.000000000000000000, 0.000000000000000000, 0.000000000000000000 ) ;
#252 = CYLINDRICAL_SURFACE ( 'NONE', #222, 0.3750000000000001110 ) ;
#253 = DIRECTION ( 'NONE',  ( -2.449293598294704072E-17, 1.000000000000000000, -0.000000000000000000 ) ) ;
#254 = SHAPE_DEFINITION_REPRESENTATION ( #5, #156 ) ;
#255 = ADVANCED_FACE ( 'NONE', ( #153 ), #34, .T. ) ;
#256 = PLANE ( 'NONE',  #25 ) ;
#257 = PRESENTATION_LAYER_ASSIGNMENT (  '', '', ( #94 ) ) ;
#258 = SURFACE_STYLE_USAGE ( .BOTH. , #231 ) ;
#259 =( NAMED_UNIT ( * ) SI_UNIT ( $, .STERADIAN. ) SOLID_ANGLE_UNIT ( ) );
#260 = CIRCLE ( 'NONE', #26, 0.3750000000000001110 ) ;
#261 = FILL_AREA_STYLE_COLOUR ( '', #180 ) ;
#262 = LENGTH_MEASURE_WITH_UNIT ( LENGTH_MEASURE( 0.02539999999999999897 ), #208 );
#263 = SURFACE_STYLE_FILL_AREA ( #164 ) ;
#264 = AXIS2_PLACEMENT_3D ( 'NONE', #188, #187, #21 ) ;
#265 = EDGE_LOOP ( 'NONE', ( #50, #168, #147, #243 ) ) ;
#266 = ORIENTED_EDGE ( 'NONE', *, *, #111, .F. ) ;
#267 = ORIENTED_EDGE ( 'NONE', *, *, #294, .F. ) ;
#268 = PRESENTATION_LAYER_ASSIGNMENT (  '', '', ( #245 ) ) ;
#269 = ORIENTED_EDGE ( 'NONE', *, *, #270, .F. ) ;
#270 = EDGE_CURVE ( 'NONE', #145, #169, #7, .T. ) ;
#271 = CARTESIAN_POINT ( 'NONE',  ( 7.582401355855259480E-33, 4.000000000000000000, 0.000000000000000000 ) ) ;
#272 = PRESENTATION_STYLE_ASSIGNMENT (( #300 ) ) ;
#273 = PRESENTATION_STYLE_ASSIGNMENT (( #178 ) ) ;
#274 = PRESENTATION_LAYER_ASSIGNMENT (  '', '', ( #20 ) ) ;
#275 =( NAMED_UNIT ( * ) PLANE_ANGLE_UNIT ( ) SI_UNIT ( $, .RADIAN. ) );
#276 = CYLINDRICAL_SURFACE ( 'NONE', #185, 0.3750000000000000555 ) ;
#277 = DIRECTION ( 'NONE',  ( -2.449293598294704072E-17, 1.000000000000000000, -0.000000000000000000 ) ) ;
#278 = UNCERTAINTY_MEASURE_WITH_UNIT (LENGTH_MEASURE( 1.000000000000000082E-05 ), #68, 'distance_accuracy_value', 'NONE');
#279 = FILL_AREA_STYLE_COLOUR ( '', #104 ) ;
#280 = AXIS2_PLACEMENT_3D ( 'NONE', #271, #198, #83 ) ;
#281 = FILL_AREA_STYLE_COLOUR ( '', #48 ) ;
#282 = PRODUCT_DEFINITION_FORMATION_WITH_SPECIFIED_SOURCE ( 'ANY', '', #124, .NOT_KNOWN. ) ;
#283 = DIRECTION ( 'NONE',  ( 1.000000000000000000, 0.000000000000000000, 0.000000000000000000 ) ) ;
#284 = FILL_AREA_STYLE ('',( #261 ) ) ;
#285 = SURFACE_SIDE_STYLE ('',( #190 ) ) ;
#286 = AXIS2_PLACEMENT_3D ( 'NONE', #125, #9, #101 ) ;
#287 = STYLED_ITEM ( 'NONE', ( #273 ), #255 ) ;
#288 = ORIENTED_EDGE ( 'NONE', *, *, #207, .F. ) ;
#289 = AXIS2_PLACEMENT_3D ( 'NONE', #109, #224, #13 ) ;
#290 = EDGE_LOOP ( 'NONE', ( #51, #102, #267, #74 ) ) ;
#291 = VERTEX_POINT ( 'NONE', #305 ) ;
#292 = CLOSED_SHELL ( 'NONE', ( #165, #72, #22, #238 ) ) ;
#293 = DIRECTION ( 'NONE',  ( -2.449293598294703764E-17, 1.000000000000000000, -0.000000000000000000 ) ) ;
#294 = EDGE_CURVE ( 'NONE', #242, #11, #186, .T. ) ;
#295 = CARTESIAN_POINT ( 'NONE',  ( -0.3750000000000000555, 4.000000000000000000, 0.000000000000000000 ) ) ;
#296 = FILL_AREA_STYLE_COLOUR ( '', #197 ) ;
#297 =( CONVERSION_BASED_UNIT ( 'INCH', #177 ) LENGTH_UNIT ( ) NAMED_UNIT ( #251 ) );
#298 = CYLINDRICAL_SURFACE ( 'NONE', #100, 0.3750000000000000555 ) ;
#299 = DIMENSIONAL_EXPONENTS ( 1.000000000000000000, 0.000000000000000000, 0.000000000000000000, 0.000000000000000000, 0.000000000000000000, 0.000000000000000000, 0.000000000000000000 ) ;
#300 = SURFACE_STYLE_USAGE ( .BOTH. , #41 ) ;
#301 =( CONVERSION_BASED_UNIT ( 'INCH', #110 ) LENGTH_UNIT ( ) NAMED_UNIT ( #138 ) );
#302 = VECTOR ( 'NONE', #293, 39.37007874015748143 ) ;
#303 = CARTESIAN_POINT ( 'NONE',  ( 0.3750000000000000555, 6.500000000000000000, 4.592425496802576068E-17 ) ) ;
#304 = CARTESIAN_POINT ( 'NONE',  ( 0.3750000000000000555, 6.500000000000000000, 4.592425496802576068E-17 ) ) ;
#305 = CARTESIAN_POINT ( 'NONE',  ( 0.000000000000000000, 4.000000000000000000, -0.3750000000000000555 ) ) ;
#306 = UNCERTAINTY_MEASURE_WITH_UNIT (LENGTH_MEASURE( 1.000000000000000082E-05 ), #297, 'distance_accuracy_value', 'NONE');
#307 =( NAMED_UNIT ( * ) SI_UNIT ( $, .STERADIAN. ) SOLID_ANGLE_UNIT ( ) );
#308 =( CONVERSION_BASED_UNIT ( 'INCH', #66 ) LENGTH_UNIT ( ) NAMED_UNIT ( #107 ) );
#309 = APPLICATION_PROTOCOL_DEFINITION ( 'draft international standard', 'automotive_design', 1998, #42 ) ;
ENDSEC;
END-ISO-10303-21;
