ISO-10303-21;
HEADER;
FILE_DESCRIPTION (( 'STEP AP214' ),
    '1' );
FILE_NAME ('Micro_GEC-125-2-020X.STEP',
    '2021-09-03T17:06:33',
    ( '' ),
    ( '' ),
    'SwSTEP 2.0',
    'SolidWorks 2020',
    '' );
FILE_SCHEMA (( 'AUTOMOTIVE_DESIGN' ));
ENDSEC;

DATA;
#1 = DIRECTION ( 'NONE',  ( 1.000000000000000000, 0.0000000000000000000, 0.0000000000000000000 ) ) ;
#2 = LINE ( 'NONE', #82, #37 ) ;
#3 = FACE_OUTER_BOUND ( 'NONE', #343, .T. ) ;
#4 = LINE ( 'NONE', #295, #119 ) ;
#5 = MECHANICAL_DESIGN_GEOMETRIC_PRESENTATION_REPRESENTATION (  '', ( #144 ), #286 ) ;
#6 = DIRECTION ( 'NONE',  ( 0.0000000000000000000, 0.0000000000000000000, 1.000000000000000000 ) ) ;
#7 = CIRCLE ( 'NONE', #59, 0.02000000000000000042 ) ;
#8 = FACE_OUTER_BOUND ( 'NONE', #283, .T. ) ;
#9 = CARTESIAN_POINT ( 'NONE',  ( 2.449293598294707539E-18, 0.0000000000000000000, 0.02000000000000000042 ) ) ;
#10 = CARTESIAN_POINT ( 'NONE',  ( -0.06249999999999996531, 0.0000000000000000000, 0.5003544551137261154 ) ) ;
#11 = EDGE_CURVE ( 'NONE', #287, #60, #183, .T. ) ;
#12 = ORIENTED_EDGE ( 'NONE', *, *, #288, .F. ) ;
#13 = CIRCLE ( 'NONE', #181, 0.06243750000000001382 ) ;
#14 = ORIENTED_EDGE ( 'NONE', *, *, #266, .F. ) ;
#15 = EDGE_LOOP ( 'NONE', ( #95, #261 ) ) ;
#16 = EDGE_CURVE ( 'NONE', #208, #125, #237, .T. ) ;
#17 = DIRECTION ( 'NONE',  ( 0.0000000000000000000, 0.0000000000000000000, -1.000000000000000000 ) ) ;
#18 = AXIS2_PLACEMENT_3D ( 'NONE', #325, #241, #251 ) ;
#19 = ADVANCED_FACE ( 'NONE', ( #285 ), #279, .T. ) ;
#20 = ORIENTED_EDGE ( 'NONE', *, *, #142, .T. ) ;
#21 = ORIENTED_EDGE ( 'NONE', *, *, #53, .T. ) ;
#22 = FACE_OUTER_BOUND ( 'NONE', #40, .T. ) ;
#23 = PRESENTATION_STYLE_ASSIGNMENT (( #200 ) ) ;
#24 = DIRECTION ( 'NONE',  ( 1.000000000000000000, 0.0000000000000000000, 0.0000000000000000000 ) ) ;
#25 = AXIS2_PLACEMENT_3D ( 'NONE', #73, #176, #126 ) ;
#26 = CARTESIAN_POINT ( 'NONE',  ( 0.0000000000000000000, 0.0000000000000000000, 1.500000000000000222 ) ) ;
#27 = CARTESIAN_POINT ( 'NONE',  ( 0.0000000000000000000, 0.0000000000000000000, 1.500000000000000222 ) ) ;
#28 = DIRECTION ( 'NONE',  ( 1.000000000000000000, 0.0000000000000000000, 0.0000000000000000000 ) ) ;
#29 = LINE ( 'NONE', #157, #72 ) ;
#30 = DIRECTION ( 'NONE',  ( 1.000000000000000000, 0.0000000000000000000, 0.0000000000000000000 ) ) ;
#31 = DIRECTION ( 'NONE',  ( 0.0000000000000000000, 0.0000000000000000000, -1.000000000000000000 ) ) ;
#32 = DIRECTION ( 'NONE',  ( 1.000000000000000000, 0.0000000000000000000, 0.0000000000000000000 ) ) ;
#33 = ORIENTED_EDGE ( 'NONE', *, *, #240, .F. ) ;
#34 = PRESENTATION_LAYER_ASSIGNMENT (  '', '', ( #144 ) ) ;
#35 = ORIENTED_EDGE ( 'NONE', *, *, #281, .T. ) ;
#36 = ADVANCED_FACE ( 'NONE', ( #341 ), #351, .T. ) ;
#37 = VECTOR ( 'NONE', #134, 39.37007874015748854 ) ;
#38 = VERTEX_POINT ( 'NONE', #201 ) ;
#39 = CIRCLE ( 'NONE', #106, 0.04750000000000064587 ) ;
#40 = EDGE_LOOP ( 'NONE', ( #339, #170, #168, #97 ) ) ;
#41 = CARTESIAN_POINT ( 'NONE',  ( 0.06250000000000002776, 7.654042494670959086E-18, 1.485000000000000764 ) ) ;
#42 = CARTESIAN_POINT ( 'NONE',  ( 0.04243750000000000994, 0.0000000000000000000, 0.02000000000000000042 ) ) ;
#43 =( LENGTH_UNIT ( ) NAMED_UNIT ( * ) SI_UNIT ( $, .METRE. ) );
#44 = EDGE_LOOP ( 'NONE', ( #122, #289, #74, #12 ) ) ;
#45 = CIRCLE ( 'NONE', #55, 0.06250000000000002776 ) ;
#46 = AXIS2_PLACEMENT_3D ( 'NONE', #104, #331, #102 ) ;
#47 = DIRECTION ( 'NONE',  ( 0.0000000000000000000, 0.0000000000000000000, -1.000000000000000000 ) ) ;
#48 = CARTESIAN_POINT ( 'NONE',  ( 0.0000000000000000000, 0.0000000000000000000, 1.485000000000000764 ) ) ;
#49 = CARTESIAN_POINT ( 'NONE',  ( 0.0000000000000000000, 0.0000000000000000000, 1.500000000000000222 ) ) ;
#50 = DIRECTION ( 'NONE',  ( -1.000000000000000000, 0.0000000000000000000, 0.0000000000000000000 ) ) ;
#51 = FACE_OUTER_BOUND ( 'NONE', #15, .T. ) ;
#52 = CARTESIAN_POINT ( 'NONE',  ( 0.06243750000000001382, 7.646388452176288915E-18, 0.02000000000000000042 ) ) ;
#53 = EDGE_CURVE ( 'NONE', #294, #310, #7, .T. ) ;
#54 = DIRECTION ( 'NONE',  ( 1.000000000000000000, 0.0000000000000000000, 0.0000000000000000000 ) ) ;
#55 = AXIS2_PLACEMENT_3D ( 'NONE', #227, #222, #196 ) ;
#56 = ADVANCED_FACE ( 'NONE', ( #70 ), #291, .T. ) ;
#57 = ORIENTED_EDGE ( 'NONE', *, *, #68, .T. ) ;
#58 = PRESENTATION_LAYER_ASSIGNMENT (  '', '', ( #62 ) ) ;
#59 = AXIS2_PLACEMENT_3D ( 'NONE', #42, #148, #17 ) ;
#60 = VERTEX_POINT ( 'NONE', #250 ) ;
#61 = TOROIDAL_SURFACE ( 'NONE', #340, 0.04243750000000000994, 0.02000000000000000042 ) ;
#62 = STYLED_ITEM ( 'NONE', ( #300 ), #296 ) ;
#63 = ADVANCED_FACE ( 'NONE', ( #275 ), #242, .T. ) ;
#64 = AXIS2_PLACEMENT_3D ( 'NONE', #245, #135, #162 ) ;
#65 = ORIENTED_EDGE ( 'NONE', *, *, #311, .F. ) ;
#66 = CLOSED_SHELL ( 'NONE', ( #290, #309, #19, #338, #114, #56, #63, #198, #247, #319, #113, #36 ) ) ;
#67 = APPLICATION_CONTEXT ( 'automotive_design' ) ;
#68 = EDGE_CURVE ( 'NONE', #348, #228, #39, .T. ) ;
#69 = ORIENTED_EDGE ( 'NONE', *, *, #256, .F. ) ;
#70 = FACE_OUTER_BOUND ( 'NONE', #71, .T. ) ;
#71 = EDGE_LOOP ( 'NONE', ( #258, #236, #225, #253 ) ) ;
#72 = VECTOR ( 'NONE', #220, 39.37007874015748854 ) ;
#73 = CARTESIAN_POINT ( 'NONE',  ( 6.127574818941429733E-17, 0.0000000000000000000, 0.5003544551137261154 ) ) ;
#74 = ORIENTED_EDGE ( 'NONE', *, *, #266, .T. ) ;
#75 = CYLINDRICAL_SURFACE ( 'NONE', #18, 0.06243750000000001382 ) ;
#76 = DIRECTION ( 'NONE',  ( 1.000000000000000000, 0.0000000000000000000, -0.0000000000000000000 ) ) ;
#77 = LINE ( 'NONE', #216, #86 ) ;
#78 = VECTOR ( 'NONE', #322, 39.37007874015748143 ) ;
#79 = CARTESIAN_POINT ( 'NONE',  ( 2.449293598294707539E-18, 0.0000000000000000000, 0.02000000000000000042 ) ) ;
#80 = CARTESIAN_POINT ( 'NONE',  ( 0.06250000000000008327, 7.654042494670966789E-18, 0.5003544551137261154 ) ) ;
#81 =( NAMED_UNIT ( * ) PLANE_ANGLE_UNIT ( ) SI_UNIT ( $, .RADIAN. ) );
#82 = CARTESIAN_POINT ( 'NONE',  ( 0.04750000000000064587, 5.817072295950006528E-18, 1.500000000000000222 ) ) ;
#83 = CIRCLE ( 'NONE', #337, 0.06243750000000001382 ) ;
#84 = PRODUCT_DEFINITION_FORMATION_WITH_SPECIFIED_SOURCE ( 'ANY', '', #124, .NOT_KNOWN. ) ;
#85 = ORIENTED_EDGE ( 'NONE', *, *, #158, .F. ) ;
#86 = VECTOR ( 'NONE', #272, 39.37007874015748143 ) ;
#87 = DIRECTION ( 'NONE',  ( -1.224646799147353700E-16, -0.0000000000000000000, -1.000000000000000000 ) ) ;
#88 = CIRCLE ( 'NONE', #226, 0.06243750000000001382 ) ;
#89 = ORIENTED_EDGE ( 'NONE', *, *, #229, .F. ) ;
#90 = EDGE_LOOP ( 'NONE', ( #193, #167, #21, #89 ) ) ;
#91 = SURFACE_SIDE_STYLE ('',( #150 ) ) ;
#92 = DIRECTION ( 'NONE',  ( 1.000000000000000000, 0.0000000000000000000, 0.0000000000000000000 ) ) ;
#93 = CARTESIAN_POINT ( 'NONE',  ( -0.06243750000000001382, 0.0000000000000000000, 7.646388452176291997E-18 ) ) ;
#94 = CARTESIAN_POINT ( 'NONE',  ( 0.06243750000000006933, 0.0000000000000000000, 0.5000000000000000000 ) ) ;
#95 = ORIENTED_EDGE ( 'NONE', *, *, #211, .T. ) ;
#96 = FACE_OUTER_BOUND ( 'NONE', #197, .T. ) ;
#97 = ORIENTED_EDGE ( 'NONE', *, *, #11, .F. ) ;
#98 = AXIS2_PLACEMENT_3D ( 'NONE', #302, #334, #54 ) ;
#99 = DIRECTION ( 'NONE',  ( 0.0000000000000000000, 0.0000000000000000000, 1.000000000000000000 ) ) ;
#100 = PLANE ( 'NONE',  #140 ) ;
#101 =( GEOMETRIC_REPRESENTATION_CONTEXT ( 3 ) GLOBAL_UNCERTAINTY_ASSIGNED_CONTEXT ( ( #187 ) ) GLOBAL_UNIT_ASSIGNED_CONTEXT ( ( #217, #81, #189 ) ) REPRESENTATION_CONTEXT ( 'NONE', 'WORKASPACE' ) );
#102 = DIRECTION ( 'NONE',  ( -1.000000000000000000, 0.0000000000000000000, 0.0000000000000000000 ) ) ;
#103 = CARTESIAN_POINT ( 'NONE',  ( 0.06243750000000006933, 0.0000000000000000000, 0.5000000000000000000 ) ) ;
#104 = CARTESIAN_POINT ( 'NONE',  ( 0.0000000000000000000, 0.0000000000000000000, 1.500000000000000222 ) ) ;
#105 =( CONVERSION_BASED_UNIT ( 'INCH', #213 ) LENGTH_UNIT ( ) NAMED_UNIT ( #252 ) );
#106 = AXIS2_PLACEMENT_3D ( 'NONE', #26, #249, #1 ) ;
#107 = AXIS2_PLACEMENT_3D ( 'NONE', #109, #269, #271 ) ;
#108 = LINE ( 'NONE', #219, #137 ) ;
#109 = CARTESIAN_POINT ( 'NONE',  ( 0.0000000000000000000, 0.0000000000000000000, 0.0000000000000000000 ) ) ;
#110 = DIRECTION ( 'NONE',  ( -0.1736481776669310528, 2.126576849575781776E-17, 0.9848077530122080203 ) ) ;
#111 = PRODUCT_DEFINITION_CONTEXT ( 'detailed design', #117, 'design' ) ;
#112 = LENGTH_MEASURE_WITH_UNIT ( LENGTH_MEASURE( 0.02539999999999999897 ), #180 );
#113 = ADVANCED_FACE ( 'NONE', ( #51 ), #100, .F. ) ;
#114 = ADVANCED_FACE ( 'NONE', ( #3 ), #160, .T. ) ;
#115 = DIRECTION ( 'NONE',  ( 1.224646799147353700E-16, 0.0000000000000000000, 1.000000000000000000 ) ) ;
#116 = EDGE_LOOP ( 'NONE', ( #145, #69, #149, #143 ) ) ;
#117 = APPLICATION_CONTEXT ( 'automotive_design' ) ;
#118 = FILL_AREA_STYLE ('',( #206 ) ) ;
#119 = VECTOR ( 'NONE', #110, 39.37007874015748854 ) ;
#120 = ORIENTED_EDGE ( 'NONE', *, *, #346, .T. ) ;
#121 = LINE ( 'NONE', #94, #234 ) ;
#122 = ORIENTED_EDGE ( 'NONE', *, *, #156, .F. ) ;
#123 = SHAPE_DEFINITION_REPRESENTATION ( #259, #296 ) ;
#124 = PRODUCT ( 'Micro_GEC-125-2-020X', 'Micro_GEC-125-2-020X', '', ( #174 ) ) ;
#125 = VERTEX_POINT ( 'NONE', #212 ) ;
#126 = DIRECTION ( 'NONE',  ( 1.000000000000000000, 0.0000000000000000000, 0.0000000000000000000 ) ) ;
#127 = DIRECTION ( 'NONE',  ( -1.000000000000000000, 0.0000000000000000000, 0.0000000000000000000 ) ) ;
#128 = CONICAL_SURFACE ( 'NONE', #98, 0.06243750000000001382, 0.1745329251994337805 ) ;
#129 = DIRECTION ( 'NONE',  ( 1.000000000000000000, 0.0000000000000000000, -0.0000000000000000000 ) ) ;
#130 = DIRECTION ( 'NONE',  ( -1.000000000000000000, 0.0000000000000000000, 0.0000000000000000000 ) ) ;
#131 = CARTESIAN_POINT ( 'NONE',  ( 0.0000000000000000000, 0.0000000000000000000, 0.0000000000000000000 ) ) ;
#132 = EDGE_CURVE ( 'NONE', #38, #125, #248, .T. ) ;
#133 = DIRECTION ( 'NONE',  ( 0.0000000000000000000, 0.0000000000000000000, -1.000000000000000000 ) ) ;
#134 = DIRECTION ( 'NONE',  ( 0.7071067811865462405, 8.659560562354916834E-17, -0.7071067811865486830 ) ) ;
#135 = DIRECTION ( 'NONE',  ( -0.0000000000000000000, -0.0000000000000000000, -1.000000000000000000 ) ) ;
#136 = FACE_OUTER_BOUND ( 'NONE', #202, .T. ) ;
#137 = VECTOR ( 'NONE', #138, 39.37007874015748143 ) ;
#138 = DIRECTION ( 'NONE',  ( -0.0000000000000000000, -0.0000000000000000000, -1.000000000000000000 ) ) ;
#139 = ORIENTED_EDGE ( 'NONE', *, *, #53, .F. ) ;
#140 = AXIS2_PLACEMENT_3D ( 'NONE', #301, #154, #129 ) ;
#141 = CARTESIAN_POINT ( 'NONE',  ( 6.123233995736768501E-17, 0.0000000000000000000, 0.5000000000000000000 ) ) ;
#142 = EDGE_CURVE ( 'NONE', #315, #310, #77, .T. ) ;
#143 = ORIENTED_EDGE ( 'NONE', *, *, #305, .T. ) ;
#144 = STYLED_ITEM ( 'NONE', ( #23 ), #284 ) ;
#145 = ORIENTED_EDGE ( 'NONE', *, *, #190, .F. ) ;
#146 = EDGE_LOOP ( 'NONE', ( #175, #20, #308, #263 ) ) ;
#147 = AXIS2_PLACEMENT_3D ( 'NONE', #131, #204, #24 ) ;
#148 = DIRECTION ( 'NONE',  ( 0.0000000000000000000, -1.000000000000000000, 0.0000000000000000000 ) ) ;
#149 = ORIENTED_EDGE ( 'NONE', *, *, #288, .T. ) ;
#150 = SURFACE_STYLE_FILL_AREA ( #118 ) ;
#151 = AXIS2_PLACEMENT_3D ( 'NONE', #233, #171, #92 ) ;
#152 = CARTESIAN_POINT ( 'NONE',  ( 0.0000000000000000000, 0.0000000000000000000, 1.485000000000000764 ) ) ;
#153 = CARTESIAN_POINT ( 'NONE',  ( 0.06250000000000002776, 7.654042494670959086E-18, 1.500000000000000222 ) ) ;
#154 = DIRECTION ( 'NONE',  ( 0.0000000000000000000, 0.0000000000000000000, 1.000000000000000000 ) ) ;
#155 = DIRECTION ( 'NONE',  ( 1.000000000000000000, 0.0000000000000000000, 0.0000000000000000000 ) ) ;
#156 = EDGE_CURVE ( 'NONE', #208, #315, #88, .T. ) ;
#157 = CARTESIAN_POINT ( 'NONE',  ( -0.04750000000000064587, 0.0000000000000000000, 1.500000000000000222 ) ) ;
#158 = EDGE_CURVE ( 'NONE', #348, #60, #29, .T. ) ;
#159 = CARTESIAN_POINT ( 'NONE',  ( 2.449293598294707539E-18, 0.0000000000000000000, 0.0000000000000000000 ) ) ;
#160 = CYLINDRICAL_SURFACE ( 'NONE', #46, 0.06250000000000002776 ) ;
#161 =( LENGTH_UNIT ( ) NAMED_UNIT ( * ) SI_UNIT ( $, .METRE. ) );
#162 = DIRECTION ( 'NONE',  ( 1.000000000000000000, 0.0000000000000000000, 0.0000000000000000000 ) ) ;
#163 = CIRCLE ( 'NONE', #207, 0.06243750000000001382 ) ;
#164 = AXIS2_PLACEMENT_3D ( 'NONE', #152, #47, #205 ) ;
#165 = PRODUCT_RELATED_PRODUCT_CATEGORY ( 'part', '', ( #124 ) ) ;
#166 = SURFACE_STYLE_FILL_AREA ( #246 ) ;
#167 = ORIENTED_EDGE ( 'NONE', *, *, #211, .F. ) ;
#168 = ORIENTED_EDGE ( 'NONE', *, *, #158, .T. ) ;
#169 = CIRCLE ( 'NONE', #25, 0.06250000000000002776 ) ;
#170 = ORIENTED_EDGE ( 'NONE', *, *, #68, .F. ) ;
#171 = DIRECTION ( 'NONE',  ( 0.0000000000000000000, 0.0000000000000000000, 1.000000000000000000 ) ) ;
#172 = EDGE_LOOP ( 'NONE', ( #57, #255 ) ) ;
#173 =( NAMED_UNIT ( * ) PLANE_ANGLE_UNIT ( ) SI_UNIT ( $, .RADIAN. ) );
#174 = PRODUCT_CONTEXT ( 'NONE', #67, 'mechanical' ) ;
#175 = ORIENTED_EDGE ( 'NONE', *, *, #156, .T. ) ;
#176 = DIRECTION ( 'NONE',  ( -1.224646799147353700E-16, -0.0000000000000000000, -1.000000000000000000 ) ) ;
#177 = DIRECTION ( 'NONE',  ( 0.0000000000000000000, 0.0000000000000000000, 1.000000000000000000 ) ) ;
#178 =( NAMED_UNIT ( * ) SI_UNIT ( $, .STERADIAN. ) SOLID_ANGLE_UNIT ( ) );
#179 = DIRECTION ( 'NONE',  ( 1.224646799147353207E-16, 1.000000000000000000, -0.0000000000000000000 ) ) ;
#180 =( LENGTH_UNIT ( ) NAMED_UNIT ( * ) SI_UNIT ( $, .METRE. ) );
#181 = AXIS2_PLACEMENT_3D ( 'NONE', #9, #177, #278 ) ;
#182 = DIRECTION ( 'NONE',  ( -1.224646799147353700E-16, -0.0000000000000000000, -1.000000000000000000 ) ) ;
#183 = CIRCLE ( 'NONE', #164, 0.06250000000000002776 ) ;
#184 = SURFACE_STYLE_USAGE ( .BOTH. , #210 ) ;
#185 = DIMENSIONAL_EXPONENTS ( 1.000000000000000000, 0.0000000000000000000, 0.0000000000000000000, 0.0000000000000000000, 0.0000000000000000000, 0.0000000000000000000, 0.0000000000000000000 ) ;
#186 = CARTESIAN_POINT ( 'NONE',  ( -0.06243749999999995137, 7.650215473423624771E-18, 0.5000000000000000000 ) ) ;
#187 = UNCERTAINTY_MEASURE_WITH_UNIT (LENGTH_MEASURE( 1.000000000000000082E-05 ), #217, 'distance_accuracy_value', 'NONE');
#188 = FACE_OUTER_BOUND ( 'NONE', #116, .T. ) ;
#189 =( NAMED_UNIT ( * ) SI_UNIT ( $, .STERADIAN. ) SOLID_ANGLE_UNIT ( ) );
#190 = EDGE_CURVE ( 'NONE', #208, #280, #4, .T. ) ;
#191 = AXIS2_PLACEMENT_3D ( 'NONE', #267, #268, #76 ) ;
#192 = EDGE_CURVE ( 'NONE', #60, #287, #344, .T. ) ;
#193 = ORIENTED_EDGE ( 'NONE', *, *, #132, .F. ) ;
#194 = ORIENTED_EDGE ( 'NONE', *, *, #229, .T. ) ;
#195 = AXIS2_PLACEMENT_3D ( 'NONE', #297, #133, #127 ) ;
#196 = DIRECTION ( 'NONE',  ( 1.000000000000000000, 0.0000000000000000000, 0.0000000000000000000 ) ) ;
#197 = EDGE_LOOP ( 'NONE', ( #65, #199, #230, #139 ) ) ;
#198 = ADVANCED_FACE ( 'NONE', ( #22 ), #238, .T. ) ;
#199 = ORIENTED_EDGE ( 'NONE', *, *, #132, .T. ) ;
#200 = SURFACE_STYLE_USAGE ( .BOTH. , #91 ) ;
#201 = CARTESIAN_POINT ( 'NONE',  ( -0.04243750000000000994, 6.421741653028935338E-18, 0.0000000000000000000 ) ) ;
#202 = EDGE_LOOP ( 'NONE', ( #235, #312, #265, #194 ) ) ;
#203 = CARTESIAN_POINT ( 'NONE',  ( 2.449293598294707539E-18, 0.0000000000000000000, 0.02000000000000000042 ) ) ;
#204 = DIRECTION ( 'NONE',  ( 0.0000000000000000000, 0.0000000000000000000, 1.000000000000000000 ) ) ;
#205 = DIRECTION ( 'NONE',  ( 1.000000000000000000, 0.0000000000000000000, 0.0000000000000000000 ) ) ;
#206 = FILL_AREA_STYLE_COLOUR ( '', #293 ) ;
#207 = AXIS2_PLACEMENT_3D ( 'NONE', #141, #87, #304 ) ;
#208 = VERTEX_POINT ( 'NONE', #186 ) ;
#209 = CARTESIAN_POINT ( 'NONE',  ( 6.123233995736768501E-17, 0.0000000000000000000, 0.5000000000000000000 ) ) ;
#210 = SURFACE_SIDE_STYLE ('',( #166 ) ) ;
#211 = EDGE_CURVE ( 'NONE', #294, #38, #321, .T. ) ;
#212 = CARTESIAN_POINT ( 'NONE',  ( -0.06243749999999999994, 0.0000000000000000000, 0.02000000000000000042 ) ) ;
#213 = LENGTH_MEASURE_WITH_UNIT ( LENGTH_MEASURE( 0.02539999999999999897 ), #161 );
#214 = DIMENSIONAL_EXPONENTS ( 1.000000000000000000, 0.0000000000000000000, 0.0000000000000000000, 0.0000000000000000000, 0.0000000000000000000, 0.0000000000000000000, 0.0000000000000000000 ) ;
#215 = CIRCLE ( 'NONE', #223, 0.04243750000000000994 ) ;
#216 = CARTESIAN_POINT ( 'NONE',  ( 0.06243750000000001382, 7.646388452176288915E-18, -7.646388452176291997E-18 ) ) ;
#217 =( CONVERSION_BASED_UNIT ( 'INCH', #112 ) LENGTH_UNIT ( ) NAMED_UNIT ( #214 ) );
#218 = VECTOR ( 'NONE', #342, 39.37007874015748143 ) ;
#219 = CARTESIAN_POINT ( 'NONE',  ( -0.06250000000000002776, 0.0000000000000000000, 1.500000000000000222 ) ) ;
#220 = DIRECTION ( 'NONE',  ( -0.7071067811865462405, 0.0000000000000000000, -0.7071067811865486830 ) ) ;
#221 = DIRECTION ( 'NONE',  ( -0.0000000000000000000, -0.0000000000000000000, -1.000000000000000000 ) ) ;
#222 = DIRECTION ( 'NONE',  ( -1.224646799147353700E-16, -0.0000000000000000000, -1.000000000000000000 ) ) ;
#223 = AXIS2_PLACEMENT_3D ( 'NONE', #159, #221, #155 ) ;
#224 = VERTEX_POINT ( 'NONE', #80 ) ;
#225 = ORIENTED_EDGE ( 'NONE', *, *, #240, .T. ) ;
#226 = AXIS2_PLACEMENT_3D ( 'NONE', #209, #182, #50 ) ;
#227 = CARTESIAN_POINT ( 'NONE',  ( 6.127574818941429733E-17, 0.0000000000000000000, 0.5003544551137261154 ) ) ;
#228 = VERTEX_POINT ( 'NONE', #329 ) ;
#229 = EDGE_CURVE ( 'NONE', #125, #310, #83, .T. ) ;
#230 = ORIENTED_EDGE ( 'NONE', *, *, #254, .F. ) ;
#231 =( CONVERSION_BASED_UNIT ( 'INCH', #264 ) LENGTH_UNIT ( ) NAMED_UNIT ( #185 ) );
#232 = LINE ( 'NONE', #153, #218 ) ;
#233 = CARTESIAN_POINT ( 'NONE',  ( 2.449293598294707539E-18, 0.0000000000000000000, 0.02000000000000000042 ) ) ;
#234 = VECTOR ( 'NONE', #350, 39.37007874015748143 ) ;
#235 = ORIENTED_EDGE ( 'NONE', *, *, #142, .F. ) ;
#236 = ORIENTED_EDGE ( 'NONE', *, *, #11, .T. ) ;
#237 = LINE ( 'NONE', #93, #78 ) ;
#238 = CONICAL_SURFACE ( 'NONE', #195, 0.04750000000000064587, 0.7853981633974466137 ) ;
#239 = DIRECTION ( 'NONE',  ( -0.0000000000000000000, -0.0000000000000000000, -1.000000000000000000 ) ) ;
#240 = EDGE_CURVE ( 'NONE', #60, #280, #108, .T. ) ;
#241 = DIRECTION ( 'NONE',  ( -1.224646799147353700E-16, -0.0000000000000000000, -1.000000000000000000 ) ) ;
#242 = PLANE ( 'NONE',  #191 ) ;
#243 = CARTESIAN_POINT ( 'NONE',  ( -0.04750000000000064587, 0.0000000000000000000, 1.500000000000000222 ) ) ;
#244 = APPLICATION_PROTOCOL_DEFINITION ( 'draft international standard', 'automotive_design', 1998, #117 ) ;
#245 = CARTESIAN_POINT ( 'NONE',  ( 2.449293598294707539E-18, 0.0000000000000000000, 0.0000000000000000000 ) ) ;
#246 = FILL_AREA_STYLE ('',( #332 ) ) ;
#247 = ADVANCED_FACE ( 'NONE', ( #188 ), #128, .T. ) ;
#248 = CIRCLE ( 'NONE', #303, 0.02000000000000000042 ) ;
#249 = DIRECTION ( 'NONE',  ( 0.0000000000000000000, 0.0000000000000000000, 1.000000000000000000 ) ) ;
#250 = CARTESIAN_POINT ( 'NONE',  ( -0.06250000000000002776, 0.0000000000000000000, 1.485000000000000764 ) ) ;
#251 = DIRECTION ( 'NONE',  ( -1.000000000000000000, 0.0000000000000000000, 1.224646799147353700E-16 ) ) ;
#252 = DIMENSIONAL_EXPONENTS ( 1.000000000000000000, 0.0000000000000000000, 0.0000000000000000000, 0.0000000000000000000, 0.0000000000000000000, 0.0000000000000000000, 0.0000000000000000000 ) ;
#253 = ORIENTED_EDGE ( 'NONE', *, *, #305, .F. ) ;
#254 = EDGE_CURVE ( 'NONE', #310, #125, #13, .T. ) ;
#255 = ORIENTED_EDGE ( 'NONE', *, *, #277, .T. ) ;
#256 = EDGE_CURVE ( 'NONE', #315, #208, #163, .T. ) ;
#257 = CIRCLE ( 'NONE', #328, 0.04750000000000064587 ) ;
#258 = ORIENTED_EDGE ( 'NONE', *, *, #281, .F. ) ;
#259 = PRODUCT_DEFINITION_SHAPE ( 'NONE', 'NONE',  #313 ) ;
#260 = DIRECTION ( 'NONE',  ( 1.000000000000000000, 0.0000000000000000000, 0.0000000000000000000 ) ) ;
#261 = ORIENTED_EDGE ( 'NONE', *, *, #311, .T. ) ;
#262 = AXIS2_PLACEMENT_3D ( 'NONE', #49, #239, #324 ) ;
#263 = ORIENTED_EDGE ( 'NONE', *, *, #16, .F. ) ;
#264 = LENGTH_MEASURE_WITH_UNIT ( LENGTH_MEASURE( 0.02539999999999999897 ), #43 );
#265 = ORIENTED_EDGE ( 'NONE', *, *, #16, .T. ) ;
#266 = EDGE_CURVE ( 'NONE', #280, #224, #45, .T. ) ;
#267 = CARTESIAN_POINT ( 'NONE',  ( 0.0000000000000000000, 0.0000000000000000000, 1.500000000000000222 ) ) ;
#268 = DIRECTION ( 'NONE',  ( 0.0000000000000000000, 0.0000000000000000000, 1.000000000000000000 ) ) ;
#269 = DIRECTION ( 'NONE',  ( -1.224646799147353700E-16, -0.0000000000000000000, -1.000000000000000000 ) ) ;
#270 = DIRECTION ( 'NONE',  ( 0.0000000000000000000, 0.0000000000000000000, -1.000000000000000000 ) ) ;
#271 = DIRECTION ( 'NONE',  ( -1.000000000000000000, 0.0000000000000000000, 1.224646799147353700E-16 ) ) ;
#272 = DIRECTION ( 'NONE',  ( -1.224646799147353700E-16, -0.0000000000000000000, -1.000000000000000000 ) ) ;
#273 =( NAMED_UNIT ( * ) SI_UNIT ( $, .STERADIAN. ) SOLID_ANGLE_UNIT ( ) );
#274 = AXIS2_PLACEMENT_3D ( 'NONE', #314, #115, #260 ) ;
#275 = FACE_OUTER_BOUND ( 'NONE', #172, .T. ) ;
#276 = DIRECTION ( 'NONE',  ( 0.0000000000000000000, 0.0000000000000000000, 1.000000000000000000 ) ) ;
#277 = EDGE_CURVE ( 'NONE', #228, #348, #257, .T. ) ;
#278 = DIRECTION ( 'NONE',  ( 1.000000000000000000, 0.0000000000000000000, 0.0000000000000000000 ) ) ;
#279 = CONICAL_SURFACE ( 'NONE', #274, 0.06243750000000001382, 0.1745329251994337805 ) ;
#280 = VERTEX_POINT ( 'NONE', #10 ) ;
#281 = EDGE_CURVE ( 'NONE', #287, #224, #232, .T. ) ;
#282 = CARTESIAN_POINT ( 'NONE',  ( 0.0000000000000000000, 0.0000000000000000000, 1.500000000000000222 ) ) ;
#283 = EDGE_LOOP ( 'NONE', ( #318, #120, #349, #85 ) ) ;
#284 = MANIFOLD_SOLID_BREP ( 'Fillet1', #66 ) ;
#285 = FACE_OUTER_BOUND ( 'NONE', #44, .T. ) ;
#286 =( GEOMETRIC_REPRESENTATION_CONTEXT ( 3 ) GLOBAL_UNCERTAINTY_ASSIGNED_CONTEXT ( ( #335 ) ) GLOBAL_UNIT_ASSIGNED_CONTEXT ( ( #231, #173, #178 ) ) REPRESENTATION_CONTEXT ( 'NONE', 'WORKASPACE' ) );
#287 = VERTEX_POINT ( 'NONE', #41 ) ;
#288 = EDGE_CURVE ( 'NONE', #315, #224, #121, .T. ) ;
#289 = ORIENTED_EDGE ( 'NONE', *, *, #190, .T. ) ;
#290 = ADVANCED_FACE ( 'NONE', ( #96 ), #61, .T. ) ;
#291 = CYLINDRICAL_SURFACE ( 'NONE', #262, 0.06250000000000002776 ) ;
#292 = AXIS2_PLACEMENT_3D ( 'NONE', #48, #270, #28 ) ;
#293 = COLOUR_RGB ( '',0.7921568627450980005, 0.8196078431372548767, 0.9333333333333333481 ) ;
#294 = VERTEX_POINT ( 'NONE', #320 ) ;
#295 = CARTESIAN_POINT ( 'NONE',  ( -0.06243749999999995137, 7.646388452176288915E-18, 0.5000000000000000000 ) ) ;
#296 = ADVANCED_BREP_SHAPE_REPRESENTATION ( 'Micro_GEC-125-2-020X', ( #284, #147 ), #347 ) ;
#297 = CARTESIAN_POINT ( 'NONE',  ( 0.0000000000000000000, 0.0000000000000000000, 1.500000000000000222 ) ) ;
#298 =( NAMED_UNIT ( * ) PLANE_ANGLE_UNIT ( ) SI_UNIT ( $, .RADIAN. ) );
#299 = CARTESIAN_POINT ( 'NONE',  ( -0.04243750000000000994, 5.197094853881581761E-18, 0.02000000000000000042 ) ) ;
#300 = PRESENTATION_STYLE_ASSIGNMENT (( #184 ) ) ;
#301 = CARTESIAN_POINT ( 'NONE',  ( 0.0000000000000000000, 0.0000000000000000000, 0.0000000000000000000 ) ) ;
#302 = CARTESIAN_POINT ( 'NONE',  ( 6.123233995736768501E-17, 0.0000000000000000000, 0.5000000000000000000 ) ) ;
#303 = AXIS2_PLACEMENT_3D ( 'NONE', #299, #179, #327 ) ;
#304 = DIRECTION ( 'NONE',  ( -1.000000000000000000, 0.0000000000000000000, 0.0000000000000000000 ) ) ;
#305 = EDGE_CURVE ( 'NONE', #224, #280, #169, .T. ) ;
#306 = AXIS2_PLACEMENT_3D ( 'NONE', #27, #31, #130 ) ;
#307 = COLOUR_RGB ( '',0.7921568627450980005, 0.8196078431372548767, 0.9333333333333333481 ) ;
#308 = ORIENTED_EDGE ( 'NONE', *, *, #254, .T. ) ;
#309 = ADVANCED_FACE ( 'NONE', ( #323 ), #75, .T. ) ;
#310 = VERTEX_POINT ( 'NONE', #52 ) ;
#311 = EDGE_CURVE ( 'NONE', #38, #294, #215, .T. ) ;
#312 = ORIENTED_EDGE ( 'NONE', *, *, #256, .T. ) ;
#313 = PRODUCT_DEFINITION ( 'UNKNOWN', '', #84, #111 ) ;
#314 = CARTESIAN_POINT ( 'NONE',  ( 6.123233995736768501E-17, 0.0000000000000000000, 0.5000000000000000000 ) ) ;
#315 = VERTEX_POINT ( 'NONE', #103 ) ;
#316 = DIRECTION ( 'NONE',  ( 1.000000000000000000, 0.0000000000000000000, 0.0000000000000000000 ) ) ;
#317 = APPLICATION_PROTOCOL_DEFINITION ( 'draft international standard', 'automotive_design', 1998, #67 ) ;
#318 = ORIENTED_EDGE ( 'NONE', *, *, #277, .F. ) ;
#319 = ADVANCED_FACE ( 'NONE', ( #136 ), #336, .T. ) ;
#320 = CARTESIAN_POINT ( 'NONE',  ( 0.04243750000000000994, 0.0000000000000000000, 0.0000000000000000000 ) ) ;
#321 = CIRCLE ( 'NONE', #64, 0.04243750000000000994 ) ;
#322 = DIRECTION ( 'NONE',  ( -1.224646799147353700E-16, -0.0000000000000000000, -1.000000000000000000 ) ) ;
#323 = FACE_OUTER_BOUND ( 'NONE', #146, .T. ) ;
#324 = DIRECTION ( 'NONE',  ( -1.000000000000000000, 0.0000000000000000000, 0.0000000000000000000 ) ) ;
#325 = CARTESIAN_POINT ( 'NONE',  ( 0.0000000000000000000, 0.0000000000000000000, 0.0000000000000000000 ) ) ;
#326 = CONICAL_SURFACE ( 'NONE', #306, 0.04750000000000064587, 0.7853981633974466137 ) ;
#327 = DIRECTION ( 'NONE',  ( -1.000000000000000000, 1.224646799147353454E-16, 0.0000000000000000000 ) ) ;
#328 = AXIS2_PLACEMENT_3D ( 'NONE', #282, #276, #32 ) ;
#329 = CARTESIAN_POINT ( 'NONE',  ( 0.04750000000000064587, 6.735557395310483192E-18, 1.500000000000000222 ) ) ;
#330 = UNCERTAINTY_MEASURE_WITH_UNIT (LENGTH_MEASURE( 1.000000000000000082E-05 ), #105, 'distance_accuracy_value', 'NONE');
#331 = DIRECTION ( 'NONE',  ( -0.0000000000000000000, -0.0000000000000000000, -1.000000000000000000 ) ) ;
#332 = FILL_AREA_STYLE_COLOUR ( '', #307 ) ;
#333 = MECHANICAL_DESIGN_GEOMETRIC_PRESENTATION_REPRESENTATION (  '', ( #62 ), #101 ) ;
#334 = DIRECTION ( 'NONE',  ( 1.224646799147353700E-16, 0.0000000000000000000, 1.000000000000000000 ) ) ;
#335 = UNCERTAINTY_MEASURE_WITH_UNIT (LENGTH_MEASURE( 1.000000000000000082E-05 ), #231, 'distance_accuracy_value', 'NONE');
#336 = CYLINDRICAL_SURFACE ( 'NONE', #107, 0.06243750000000001382 ) ;
#337 = AXIS2_PLACEMENT_3D ( 'NONE', #79, #6, #30 ) ;
#338 = ADVANCED_FACE ( 'NONE', ( #8 ), #326, .T. ) ;
#339 = ORIENTED_EDGE ( 'NONE', *, *, #346, .F. ) ;
#340 = AXIS2_PLACEMENT_3D ( 'NONE', #203, #99, #316 ) ;
#341 = FACE_OUTER_BOUND ( 'NONE', #90, .T. ) ;
#342 = DIRECTION ( 'NONE',  ( -0.0000000000000000000, -0.0000000000000000000, -1.000000000000000000 ) ) ;
#343 = EDGE_LOOP ( 'NONE', ( #345, #35, #14, #33 ) ) ;
#344 = CIRCLE ( 'NONE', #292, 0.06250000000000002776 ) ;
#345 = ORIENTED_EDGE ( 'NONE', *, *, #192, .T. ) ;
#346 = EDGE_CURVE ( 'NONE', #228, #287, #2, .T. ) ;
#347 =( GEOMETRIC_REPRESENTATION_CONTEXT ( 3 ) GLOBAL_UNCERTAINTY_ASSIGNED_CONTEXT ( ( #330 ) ) GLOBAL_UNIT_ASSIGNED_CONTEXT ( ( #105, #298, #273 ) ) REPRESENTATION_CONTEXT ( 'NONE', 'WORKASPACE' ) );
#348 = VERTEX_POINT ( 'NONE', #243 ) ;
#349 = ORIENTED_EDGE ( 'NONE', *, *, #192, .F. ) ;
#350 = DIRECTION ( 'NONE',  ( 0.1736481776669312749, 0.0000000000000000000, 0.9848077530122077983 ) ) ;
#351 = TOROIDAL_SURFACE ( 'NONE', #151, 0.04243750000000000994, 0.02000000000000000042 ) ;
ENDSEC;
END-ISO-10303-21;
