ISO-10303-21;
HEADER;
FILE_DESCRIPTION (( 'STEP AP214' ),
    '1' );
FILE_NAME ('Micro_BMS-015-2.STEP',
    '2021-09-03T14:49:17',
    ( '' ),
    ( '' ),
    'SwSTEP 2.0',
    'SolidWorks 2020',
    '' );
FILE_SCHEMA (( 'AUTOMOTIVE_DESIGN' ));
ENDSEC;

DATA;
#1 = ORIENTED_EDGE ( 'NONE', *, *, #323, .T. ) ;
#2 = DIRECTION ( 'NONE',  ( 0.1736481776669313581, 0.0000000000000000000, 0.9848077530122077983 ) ) ;
#3 = AXIS2_PLACEMENT_3D ( 'NONE', #202, #260, #307 ) ;
#4 = CYLINDRICAL_SURFACE ( 'NONE', #3, 0.007492500000000000028 ) ;
#5 = EDGE_LOOP ( 'NONE', ( #152, #312, #308 ) ) ;
#6 = DIRECTION ( 'NONE',  ( -1.000000000000000000, 0.0000000000000000000, 1.424261758458595593E-16 ) ) ;
#7 = ORIENTED_EDGE ( 'NONE', *, *, #198, .F. ) ;
#8 = FILL_AREA_STYLE ('',( #310 ) ) ;
#9 = DIRECTION ( 'NONE',  ( 1.224646799147353454E-16, 0.0000000000000000000, 1.000000000000000000 ) ) ;
#10 = EDGE_CURVE ( 'NONE', #299, #21, #174, .T. ) ;
#11 = STYLED_ITEM ( 'NONE', ( #203 ), #33 ) ;
#12 = STYLED_ITEM ( 'NONE', ( #261 ), #76 ) ;
#13 = FACE_OUTER_BOUND ( 'NONE', #178, .T. ) ;
#14 = FACE_OUTER_BOUND ( 'NONE', #254, .T. ) ;
#15 = CARTESIAN_POINT ( 'NONE',  ( -0.007492499999999999161, 0.0000000000000000000, 0.007492500000000001763 ) ) ;
#16 = DIRECTION ( 'NONE',  ( -1.000000000000000000, 0.0000000000000000000, 0.0000000000000000000 ) ) ;
#17 = AXIS2_PLACEMENT_3D ( 'NONE', #211, #125, #78 ) ;
#18 =( GEOMETRIC_REPRESENTATION_CONTEXT ( 3 ) GLOBAL_UNCERTAINTY_ASSIGNED_CONTEXT ( ( #149 ) ) GLOBAL_UNIT_ASSIGNED_CONTEXT ( ( #56, #61, #80 ) ) REPRESENTATION_CONTEXT ( 'NONE', 'WORKASPACE' ) );
#19 = ADVANCED_FACE ( 'NONE', ( #127 ), #220, .T. ) ;
#20 = DIRECTION ( 'NONE',  ( 1.000000000000000000, 0.0000000000000000000, 0.0000000000000000000 ) ) ;
#21 = VERTEX_POINT ( 'NONE', #311 ) ;
#22 = DIRECTION ( 'NONE',  ( -1.000000000000000000, 1.224646799147353207E-16, 0.0000000000000000000 ) ) ;
#23 = CONICAL_SURFACE ( 'NONE', #215, 0.04750000000000064587, 0.7853981633974457255 ) ;
#24 = EDGE_CURVE ( 'NONE', #200, #21, #55, .T. ) ;
#25 =( LENGTH_UNIT ( ) NAMED_UNIT ( * ) SI_UNIT ( $, .METRE. ) );
#26 = ORIENTED_EDGE ( 'NONE', *, *, #207, .F. ) ;
#27 = AXIS2_PLACEMENT_3D ( 'NONE', #226, #252, #256 ) ;
#28 = LINE ( 'NONE', #132, #115 ) ;
#29 = ADVANCED_FACE ( 'NONE', ( #175 ), #4, .T. ) ;
#30 = CARTESIAN_POINT ( 'NONE',  ( -0.007492499999999998293, 4.285804554466055399E-18, 0.02199999999999999872 ) ) ;
#31 = ORIENTED_EDGE ( 'NONE', *, *, #51, .T. ) ;
#32 = LENGTH_MEASURE_WITH_UNIT ( LENGTH_MEASURE( 0.02539999999999999897 ), #229 );
#33 = MANIFOLD_SOLID_BREP ( 'Fillet1', #228 ) ;
#34 = CARTESIAN_POINT ( 'NONE',  ( 9.175666142611546005E-19, 0.0000000000000000000, 0.007492500000000000028 ) ) ;
#35 = EDGE_CURVE ( 'NONE', #206, #158, #156, .T. ) ;
#36 = AXIS2_PLACEMENT_3D ( 'NONE', #108, #104, #85 ) ;
#37 = CIRCLE ( 'NONE', #223, 0.007492500000000001763 ) ;
#38 = DIRECTION ( 'NONE',  ( 0.0000000000000000000, 0.0000000000000000000, 1.000000000000000000 ) ) ;
#39 = CARTESIAN_POINT ( 'NONE',  ( 9.175666142611546005E-19, 0.0000000000000000000, 0.007492500000000000028 ) ) ;
#40 = CARTESIAN_POINT ( 'NONE',  ( 0.0000000000000000000, 0.0000000000000000000, 1.485000000000000764 ) ) ;
#41 = APPLICATION_CONTEXT ( 'automotive_design' ) ;
#42 = DIRECTION ( 'NONE',  ( 1.000000000000000000, 0.0000000000000000000, -0.0000000000000000000 ) ) ;
#43 = CARTESIAN_POINT ( 'NONE',  ( 4.089867614698530514E-17, 0.0000000000000000000, 0.3339630346926194537 ) ) ;
#44 = AXIS2_PLACEMENT_3D ( 'NONE', #40, #144, #309 ) ;
#45 = ORIENTED_EDGE ( 'NONE', *, *, #274, .T. ) ;
#46 = ORIENTED_EDGE ( 'NONE', *, *, #214, .T. ) ;
#47 = VECTOR ( 'NONE', #113, 39.37007874015748143 ) ;
#48 = CARTESIAN_POINT ( 'NONE',  ( 0.04750000000000064587, 6.735557395310482421E-18, 1.500000000000000222 ) ) ;
#49 = DIRECTION ( 'NONE',  ( 0.0000000000000000000, 0.0000000000000000000, 1.000000000000000000 ) ) ;
#50 = ORIENTED_EDGE ( 'NONE', *, *, #303, .F. ) ;
#51 = EDGE_CURVE ( 'NONE', #200, #158, #280, .T. ) ;
#52 = ORIENTED_EDGE ( 'NONE', *, *, #300, .T. ) ;
#53 = DIRECTION ( 'NONE',  ( 1.224646799147353454E-16, 0.0000000000000000000, 1.000000000000000000 ) ) ;
#54 = VERTEX_POINT ( 'NONE', #48 ) ;
#55 = LINE ( 'NONE', #181, #121 ) ;
#56 =( CONVERSION_BASED_UNIT ( 'INCH', #83 ) LENGTH_UNIT ( ) NAMED_UNIT ( #245 ) );
#57 = AXIS2_PLACEMENT_3D ( 'NONE', #263, #69, #268 ) ;
#58 = VECTOR ( 'NONE', #75, 39.37007874015748143 ) ;
#59 = ADVANCED_FACE ( 'NONE', ( #130 ), #258, .T. ) ;
#60 = DIRECTION ( 'NONE',  ( 0.0000000000000000000, 0.0000000000000000000, 1.000000000000000000 ) ) ;
#61 =( NAMED_UNIT ( * ) PLANE_ANGLE_UNIT ( ) SI_UNIT ( $, .RADIAN. ) );
#62 = DIRECTION ( 'NONE',  ( -1.224646799147353454E-16, -0.0000000000000000000, -1.000000000000000000 ) ) ;
#63 = DIRECTION ( 'NONE',  ( -0.0000000000000000000, -0.0000000000000000000, -1.000000000000000000 ) ) ;
#64 = DIRECTION ( 'NONE',  ( -1.000000000000000000, 0.0000000000000000000, 0.0000000000000000000 ) ) ;
#65 = DIRECTION ( 'NONE',  ( -1.224646799147353454E-16, -0.0000000000000000000, -1.000000000000000000 ) ) ;
#66 = FACE_OUTER_BOUND ( 'NONE', #142, .T. ) ;
#67 = DIRECTION ( 'NONE',  ( -1.000000000000000000, 0.0000000000000000000, 0.0000000000000000000 ) ) ;
#68 = DIRECTION ( 'NONE',  ( 0.0000000000000000000, 0.0000000000000000000, -1.000000000000000000 ) ) ;
#69 = DIRECTION ( 'NONE',  ( 1.224646799147353454E-16, 0.0000000000000000000, 1.000000000000000000 ) ) ;
#70 = AXIS2_PLACEMENT_3D ( 'NONE', #205, #60, #159 ) ;
#71 = ORIENTED_EDGE ( 'NONE', *, *, #101, .F. ) ;
#72 = FACE_OUTER_BOUND ( 'NONE', #288, .T. ) ;
#73 =( NAMED_UNIT ( * ) PLANE_ANGLE_UNIT ( ) SI_UNIT ( $, .RADIAN. ) );
#74 = AXIS2_PLACEMENT_3D ( 'NONE', #264, #195, #297 ) ;
#75 = DIRECTION ( 'NONE',  ( -0.0000000000000000000, -0.0000000000000000000, -1.000000000000000000 ) ) ;
#76 = ADVANCED_BREP_SHAPE_REPRESENTATION ( 'Micro_BMS-015-2', ( #33, #272 ), #97 ) ;
#77 = EDGE_LOOP ( 'NONE', ( #176, #52, #7 ) ) ;
#78 = DIRECTION ( 'NONE',  ( -1.000000000000000000, 0.0000000000000000000, 1.224646799147353454E-16 ) ) ;
#79 = UNCERTAINTY_MEASURE_WITH_UNIT (LENGTH_MEASURE( 1.000000000000000082E-05 ), #227, 'distance_accuracy_value', 'NONE');
#80 =( NAMED_UNIT ( * ) SI_UNIT ( $, .STERADIAN. ) SOLID_ANGLE_UNIT ( ) );
#81 = EDGE_LOOP ( 'NONE', ( #304, #325, #46, #248 ) ) ;
#82 = LENGTH_MEASURE_WITH_UNIT ( LENGTH_MEASURE( 0.02539999999999999897 ), #25 );
#83 = LENGTH_MEASURE_WITH_UNIT ( LENGTH_MEASURE( 0.02539999999999999897 ), #281 );
#84 = ORIENTED_EDGE ( 'NONE', *, *, #198, .T. ) ;
#85 = DIRECTION ( 'NONE',  ( 1.000000000000000000, 0.0000000000000000000, 0.0000000000000000000 ) ) ;
#86 = DIRECTION ( 'NONE',  ( 0.7071067811865456854, 8.659560562354911904E-17, -0.7071067811865493491 ) ) ;
#87 = CARTESIAN_POINT ( 'NONE',  ( 9.175666142611546005E-19, 0.0000000000000000000, 0.007492500000000000028 ) ) ;
#88 = DIRECTION ( 'NONE',  ( 1.000000000000000000, 0.0000000000000000000, 0.0000000000000000000 ) ) ;
#89 = VECTOR ( 'NONE', #153, 39.37007874015748143 ) ;
#90 = DIRECTION ( 'NONE',  ( -1.224646799147353454E-16, -0.0000000000000000000, -1.000000000000000000 ) ) ;
#91 = SHAPE_DEFINITION_REPRESENTATION ( #199, #76 ) ;
#92 = DIRECTION ( 'NONE',  ( -1.224646799147353454E-16, -0.0000000000000000000, -1.000000000000000000 ) ) ;
#93 = CARTESIAN_POINT ( 'NONE',  ( 0.0000000000000000000, 0.0000000000000000000, 1.485000000000000764 ) ) ;
#94 = CARTESIAN_POINT ( 'NONE',  ( 0.06250000000000000000, 7.654042494670956004E-18, 1.485000000000000764 ) ) ;
#95 = ORIENTED_EDGE ( 'NONE', *, *, #111, .F. ) ;
#96 = CARTESIAN_POINT ( 'NONE',  ( 1.376349921391731997E-18, 0.0000000000000000000, 0.0000000000000000000 ) ) ;
#97 =( GEOMETRIC_REPRESENTATION_CONTEXT ( 3 ) GLOBAL_UNCERTAINTY_ASSIGNED_CONTEXT ( ( #79 ) ) GLOBAL_UNIT_ASSIGNED_CONTEXT ( ( #227, #73, #275 ) ) REPRESENTATION_CONTEXT ( 'NONE', 'WORKASPACE' ) );
#98 = AXIS2_PLACEMENT_3D ( 'NONE', #39, #239, #22 ) ;
#99 = FILL_AREA_STYLE ('',( #324 ) ) ;
#100 = ORIENTED_EDGE ( 'NONE', *, *, #320, .F. ) ;
#101 = EDGE_CURVE ( 'NONE', #183, #54, #162, .T. ) ;
#102 = ORIENTED_EDGE ( 'NONE', *, *, #214, .F. ) ;
#103 = VERTEX_POINT ( 'NONE', #30 ) ;
#104 = DIRECTION ( 'NONE',  ( -1.224646799147353454E-16, -0.0000000000000000000, -1.000000000000000000 ) ) ;
#105 = ORIENTED_EDGE ( 'NONE', *, *, #10, .T. ) ;
#106 = AXIS2_PLACEMENT_3D ( 'NONE', #43, #92, #88 ) ;
#107 = ORIENTED_EDGE ( 'NONE', *, *, #292, .T. ) ;
#108 = CARTESIAN_POINT ( 'NONE',  ( 4.089867614698530514E-17, 0.0000000000000000000, 0.3339630346926194537 ) ) ;
#109 = SURFACE_STYLE_FILL_AREA ( #99 ) ;
#110 = CYLINDRICAL_SURFACE ( 'NONE', #17, 0.007492500000000000028 ) ;
#111 = EDGE_CURVE ( 'NONE', #183, #170, #28, .T. ) ;
#112 = DIRECTION ( 'NONE',  ( 1.224646799147353454E-16, 0.0000000000000000000, 1.000000000000000000 ) ) ;
#113 = DIRECTION ( 'NONE',  ( -0.0000000000000000000, -0.0000000000000000000, -1.000000000000000000 ) ) ;
#114 = DIRECTION ( 'NONE',  ( 0.0000000000000000000, 0.0000000000000000000, 1.000000000000000000 ) ) ;
#115 = VECTOR ( 'NONE', #236, 39.37007874015748143 ) ;
#116 = DIRECTION ( 'NONE',  ( 1.000000000000000000, 0.0000000000000000000, 0.0000000000000000000 ) ) ;
#117 = ADVANCED_FACE ( 'NONE', ( #13 ), #110, .T. ) ;
#118 = DIRECTION ( 'NONE',  ( -1.000000000000000000, 0.0000000000000000000, 0.0000000000000000000 ) ) ;
#119 = DIRECTION ( 'NONE',  ( 0.0000000000000000000, 1.000000000000000000, 0.0000000000000000000 ) ) ;
#120 = ORIENTED_EDGE ( 'NONE', *, *, #320, .T. ) ;
#121 = VECTOR ( 'NONE', #2, 39.37007874015748143 ) ;
#122 = VECTOR ( 'NONE', #86, 39.37007874015748143 ) ;
#123 = ADVANCED_FACE ( 'NONE', ( #148 ), #23, .T. ) ;
#124 = ORIENTED_EDGE ( 'NONE', *, *, #274, .F. ) ;
#125 = DIRECTION ( 'NONE',  ( -1.224646799147353454E-16, -0.0000000000000000000, -1.000000000000000000 ) ) ;
#126 = VERTEX_POINT ( 'NONE', #94 ) ;
#127 = FACE_OUTER_BOUND ( 'NONE', #273, .T. ) ;
#128 = ORIENTED_EDGE ( 'NONE', *, *, #240, .T. ) ;
#129 = VECTOR ( 'NONE', #90, 39.37007874015748143 ) ;
#130 = FACE_OUTER_BOUND ( 'NONE', #5, .T. ) ;
#131 = DIRECTION ( 'NONE',  ( 0.0000000000000000000, 1.000000000000000000, 0.0000000000000000000 ) ) ;
#132 = CARTESIAN_POINT ( 'NONE',  ( -0.04750000000000064587, 0.0000000000000000000, 1.500000000000000222 ) ) ;
#133 = CARTESIAN_POINT ( 'NONE',  ( -0.06249999999999995837, 0.0000000000000000000, 0.3339630346926194537 ) ) ;
#134 = PRESENTATION_LAYER_ASSIGNMENT (  '', '', ( #12 ) ) ;
#135 = DIRECTION ( 'NONE',  ( -1.000000000000000000, 0.0000000000000000000, 1.424261758458595593E-16 ) ) ;
#136 = CARTESIAN_POINT ( 'NONE',  ( -0.06250000000000000000, 0.0000000000000000000, 1.500000000000000222 ) ) ;
#137 = CARTESIAN_POINT ( 'NONE',  ( 0.0000000000000000000, 0.0000000000000000000, 1.500000000000000222 ) ) ;
#138 = DIMENSIONAL_EXPONENTS ( 1.000000000000000000, 0.0000000000000000000, 0.0000000000000000000, 0.0000000000000000000, 0.0000000000000000000, 0.0000000000000000000, 0.0000000000000000000 ) ;
#139 = COLOUR_RGB ( '',0.7921568627450980005, 0.8196078431372548767, 0.9333333333333333481 ) ;
#140 = PRODUCT_DEFINITION ( 'UNKNOWN', '', #302, #192 ) ;
#141 = CARTESIAN_POINT ( 'NONE',  ( 0.0000000000000000000, 0.0000000000000000000, 1.500000000000000222 ) ) ;
#142 = EDGE_LOOP ( 'NONE', ( #26, #128, #1, #255 ) ) ;
#143 = PRODUCT ( 'Micro_BMS-015-2', 'Micro_BMS-015-2', '', ( #253 ) ) ;
#144 = DIRECTION ( 'NONE',  ( 0.0000000000000000000, 0.0000000000000000000, -1.000000000000000000 ) ) ;
#145 = ADVANCED_FACE ( 'NONE', ( #164 ), #191, .T. ) ;
#146 = AXIS2_PLACEMENT_3D ( 'NONE', #291, #63, #64 ) ;
#147 = ORIENTED_EDGE ( 'NONE', *, *, #172, .F. ) ;
#148 = FACE_OUTER_BOUND ( 'NONE', #230, .T. ) ;
#149 = UNCERTAINTY_MEASURE_WITH_UNIT (LENGTH_MEASURE( 1.000000000000000082E-05 ), #56, 'distance_accuracy_value', 'NONE');
#150 = DIRECTION ( 'NONE',  ( 1.000000000000000000, 0.0000000000000000000, 0.0000000000000000000 ) ) ;
#151 = EDGE_LOOP ( 'NONE', ( #180, #204, #221, #305 ) ) ;
#152 = ORIENTED_EDGE ( 'NONE', *, *, #300, .F. ) ;
#153 = DIRECTION ( 'NONE',  ( -1.224646799147353454E-16, -0.0000000000000000000, -1.000000000000000000 ) ) ;
#154 = ORIENTED_EDGE ( 'NONE', *, *, #111, .T. ) ;
#155 = CARTESIAN_POINT ( 'NONE',  ( 0.007492500000000000028, 9.175666142611544079E-19, -9.175666142611546005E-19 ) ) ;
#156 = CIRCLE ( 'NONE', #306, 0.007492500000000000028 ) ;
#157 = MECHANICAL_DESIGN_GEOMETRIC_PRESENTATION_REPRESENTATION (  '', ( #12 ), #18 ) ;
#158 = VERTEX_POINT ( 'NONE', #161 ) ;
#159 = DIRECTION ( 'NONE',  ( 1.000000000000000000, 0.0000000000000000000, 0.0000000000000000000 ) ) ;
#160 = ADVANCED_FACE ( 'NONE', ( #217 ), #314, .T. ) ;
#161 = CARTESIAN_POINT ( 'NONE',  ( 0.007492500000000001763, 9.175666142611544079E-19, 0.007492499999999999161 ) ) ;
#162 = CIRCLE ( 'NONE', #70, 0.04750000000000064587 ) ;
#163 = AXIS2_PLACEMENT_3D ( 'NONE', #259, #9, #290 ) ;
#164 = FACE_OUTER_BOUND ( 'NONE', #77, .T. ) ;
#165 = ADVANCED_FACE ( 'NONE', ( #66 ), #166, .T. ) ;
#166 = CYLINDRICAL_SURFACE ( 'NONE', #146, 0.06250000000000000000 ) ;
#167 = CARTESIAN_POINT ( 'NONE',  ( 2.694222958124177253E-18, 0.0000000000000000000, 0.02199999999999999872 ) ) ;
#168 = DIRECTION ( 'NONE',  ( -1.000000000000000000, 0.0000000000000000000, 0.0000000000000000000 ) ) ;
#169 = CARTESIAN_POINT ( 'NONE',  ( 9.175666142611546005E-19, 0.0000000000000000000, 0.007492500000000000028 ) ) ;
#170 = VERTEX_POINT ( 'NONE', #293 ) ;
#171 = MECHANICAL_DESIGN_GEOMETRIC_PRESENTATION_REPRESENTATION (  '', ( #11 ), #267 ) ;
#172 = EDGE_CURVE ( 'NONE', #54, #183, #246, .T. ) ;
#173 = ORIENTED_EDGE ( 'NONE', *, *, #186, .T. ) ;
#174 = CIRCLE ( 'NONE', #36, 0.06250000000000000000 ) ;
#175 = FACE_OUTER_BOUND ( 'NONE', #81, .T. ) ;
#176 = ORIENTED_EDGE ( 'NONE', *, *, #219, .F. ) ;
#177 =( CONVERSION_BASED_UNIT ( 'INCH', #32 ) LENGTH_UNIT ( ) NAMED_UNIT ( #242 ) );
#178 = EDGE_LOOP ( 'NONE', ( #120, #31, #84, #102 ) ) ;
#179 = SURFACE_SIDE_STYLE ('',( #109 ) ) ;
#180 = ORIENTED_EDGE ( 'NONE', *, *, #318, .T. ) ;
#181 = CARTESIAN_POINT ( 'NONE',  ( 0.007492500000000004365, 0.0000000000000000000, 0.02199999999999999872 ) ) ;
#182 = AXIS2_PLACEMENT_3D ( 'NONE', #137, #38, #20 ) ;
#183 = VERTEX_POINT ( 'NONE', #212 ) ;
#184 = LINE ( 'NONE', #287, #313 ) ;
#185 = SURFACE_STYLE_USAGE ( .BOTH. , #179 ) ;
#186 = EDGE_CURVE ( 'NONE', #21, #299, #249, .T. ) ;
#187 =( NAMED_UNIT ( * ) PLANE_ANGLE_UNIT ( ) SI_UNIT ( $, .RADIAN. ) );
#188 = FACE_OUTER_BOUND ( 'NONE', #244, .T. ) ;
#189 = CARTESIAN_POINT ( 'NONE',  ( 0.0000000000000000000, 0.0000000000000000000, 1.500000000000000222 ) ) ;
#190 = AXIS2_PLACEMENT_3D ( 'NONE', #218, #112, #135 ) ;
#191 = SPHERICAL_SURFACE ( 'NONE', #201, 0.007492500000000000028 ) ;
#192 = PRODUCT_DEFINITION_CONTEXT ( 'detailed design', #41, 'design' ) ;
#193 = LINE ( 'NONE', #296, #47 ) ;
#194 = CARTESIAN_POINT ( 'NONE',  ( 2.694222958124177253E-18, 0.0000000000000000000, 0.02199999999999999872 ) ) ;
#195 = DIRECTION ( 'NONE',  ( 0.0000000000000000000, -1.000000000000000000, 0.0000000000000000000 ) ) ;
#196 = ORIENTED_EDGE ( 'NONE', *, *, #101, .T. ) ;
#197 = PLANE ( 'NONE',  #222 ) ;
#198 = EDGE_CURVE ( 'NONE', #158, #206, #294, .T. ) ;
#199 = PRODUCT_DEFINITION_SHAPE ( 'NONE', 'NONE',  #140 ) ;
#200 = VERTEX_POINT ( 'NONE', #265 ) ;
#201 = AXIS2_PLACEMENT_3D ( 'NONE', #169, #119, #116 ) ;
#202 = CARTESIAN_POINT ( 'NONE',  ( 0.0000000000000000000, 0.0000000000000000000, 0.0000000000000000000 ) ) ;
#203 = PRESENTATION_STYLE_ASSIGNMENT (( #289 ) ) ;
#204 = ORIENTED_EDGE ( 'NONE', *, *, #207, .T. ) ;
#205 = CARTESIAN_POINT ( 'NONE',  ( 0.0000000000000000000, 0.0000000000000000000, 1.500000000000000222 ) ) ;
#206 = VERTEX_POINT ( 'NONE', #15 ) ;
#207 = EDGE_CURVE ( 'NONE', #126, #21, #193, .T. ) ;
#208 = PRESENTATION_LAYER_ASSIGNMENT (  '', '', ( #11 ) ) ;
#209 = DIRECTION ( 'NONE',  ( -0.1736481776669311639, 2.126576849575783008E-17, 0.9848077530122080203 ) ) ;
#210 = CIRCLE ( 'NONE', #98, 0.007492500000000000028 ) ;
#211 = CARTESIAN_POINT ( 'NONE',  ( 0.0000000000000000000, 0.0000000000000000000, 0.0000000000000000000 ) ) ;
#212 = CARTESIAN_POINT ( 'NONE',  ( -0.04750000000000064587, 0.0000000000000000000, 1.500000000000000222 ) ) ;
#213 = DIRECTION ( 'NONE',  ( 0.0000000000000000000, 0.0000000000000000000, -1.000000000000000000 ) ) ;
#214 = EDGE_CURVE ( 'NONE', #103, #206, #319, .T. ) ;
#215 = AXIS2_PLACEMENT_3D ( 'NONE', #141, #213, #16 ) ;
#216 = CIRCLE ( 'NONE', #257, 0.007492500000000001763 ) ;
#217 = FACE_OUTER_BOUND ( 'NONE', #151, .T. ) ;
#218 = CARTESIAN_POINT ( 'NONE',  ( 9.175666142611546005E-19, 0.0000000000000000000, 0.007492500000000000028 ) ) ;
#219 = EDGE_CURVE ( 'NONE', #251, #158, #237, .T. ) ;
#220 = CONICAL_SURFACE ( 'NONE', #27, 0.04750000000000064587, 0.7853981633974457255 ) ;
#221 = ORIENTED_EDGE ( 'NONE', *, *, #10, .F. ) ;
#222 = AXIS2_PLACEMENT_3D ( 'NONE', #189, #114, #42 ) ;
#223 = AXIS2_PLACEMENT_3D ( 'NONE', #167, #65, #118 ) ;
#224 = ORIENTED_EDGE ( 'NONE', *, *, #24, .F. ) ;
#225 = LINE ( 'NONE', #234, #122 ) ;
#226 = CARTESIAN_POINT ( 'NONE',  ( 0.0000000000000000000, 0.0000000000000000000, 1.500000000000000222 ) ) ;
#227 =( CONVERSION_BASED_UNIT ( 'INCH', #82 ) LENGTH_UNIT ( ) NAMED_UNIT ( #138 ) );
#228 = CLOSED_SHELL ( 'NONE', ( #145, #117, #233, #123, #160, #165, #271, #19, #295, #29, #59 ) ) ;
#229 =( LENGTH_UNIT ( ) NAMED_UNIT ( * ) SI_UNIT ( $, .METRE. ) );
#230 = EDGE_LOOP ( 'NONE', ( #147, #45, #279, #95 ) ) ;
#231 = SURFACE_STYLE_FILL_AREA ( #8 ) ;
#232 = ORIENTED_EDGE ( 'NONE', *, *, #24, .T. ) ;
#233 = ADVANCED_FACE ( 'NONE', ( #14 ), #283, .T. ) ;
#234 = CARTESIAN_POINT ( 'NONE',  ( 0.04750000000000064587, 5.817072295950006528E-18, 1.500000000000000222 ) ) ;
#235 = DIRECTION ( 'NONE',  ( 1.000000000000000000, 0.0000000000000000000, 0.0000000000000000000 ) ) ;
#236 = DIRECTION ( 'NONE',  ( -0.7071067811865456854, 0.0000000000000000000, -0.7071067811865493491 ) ) ;
#237 = CIRCLE ( 'NONE', #74, 0.007492500000000000028 ) ;
#238 = DIRECTION ( 'NONE',  ( -0.0000000000000000000, -0.0000000000000000000, -1.000000000000000000 ) ) ;
#239 = DIRECTION ( 'NONE',  ( 1.224646799147353207E-16, 1.000000000000000000, -0.0000000000000000000 ) ) ;
#240 = EDGE_CURVE ( 'NONE', #126, #170, #241, .T. ) ;
#241 = CIRCLE ( 'NONE', #44, 0.06250000000000000000 ) ;
#242 = DIMENSIONAL_EXPONENTS ( 1.000000000000000000, 0.0000000000000000000, 0.0000000000000000000, 0.0000000000000000000, 0.0000000000000000000, 0.0000000000000000000, 0.0000000000000000000 ) ;
#243 = CARTESIAN_POINT ( 'NONE',  ( 0.0000000000000000000, 0.0000000000000000000, 1.500000000000000222 ) ) ;
#244 = EDGE_LOOP ( 'NONE', ( #286, #50, #232, #173 ) ) ;
#245 = DIMENSIONAL_EXPONENTS ( 1.000000000000000000, 0.0000000000000000000, 0.0000000000000000000, 0.0000000000000000000, 0.0000000000000000000, 0.0000000000000000000, 0.0000000000000000000 ) ;
#246 = CIRCLE ( 'NONE', #182, 0.04750000000000064587 ) ;
#247 = APPLICATION_PROTOCOL_DEFINITION ( 'draft international standard', 'automotive_design', 1998, #321 ) ;
#248 = ORIENTED_EDGE ( 'NONE', *, *, #35, .T. ) ;
#249 = CIRCLE ( 'NONE', #106, 0.06250000000000000000 ) ;
#250 = CIRCLE ( 'NONE', #301, 0.06250000000000000000 ) ;
#251 = VERTEX_POINT ( 'NONE', #96 ) ;
#252 = DIRECTION ( 'NONE',  ( 0.0000000000000000000, 0.0000000000000000000, -1.000000000000000000 ) ) ;
#253 = PRODUCT_CONTEXT ( 'NONE', #321, 'mechanical' ) ;
#254 = EDGE_LOOP ( 'NONE', ( #100, #107, #105, #224 ) ) ;
#255 = ORIENTED_EDGE ( 'NONE', *, *, #186, .F. ) ;
#256 = DIRECTION ( 'NONE',  ( -1.000000000000000000, 0.0000000000000000000, 0.0000000000000000000 ) ) ;
#257 = AXIS2_PLACEMENT_3D ( 'NONE', #194, #62, #168 ) ;
#258 = SPHERICAL_SURFACE ( 'NONE', #322, 0.007492500000000000028 ) ;
#259 = CARTESIAN_POINT ( 'NONE',  ( 2.694222958124177253E-18, 0.0000000000000000000, 0.02199999999999999872 ) ) ;
#260 = DIRECTION ( 'NONE',  ( -1.224646799147353454E-16, -0.0000000000000000000, -1.000000000000000000 ) ) ;
#261 = PRESENTATION_STYLE_ASSIGNMENT (( #185 ) ) ;
#262 = DIRECTION ( 'NONE',  ( 1.000000000000000000, 0.0000000000000000000, 0.0000000000000000000 ) ) ;
#263 = CARTESIAN_POINT ( 'NONE',  ( 2.694222958124177253E-18, 0.0000000000000000000, 0.02199999999999999872 ) ) ;
#264 = CARTESIAN_POINT ( 'NONE',  ( 9.175666142611546005E-19, 0.0000000000000000000, 0.007492500000000000028 ) ) ;
#265 = CARTESIAN_POINT ( 'NONE',  ( 0.007492500000000004365, 0.0000000000000000000, 0.02199999999999999872 ) ) ;
#266 = APPLICATION_PROTOCOL_DEFINITION ( 'draft international standard', 'automotive_design', 1998, #41 ) ;
#267 =( GEOMETRIC_REPRESENTATION_CONTEXT ( 3 ) GLOBAL_UNCERTAINTY_ASSIGNED_CONTEXT ( ( #270 ) ) GLOBAL_UNIT_ASSIGNED_CONTEXT ( ( #177, #187, #278 ) ) REPRESENTATION_CONTEXT ( 'NONE', 'WORKASPACE' ) );
#268 = DIRECTION ( 'NONE',  ( 1.000000000000000000, 0.0000000000000000000, 0.0000000000000000000 ) ) ;
#269 = ORIENTED_EDGE ( 'NONE', *, *, #172, .T. ) ;
#270 = UNCERTAINTY_MEASURE_WITH_UNIT (LENGTH_MEASURE( 1.000000000000000082E-05 ), #177, 'distance_accuracy_value', 'NONE');
#271 = ADVANCED_FACE ( 'NONE', ( #72 ), #197, .T. ) ;
#272 = AXIS2_PLACEMENT_3D ( 'NONE', #276, #49, #150 ) ;
#273 = EDGE_LOOP ( 'NONE', ( #124, #71, #154, #277 ) ) ;
#274 = EDGE_CURVE ( 'NONE', #54, #126, #225, .T. ) ;
#275 =( NAMED_UNIT ( * ) SI_UNIT ( $, .STERADIAN. ) SOLID_ANGLE_UNIT ( ) );
#276 = CARTESIAN_POINT ( 'NONE',  ( 0.0000000000000000000, 0.0000000000000000000, 0.0000000000000000000 ) ) ;
#277 = ORIENTED_EDGE ( 'NONE', *, *, #240, .F. ) ;
#278 =( NAMED_UNIT ( * ) SI_UNIT ( $, .STERADIAN. ) SOLID_ANGLE_UNIT ( ) );
#279 = ORIENTED_EDGE ( 'NONE', *, *, #318, .F. ) ;
#280 = LINE ( 'NONE', #155, #89 ) ;
#281 =( LENGTH_UNIT ( ) NAMED_UNIT ( * ) SI_UNIT ( $, .METRE. ) );
#282 = PRODUCT_RELATED_PRODUCT_CATEGORY ( 'part', '', ( #143 ) ) ;
#283 = CONICAL_SURFACE ( 'NONE', #57, 0.007492500000000001763, 0.1745329251994338637 ) ;
#284 = CONICAL_SURFACE ( 'NONE', #163, 0.007492500000000001763, 0.1745329251994338637 ) ;
#285 = SURFACE_SIDE_STYLE ('',( #231 ) ) ;
#286 = ORIENTED_EDGE ( 'NONE', *, *, #292, .F. ) ;
#287 = CARTESIAN_POINT ( 'NONE',  ( -0.007492499999999998293, 9.175666142611546005E-19, 0.02199999999999999872 ) ) ;
#288 = EDGE_LOOP ( 'NONE', ( #196, #269 ) ) ;
#289 = SURFACE_STYLE_USAGE ( .BOTH. , #285 ) ;
#290 = DIRECTION ( 'NONE',  ( 1.000000000000000000, 0.0000000000000000000, 0.0000000000000000000 ) ) ;
#291 = CARTESIAN_POINT ( 'NONE',  ( 0.0000000000000000000, 0.0000000000000000000, 1.500000000000000222 ) ) ;
#292 = EDGE_CURVE ( 'NONE', #103, #299, #184, .T. ) ;
#293 = CARTESIAN_POINT ( 'NONE',  ( -0.06250000000000000000, 0.0000000000000000000, 1.485000000000000764 ) ) ;
#294 = CIRCLE ( 'NONE', #190, 0.007492500000000000028 ) ;
#295 = ADVANCED_FACE ( 'NONE', ( #188 ), #284, .T. ) ;
#296 = CARTESIAN_POINT ( 'NONE',  ( 0.06250000000000000000, 7.654042494670956004E-18, 1.500000000000000222 ) ) ;
#297 = DIRECTION ( 'NONE',  ( 0.0000000000000000000, 0.0000000000000000000, -1.000000000000000000 ) ) ;
#298 = AXIS2_PLACEMENT_3D ( 'NONE', #243, #238, #67 ) ;
#299 = VERTEX_POINT ( 'NONE', #133 ) ;
#300 = EDGE_CURVE ( 'NONE', #251, #206, #210, .T. ) ;
#301 = AXIS2_PLACEMENT_3D ( 'NONE', #93, #68, #262 ) ;
#302 = PRODUCT_DEFINITION_FORMATION_WITH_SPECIFIED_SOURCE ( 'ANY', '', #143, .NOT_KNOWN. ) ;
#303 = EDGE_CURVE ( 'NONE', #200, #103, #37, .T. ) ;
#304 = ORIENTED_EDGE ( 'NONE', *, *, #51, .F. ) ;
#305 = ORIENTED_EDGE ( 'NONE', *, *, #323, .F. ) ;
#306 = AXIS2_PLACEMENT_3D ( 'NONE', #87, #53, #6 ) ;
#307 = DIRECTION ( 'NONE',  ( -1.000000000000000000, 0.0000000000000000000, 1.224646799147353454E-16 ) ) ;
#308 = ORIENTED_EDGE ( 'NONE', *, *, #35, .F. ) ;
#309 = DIRECTION ( 'NONE',  ( 1.000000000000000000, 0.0000000000000000000, 0.0000000000000000000 ) ) ;
#310 = FILL_AREA_STYLE_COLOUR ( '', #317 ) ;
#311 = CARTESIAN_POINT ( 'NONE',  ( 0.06250000000000004163, 7.654042494670960626E-18, 0.3339630346926194537 ) ) ;
#312 = ORIENTED_EDGE ( 'NONE', *, *, #219, .T. ) ;
#313 = VECTOR ( 'NONE', #209, 39.37007874015747433 ) ;
#314 = CYLINDRICAL_SURFACE ( 'NONE', #298, 0.06250000000000000000 ) ;
#315 = LINE ( 'NONE', #136, #58 ) ;
#316 = CARTESIAN_POINT ( 'NONE',  ( -0.007492500000000000028, 0.0000000000000000000, 9.175666142611546005E-19 ) ) ;
#317 = COLOUR_RGB ( '',0.7921568627450980005, 0.8196078431372548767, 0.9333333333333333481 ) ;
#318 = EDGE_CURVE ( 'NONE', #170, #126, #250, .T. ) ;
#319 = LINE ( 'NONE', #316, #129 ) ;
#320 = EDGE_CURVE ( 'NONE', #103, #200, #216, .T. ) ;
#321 = APPLICATION_CONTEXT ( 'automotive_design' ) ;
#322 = AXIS2_PLACEMENT_3D ( 'NONE', #34, #131, #235 ) ;
#323 = EDGE_CURVE ( 'NONE', #170, #299, #315, .T. ) ;
#324 = FILL_AREA_STYLE_COLOUR ( '', #139 ) ;
#325 = ORIENTED_EDGE ( 'NONE', *, *, #303, .T. ) ;
ENDSEC;
END-ISO-10303-21;
