ISO-10303-21;
HEADER;
FILE_DESCRIPTION (( 'STEP AP214' ),
    '1' );
FILE_NAME ('Micro_RME-016-2.STEP',
    '2021-09-01T22:35:30',
    ( '' ),
    ( '' ),
    'SwSTEP 2.0',
    'SolidWorks 2020',
    '' );
FILE_SCHEMA (( 'AUTOMOTIVE_DESIGN' ));
ENDSEC;

DATA;
#1 = SURFACE_SIDE_STYLE ('',( #50 ) ) ;
#2 = EDGE_LOOP ( 'NONE', ( #138, #30 ) ) ;
#3 = EDGE_LOOP ( 'NONE', ( #144, #143, #141, #161 ) ) ;
#4 = EDGE_CURVE ( 'NONE', #222, #163, #150, .T. ) ;
#5 = AXIS2_PLACEMENT_3D ( 'NONE', #149, #16, #257 ) ;
#6 = DIRECTION ( 'NONE',  ( 0.0000000000000000000, 0.0000000000000000000, -1.000000000000000000 ) ) ;
#7 =( NAMED_UNIT ( * ) PLANE_ANGLE_UNIT ( ) SI_UNIT ( $, .RADIAN. ) );
#8 = DIRECTION ( 'NONE',  ( 1.000000000000000000, 0.0000000000000000000, 0.0000000000000000000 ) ) ;
#9 =( CONVERSION_BASED_UNIT ( 'INCH', #206 ) LENGTH_UNIT ( ) NAMED_UNIT ( #122 ) );
#10 = DIRECTION ( 'NONE',  ( 1.000000000000000000, 0.0000000000000000000, -0.0000000000000000000 ) ) ;
#11 = DIRECTION ( 'NONE',  ( 1.000000000000000000, 0.0000000000000000000, 0.0000000000000000000 ) ) ;
#12 = EDGE_CURVE ( 'NONE', #74, #69, #104, .T. ) ;
#13 = DIRECTION ( 'NONE',  ( -1.000000000000000000, 0.0000000000000000000, 1.224646799147353454E-16 ) ) ;
#14 = PRODUCT_DEFINITION_SHAPE ( 'NONE', 'NONE',  #238 ) ;
#15 = FACE_OUTER_BOUND ( 'NONE', #120, .T. ) ;
#16 = DIRECTION ( 'NONE',  ( -0.0000000000000000000, -0.0000000000000000000, -1.000000000000000000 ) ) ;
#17 = EDGE_CURVE ( 'NONE', #222, #119, #244, .T. ) ;
#18 = AXIS2_PLACEMENT_3D ( 'NONE', #197, #296, #117 ) ;
#19 = SURFACE_STYLE_USAGE ( .BOTH. , #132 ) ;
#20 =( NAMED_UNIT ( * ) PLANE_ANGLE_UNIT ( ) SI_UNIT ( $, .RADIAN. ) );
#21 = FILL_AREA_STYLE ('',( #178 ) ) ;
#22 = ADVANCED_FACE ( 'NONE', ( #137 ), #237, .T. ) ;
#23 = ORIENTED_EDGE ( 'NONE', *, *, #92, .T. ) ;
#24 = ORIENTED_EDGE ( 'NONE', *, *, #17, .F. ) ;
#25 = CIRCLE ( 'NONE', #89, 0.06250000000000002776 ) ;
#26 = LENGTH_MEASURE_WITH_UNIT ( LENGTH_MEASURE( 0.02539999999999999897 ), #41 );
#27 = CARTESIAN_POINT ( 'NONE',  ( -0.007991999999999995635, 9.787377218785648302E-19, 0.04800000000000000100 ) ) ;
#28 = ORIENTED_EDGE ( 'NONE', *, *, #279, .F. ) ;
#29 = ORIENTED_EDGE ( 'NONE', *, *, #219, .T. ) ;
#30 = ORIENTED_EDGE ( 'NONE', *, *, #217, .T. ) ;
#31 = DIRECTION ( 'NONE',  ( -1.224646799147353454E-16, -0.0000000000000000000, -1.000000000000000000 ) ) ;
#32 = DIRECTION ( 'NONE',  ( 0.0000000000000000000, 0.0000000000000000000, 1.000000000000000000 ) ) ;
#33 = CARTESIAN_POINT ( 'NONE',  ( 0.0000000000000000000, 0.0000000000000000000, 1.500000000000000222 ) ) ;
#34 = EDGE_CURVE ( 'NONE', #55, #77, #223, .T. ) ;
#35 = CYLINDRICAL_SURFACE ( 'NONE', #5, 0.06250000000000002776 ) ;
#36 = CARTESIAN_POINT ( 'NONE',  ( 0.0000000000000000000, 0.0000000000000000000, 1.500000000000000222 ) ) ;
#37 = CARTESIAN_POINT ( 'NONE',  ( -0.06250000000000002776, 0.0000000000000000000, 1.500000000000000222 ) ) ;
#38 = CARTESIAN_POINT ( 'NONE',  ( 5.878304635907297015E-18, 0.0000000000000000000, 0.04800000000000000100 ) ) ;
#39 = APPLICATION_PROTOCOL_DEFINITION ( 'draft international standard', 'automotive_design', 1998, #91 ) ;
#40 = AXIS2_PLACEMENT_3D ( 'NONE', #38, #73, #47 ) ;
#41 =( LENGTH_UNIT ( ) NAMED_UNIT ( * ) SI_UNIT ( $, .METRE. ) );
#42 = STYLED_ITEM ( 'NONE', ( #169 ), #284 ) ;
#43 = ORIENTED_EDGE ( 'NONE', *, *, #217, .F. ) ;
#44 = VECTOR ( 'NONE', #63, 39.37007874015748143 ) ;
#45 = COLOUR_RGB ( '',0.7921568627450980005, 0.8196078431372548767, 0.9333333333333333481 ) ;
#46 = UNCERTAINTY_MEASURE_WITH_UNIT (LENGTH_MEASURE( 1.000000000000000082E-05 ), #9, 'distance_accuracy_value', 'NONE');
#47 = DIRECTION ( 'NONE',  ( 1.000000000000000000, 0.0000000000000000000, 0.0000000000000000000 ) ) ;
#48 = EDGE_LOOP ( 'NONE', ( #184, #181, #56, #195 ) ) ;
#49 = FACE_OUTER_BOUND ( 'NONE', #97, .T. ) ;
#50 = SURFACE_STYLE_FILL_AREA ( #289 ) ;
#51 = ORIENTED_EDGE ( 'NONE', *, *, #70, .T. ) ;
#52 = AXIS2_PLACEMENT_3D ( 'NONE', #36, #191, #151 ) ;
#53 = CIRCLE ( 'NONE', #90, 0.007992000000000002574 ) ;
#54 = ADVANCED_FACE ( 'NONE', ( #49 ), #125, .F. ) ;
#55 = VERTEX_POINT ( 'NONE', #232 ) ;
#56 = ORIENTED_EDGE ( 'NONE', *, *, #134, .T. ) ;
#57 = DIRECTION ( 'NONE',  ( 0.0000000000000000000, 0.0000000000000000000, 1.000000000000000000 ) ) ;
#58 = AXIS2_PLACEMENT_3D ( 'NONE', #124, #101, #13 ) ;
#59 = CYLINDRICAL_SURFACE ( 'NONE', #84, 0.06250000000000002776 ) ;
#60 = EDGE_CURVE ( 'NONE', #266, #245, #116, .T. ) ;
#61 = DIMENSIONAL_EXPONENTS ( 1.000000000000000000, 0.0000000000000000000, 0.0000000000000000000, 0.0000000000000000000, 0.0000000000000000000, 0.0000000000000000000, 0.0000000000000000000 ) ;
#62 = CARTESIAN_POINT ( 'NONE',  ( 4.373583923425194285E-17, 0.0000000000000000000, 0.3571302294237206354 ) ) ;
#63 = DIRECTION ( 'NONE',  ( -1.224646799147353454E-16, -0.0000000000000000000, -1.000000000000000000 ) ) ;
#64 = AXIS2_PLACEMENT_3D ( 'NONE', #227, #31, #123 ) ;
#65 = PRESENTATION_LAYER_ASSIGNMENT (  '', '', ( #42 ) ) ;
#66 = DIRECTION ( 'NONE',  ( -1.224646799147353454E-16, -0.0000000000000000000, -1.000000000000000000 ) ) ;
#67 = DIRECTION ( 'NONE',  ( 1.000000000000000000, 0.0000000000000000000, 0.0000000000000000000 ) ) ;
#68 = PRESENTATION_STYLE_ASSIGNMENT (( #19 ) ) ;
#69 = VERTEX_POINT ( 'NONE', #83 ) ;
#70 = EDGE_CURVE ( 'NONE', #245, #266, #297, .T. ) ;
#71 = DIRECTION ( 'NONE',  ( -0.1736481776669311639, 2.126576849575783008E-17, 0.9848077530122080203 ) ) ;
#72 = PRODUCT_DEFINITION_CONTEXT ( 'detailed design', #91, 'design' ) ;
#73 = DIRECTION ( 'NONE',  ( 1.224646799147353454E-16, 0.0000000000000000000, 1.000000000000000000 ) ) ;
#74 = VERTEX_POINT ( 'NONE', #82 ) ;
#75 = ORIENTED_EDGE ( 'NONE', *, *, #273, .T. ) ;
#76 = ORIENTED_EDGE ( 'NONE', *, *, #60, .F. ) ;
#77 = VERTEX_POINT ( 'NONE', #170 ) ;
#78 = DIRECTION ( 'NONE',  ( -1.224646799147353454E-16, -0.0000000000000000000, -1.000000000000000000 ) ) ;
#79 = CARTESIAN_POINT ( 'NONE',  ( 1.198608018303357353E-34, 0.0000000000000000000, 9.787377218785652154E-19 ) ) ;
#80 = VECTOR ( 'NONE', #71, 39.37007874015747433 ) ;
#81 = DIRECTION ( 'NONE',  ( 0.0000000000000000000, 0.0000000000000000000, -1.000000000000000000 ) ) ;
#82 = CARTESIAN_POINT ( 'NONE',  ( 0.06250000000000002776, 7.654042494670959086E-18, 1.485000000000000764 ) ) ;
#83 = CARTESIAN_POINT ( 'NONE',  ( -0.06250000000000002776, 0.0000000000000000000, 1.485000000000000764 ) ) ;
#84 = AXIS2_PLACEMENT_3D ( 'NONE', #129, #288, #126 ) ;
#85 = SURFACE_STYLE_FILL_AREA ( #21 ) ;
#86 = CARTESIAN_POINT ( 'NONE',  ( -0.007992000000000002574, 0.0000000000000000000, 9.787377218785652154E-19 ) ) ;
#87 = ADVANCED_FACE ( 'NONE', ( #172 ), #35, .T. ) ;
#88 = SHAPE_DEFINITION_REPRESENTATION ( #14, #284 ) ;
#89 = AXIS2_PLACEMENT_3D ( 'NONE', #285, #81, #148 ) ;
#90 = AXIS2_PLACEMENT_3D ( 'NONE', #211, #105, #265 ) ;
#91 = APPLICATION_CONTEXT ( 'automotive_design' ) ;
#92 = EDGE_CURVE ( 'NONE', #163, #245, #259, .T. ) ;
#93 = FACE_OUTER_BOUND ( 'NONE', #160, .T. ) ;
#94 = CARTESIAN_POINT ( 'NONE',  ( 0.0000000000000000000, 0.0000000000000000000, 1.500000000000000222 ) ) ;
#95 = CIRCLE ( 'NONE', #155, 0.04750000000000064587 ) ;
#96 = ORIENTED_EDGE ( 'NONE', *, *, #252, .T. ) ;
#97 = EDGE_LOOP ( 'NONE', ( #162, #51 ) ) ;
#98 = EDGE_LOOP ( 'NONE', ( #24, #99, #100, #133 ) ) ;
#99 = ORIENTED_EDGE ( 'NONE', *, *, #298, .F. ) ;
#100 = ORIENTED_EDGE ( 'NONE', *, *, #196, .T. ) ;
#101 = DIRECTION ( 'NONE',  ( -1.224646799147353454E-16, -0.0000000000000000000, -1.000000000000000000 ) ) ;
#102 = CARTESIAN_POINT ( 'NONE',  ( -0.04750000000000064587, 0.0000000000000000000, 1.500000000000000222 ) ) ;
#103 = DIMENSIONAL_EXPONENTS ( 1.000000000000000000, 0.0000000000000000000, 0.0000000000000000000, 0.0000000000000000000, 0.0000000000000000000, 0.0000000000000000000, 0.0000000000000000000 ) ;
#104 = CIRCLE ( 'NONE', #198, 0.06250000000000002776 ) ;
#105 = DIRECTION ( 'NONE',  ( -1.224646799147353454E-16, -0.0000000000000000000, -1.000000000000000000 ) ) ;
#106 = FACE_OUTER_BOUND ( 'NONE', #248, .T. ) ;
#107 = EDGE_CURVE ( 'NONE', #69, #119, #253, .T. ) ;
#108 = LENGTH_MEASURE_WITH_UNIT ( LENGTH_MEASURE( 0.02539999999999999897 ), #188 );
#109 = CYLINDRICAL_SURFACE ( 'NONE', #209, 0.007992000000000002574 ) ;
#110 = DIRECTION ( 'NONE',  ( 0.7071067811865462405, 8.659560562354916834E-17, -0.7071067811865486830 ) ) ;
#111 =( CONVERSION_BASED_UNIT ( 'INCH', #26 ) LENGTH_UNIT ( ) NAMED_UNIT ( #103 ) );
#112 = CARTESIAN_POINT ( 'NONE',  ( 0.04750000000000064587, 5.817072295950006528E-18, 1.500000000000000222 ) ) ;
#113 = CIRCLE ( 'NONE', #140, 0.06250000000000002776 ) ;
#114 = EDGE_CURVE ( 'NONE', #183, #119, #113, .T. ) ;
#115 = DIRECTION ( 'NONE',  ( 1.000000000000000000, 0.0000000000000000000, 0.0000000000000000000 ) ) ;
#116 = CIRCLE ( 'NONE', #276, 0.007992000000000002574 ) ;
#117 = DIRECTION ( 'NONE',  ( 1.000000000000000000, 0.0000000000000000000, 0.0000000000000000000 ) ) ;
#118 = UNCERTAINTY_MEASURE_WITH_UNIT (LENGTH_MEASURE( 1.000000000000000082E-05 ), #287, 'distance_accuracy_value', 'NONE');
#119 = VERTEX_POINT ( 'NONE', #207 ) ;
#120 = EDGE_LOOP ( 'NONE', ( #278, #157, #274, #200 ) ) ;
#121 = SURFACE_STYLE_USAGE ( .BOTH. , #1 ) ;
#122 = DIMENSIONAL_EXPONENTS ( 1.000000000000000000, 0.0000000000000000000, 0.0000000000000000000, 0.0000000000000000000, 0.0000000000000000000, 0.0000000000000000000, 0.0000000000000000000 ) ;
#123 = DIRECTION ( 'NONE',  ( -1.000000000000000000, 0.0000000000000000000, 0.0000000000000000000 ) ) ;
#124 = CARTESIAN_POINT ( 'NONE',  ( 1.198608018303357353E-34, 0.0000000000000000000, 9.787377218785652154E-19 ) ) ;
#125 = PLANE ( 'NONE',  #131 ) ;
#126 = DIRECTION ( 'NONE',  ( -1.000000000000000000, 0.0000000000000000000, 0.0000000000000000000 ) ) ;
#127 = LINE ( 'NONE', #229, #283 ) ;
#128 = CARTESIAN_POINT ( 'NONE',  ( 0.0000000000000000000, 0.0000000000000000000, 0.0000000000000000000 ) ) ;
#129 = CARTESIAN_POINT ( 'NONE',  ( 0.0000000000000000000, 0.0000000000000000000, 1.500000000000000222 ) ) ;
#130 = PRODUCT_RELATED_PRODUCT_CATEGORY ( 'part', '', ( #152 ) ) ;
#131 = AXIS2_PLACEMENT_3D ( 'NONE', #187, #32, #10 ) ;
#132 = SURFACE_SIDE_STYLE ('',( #85 ) ) ;
#133 = ORIENTED_EDGE ( 'NONE', *, *, #114, .T. ) ;
#134 = EDGE_CURVE ( 'NONE', #55, #69, #165, .T. ) ;
#135 = COLOUR_RGB ( '',0.7921568627450980005, 0.8196078431372548767, 0.9333333333333333481 ) ;
#136 = CARTESIAN_POINT ( 'NONE',  ( 4.373583923425194285E-17, 0.0000000000000000000, 0.3571302294237206354 ) ) ;
#137 = FACE_OUTER_BOUND ( 'NONE', #3, .T. ) ;
#138 = ORIENTED_EDGE ( 'NONE', *, *, #34, .T. ) ;
#139 = ADVANCED_FACE ( 'NONE', ( #106 ), #59, .T. ) ;
#140 = AXIS2_PLACEMENT_3D ( 'NONE', #62, #66, #8 ) ;
#141 = ORIENTED_EDGE ( 'NONE', *, *, #279, .T. ) ;
#142 = APPLICATION_CONTEXT ( 'automotive_design' ) ;
#143 = ORIENTED_EDGE ( 'NONE', *, *, #17, .T. ) ;
#144 = ORIENTED_EDGE ( 'NONE', *, *, #4, .F. ) ;
#145 = DIRECTION ( 'NONE',  ( 1.000000000000000000, 0.0000000000000000000, 0.0000000000000000000 ) ) ;
#146 = VECTOR ( 'NONE', #186, 39.37007874015748143 ) ;
#147 = CARTESIAN_POINT ( 'NONE',  ( 0.0000000000000000000, 0.0000000000000000000, 0.0000000000000000000 ) ) ;
#148 = DIRECTION ( 'NONE',  ( 1.000000000000000000, 0.0000000000000000000, 0.0000000000000000000 ) ) ;
#149 = CARTESIAN_POINT ( 'NONE',  ( 0.0000000000000000000, 0.0000000000000000000, 1.500000000000000222 ) ) ;
#150 = CIRCLE ( 'NONE', #64, 0.007992000000000002574 ) ;
#151 = DIRECTION ( 'NONE',  ( 1.000000000000000000, 0.0000000000000000000, -0.0000000000000000000 ) ) ;
#152 = PRODUCT ( 'Micro_RME-016-2', 'Micro_RME-016-2', '', ( #291 ) ) ;
#153 = LINE ( 'NONE', #112, #295 ) ;
#154 = ADVANCED_FACE ( 'NONE', ( #212 ), #286, .T. ) ;
#155 = AXIS2_PLACEMENT_3D ( 'NONE', #33, #57, #145 ) ;
#156 =( NAMED_UNIT ( * ) PLANE_ANGLE_UNIT ( ) SI_UNIT ( $, .RADIAN. ) );
#157 = ORIENTED_EDGE ( 'NONE', *, *, #298, .T. ) ;
#158 = LINE ( 'NONE', #192, #254 ) ;
#159 = ADVANCED_FACE ( 'NONE', ( #213 ), #280, .T. ) ;
#160 = EDGE_LOOP ( 'NONE', ( #43, #96, #199, #299 ) ) ;
#161 = ORIENTED_EDGE ( 'NONE', *, *, #196, .F. ) ;
#162 = ORIENTED_EDGE ( 'NONE', *, *, #60, .T. ) ;
#163 = VERTEX_POINT ( 'NONE', #185 ) ;
#164 = DIRECTION ( 'NONE',  ( -1.000000000000000000, 0.0000000000000000000, 1.224646799147353454E-16 ) ) ;
#165 = LINE ( 'NONE', #102, #166 ) ;
#166 = VECTOR ( 'NONE', #255, 39.37007874015748854 ) ;
#167 = AXIS2_PLACEMENT_3D ( 'NONE', #128, #261, #11 ) ;
#168 = CARTESIAN_POINT ( 'NONE',  ( -0.007991999999999995635, 4.316390108274762921E-18, 0.04800000000000000100 ) ) ;
#169 = PRESENTATION_STYLE_ASSIGNMENT (( #121 ) ) ;
#170 = CARTESIAN_POINT ( 'NONE',  ( 0.04750000000000064587, 6.735557395310483192E-18, 1.500000000000000222 ) ) ;
#171 =( NAMED_UNIT ( * ) SI_UNIT ( $, .STERADIAN. ) SOLID_ANGLE_UNIT ( ) );
#172 = FACE_OUTER_BOUND ( 'NONE', #271, .T. ) ;
#173 = AXIS2_PLACEMENT_3D ( 'NONE', #242, #268, #220 ) ;
#174 = MECHANICAL_DESIGN_GEOMETRIC_PRESENTATION_REPRESENTATION (  '', ( #42 ), #180 ) ;
#175 = DIRECTION ( 'NONE',  ( -0.0000000000000000000, -0.0000000000000000000, -1.000000000000000000 ) ) ;
#176 = FACE_OUTER_BOUND ( 'NONE', #98, .T. ) ;
#177 = AXIS2_PLACEMENT_3D ( 'NONE', #136, #262, #67 ) ;
#178 = FILL_AREA_STYLE_COLOUR ( '', #135 ) ;
#179 = AXIS2_PLACEMENT_3D ( 'NONE', #189, #234, #164 ) ;
#180 =( GEOMETRIC_REPRESENTATION_CONTEXT ( 3 ) GLOBAL_UNCERTAINTY_ASSIGNED_CONTEXT ( ( #118 ) ) GLOBAL_UNIT_ASSIGNED_CONTEXT ( ( #287, #20, #171 ) ) REPRESENTATION_CONTEXT ( 'NONE', 'WORKASPACE' ) );
#181 = ORIENTED_EDGE ( 'NONE', *, *, #34, .F. ) ;
#182 = ORIENTED_EDGE ( 'NONE', *, *, #294, .F. ) ;
#183 = VERTEX_POINT ( 'NONE', #256 ) ;
#184 = ORIENTED_EDGE ( 'NONE', *, *, #252, .F. ) ;
#185 = CARTESIAN_POINT ( 'NONE',  ( 0.007992000000000007778, 0.0000000000000000000, 0.04800000000000000100 ) ) ;
#186 = DIRECTION ( 'NONE',  ( -0.0000000000000000000, -0.0000000000000000000, -1.000000000000000000 ) ) ;
#187 = CARTESIAN_POINT ( 'NONE',  ( 0.0000000000000000000, 0.0000000000000000000, 0.0000000000000000000 ) ) ;
#188 =( LENGTH_UNIT ( ) NAMED_UNIT ( * ) SI_UNIT ( $, .METRE. ) );
#189 = CARTESIAN_POINT ( 'NONE',  ( 0.0000000000000000000, 0.0000000000000000000, 0.0000000000000000000 ) ) ;
#190 = DIRECTION ( 'NONE',  ( -1.224646799147353454E-16, -0.0000000000000000000, -1.000000000000000000 ) ) ;
#191 = DIRECTION ( 'NONE',  ( 0.0000000000000000000, 0.0000000000000000000, 1.000000000000000000 ) ) ;
#192 = CARTESIAN_POINT ( 'NONE',  ( 0.06250000000000002776, 7.654042494670959086E-18, 1.500000000000000222 ) ) ;
#193 = APPLICATION_PROTOCOL_DEFINITION ( 'draft international standard', 'automotive_design', 1998, #142 ) ;
#194 =( LENGTH_UNIT ( ) NAMED_UNIT ( * ) SI_UNIT ( $, .METRE. ) );
#195 = ORIENTED_EDGE ( 'NONE', *, *, #12, .F. ) ;
#196 = EDGE_CURVE ( 'NONE', #163, #183, #127, .T. ) ;
#197 = CARTESIAN_POINT ( 'NONE',  ( 0.0000000000000000000, 0.0000000000000000000, 1.500000000000000222 ) ) ;
#198 = AXIS2_PLACEMENT_3D ( 'NONE', #203, #6, #269 ) ;
#199 = ORIENTED_EDGE ( 'NONE', *, *, #219, .F. ) ;
#200 = ORIENTED_EDGE ( 'NONE', *, *, #70, .F. ) ;
#201 = ORIENTED_EDGE ( 'NONE', *, *, #114, .F. ) ;
#202 = STYLED_ITEM ( 'NONE', ( #68 ), #267 ) ;
#203 = CARTESIAN_POINT ( 'NONE',  ( 0.0000000000000000000, 0.0000000000000000000, 1.485000000000000764 ) ) ;
#204 = CARTESIAN_POINT ( 'NONE',  ( 0.007992000000000002574, 9.787377218785648302E-19, -9.787377218785652154E-19 ) ) ;
#205 = ADVANCED_FACE ( 'NONE', ( #15 ), #109, .T. ) ;
#206 = LENGTH_MEASURE_WITH_UNIT ( LENGTH_MEASURE( 0.02539999999999999897 ), #194 );
#207 = CARTESIAN_POINT ( 'NONE',  ( -0.06249999999999997918, 0.0000000000000000000, 0.3571302294237206354 ) ) ;
#208 = DIRECTION ( 'NONE',  ( -1.000000000000000000, 0.0000000000000000000, 1.224646799147353454E-16 ) ) ;
#209 = AXIS2_PLACEMENT_3D ( 'NONE', #147, #78, #231 ) ;
#210 = CIRCLE ( 'NONE', #177, 0.06250000000000002776 ) ;
#211 = CARTESIAN_POINT ( 'NONE',  ( 5.878304635907297015E-18, 0.0000000000000000000, 0.04800000000000000100 ) ) ;
#212 = FACE_OUTER_BOUND ( 'NONE', #239, .T. ) ;
#213 = FACE_OUTER_BOUND ( 'NONE', #2, .T. ) ;
#214 = DIRECTION ( 'NONE',  ( 0.0000000000000000000, 0.0000000000000000000, -1.000000000000000000 ) ) ;
#215 = PRESENTATION_LAYER_ASSIGNMENT (  '', '', ( #202 ) ) ;
#216 = DIRECTION ( 'NONE',  ( -1.000000000000000000, 0.0000000000000000000, 0.0000000000000000000 ) ) ;
#217 = EDGE_CURVE ( 'NONE', #77, #55, #95, .T. ) ;
#218 = ORIENTED_EDGE ( 'NONE', *, *, #273, .F. ) ;
#219 = EDGE_CURVE ( 'NONE', #69, #74, #25, .T. ) ;
#220 = DIRECTION ( 'NONE',  ( -1.000000000000000000, 0.0000000000000000000, 0.0000000000000000000 ) ) ;
#221 = DIRECTION ( 'NONE',  ( 1.224646799147353454E-16, 0.0000000000000000000, 1.000000000000000000 ) ) ;
#222 = VERTEX_POINT ( 'NONE', #168 ) ;
#223 = CIRCLE ( 'NONE', #18, 0.04750000000000064587 ) ;
#224 = VECTOR ( 'NONE', #190, 39.37007874015748143 ) ;
#225 = ORIENTED_EDGE ( 'NONE', *, *, #12, .T. ) ;
#226 = ORIENTED_EDGE ( 'NONE', *, *, #107, .F. ) ;
#227 = CARTESIAN_POINT ( 'NONE',  ( 5.878304635907297015E-18, 0.0000000000000000000, 0.04800000000000000100 ) ) ;
#228 = AXIS2_PLACEMENT_3D ( 'NONE', #94, #214, #216 ) ;
#229 = CARTESIAN_POINT ( 'NONE',  ( 0.007992000000000007778, 0.0000000000000000000, 0.04800000000000000100 ) ) ;
#230 = ADVANCED_FACE ( 'NONE', ( #93 ), #260, .T. ) ;
#231 = DIRECTION ( 'NONE',  ( -1.000000000000000000, 0.0000000000000000000, 1.224646799147353454E-16 ) ) ;
#232 = CARTESIAN_POINT ( 'NONE',  ( -0.04750000000000064587, 0.0000000000000000000, 1.500000000000000222 ) ) ;
#233 = ADVANCED_FACE ( 'NONE', ( #236 ), #246, .T. ) ;
#234 = DIRECTION ( 'NONE',  ( -1.224646799147353454E-16, -0.0000000000000000000, -1.000000000000000000 ) ) ;
#235 = DIRECTION ( 'NONE',  ( -1.224646799147353454E-16, -0.0000000000000000000, -1.000000000000000000 ) ) ;
#236 = FACE_OUTER_BOUND ( 'NONE', #48, .T. ) ;
#237 = CONICAL_SURFACE ( 'NONE', #264, 0.007992000000000002574, 0.1745329251994338637 ) ;
#238 = PRODUCT_DEFINITION ( 'UNKNOWN', '', #277, #72 ) ;
#239 = EDGE_LOOP ( 'NONE', ( #275, #23, #76, #182 ) ) ;
#240 = ADVANCED_FACE ( 'NONE', ( #176 ), #258, .T. ) ;
#241 = MECHANICAL_DESIGN_GEOMETRIC_PRESENTATION_REPRESENTATION (  '', ( #202 ), #270 ) ;
#242 = CARTESIAN_POINT ( 'NONE',  ( 0.0000000000000000000, 0.0000000000000000000, 1.500000000000000222 ) ) ;
#243 = CARTESIAN_POINT ( 'NONE',  ( 5.878304635907297015E-18, 0.0000000000000000000, 0.04800000000000000100 ) ) ;
#244 = LINE ( 'NONE', #27, #80 ) ;
#245 = VERTEX_POINT ( 'NONE', #290 ) ;
#246 = CONICAL_SURFACE ( 'NONE', #173, 0.04750000000000064587, 0.7853981633974466137 ) ;
#247 =( GEOMETRIC_REPRESENTATION_CONTEXT ( 3 ) GLOBAL_UNCERTAINTY_ASSIGNED_CONTEXT ( ( #46 ) ) GLOBAL_UNIT_ASSIGNED_CONTEXT ( ( #9, #7, #272 ) ) REPRESENTATION_CONTEXT ( 'NONE', 'WORKASPACE' ) );
#248 = EDGE_LOOP ( 'NONE', ( #218, #225, #250, #201 ) ) ;
#249 = FILL_AREA_STYLE_COLOUR ( '', #45 ) ;
#250 = ORIENTED_EDGE ( 'NONE', *, *, #107, .T. ) ;
#251 = UNCERTAINTY_MEASURE_WITH_UNIT (LENGTH_MEASURE( 1.000000000000000082E-05 ), #111, 'distance_accuracy_value', 'NONE');
#252 = EDGE_CURVE ( 'NONE', #77, #74, #153, .T. ) ;
#253 = LINE ( 'NONE', #37, #146 ) ;
#254 = VECTOR ( 'NONE', #175, 39.37007874015748143 ) ;
#255 = DIRECTION ( 'NONE',  ( -0.7071067811865462405, 0.0000000000000000000, -0.7071067811865486830 ) ) ;
#256 = CARTESIAN_POINT ( 'NONE',  ( 0.06250000000000006939, 7.654042494670963708E-18, 0.3571302294237206354 ) ) ;
#257 = DIRECTION ( 'NONE',  ( -1.000000000000000000, 0.0000000000000000000, 0.0000000000000000000 ) ) ;
#258 = CONICAL_SURFACE ( 'NONE', #40, 0.007992000000000002574, 0.1745329251994338637 ) ;
#259 = LINE ( 'NONE', #204, #44 ) ;
#260 = CONICAL_SURFACE ( 'NONE', #228, 0.04750000000000064587, 0.7853981633974466137 ) ;
#261 = DIRECTION ( 'NONE',  ( 0.0000000000000000000, 0.0000000000000000000, 1.000000000000000000 ) ) ;
#262 = DIRECTION ( 'NONE',  ( -1.224646799147353454E-16, -0.0000000000000000000, -1.000000000000000000 ) ) ;
#263 = CARTESIAN_POINT ( 'NONE',  ( -0.007992000000000002574, 0.0000000000000000000, 1.957475443757130431E-18 ) ) ;
#264 = AXIS2_PLACEMENT_3D ( 'NONE', #243, #221, #115 ) ;
#265 = DIRECTION ( 'NONE',  ( -1.000000000000000000, 0.0000000000000000000, 0.0000000000000000000 ) ) ;
#266 = VERTEX_POINT ( 'NONE', #263 ) ;
#267 = MANIFOLD_SOLID_BREP ( 'Cut-Revolve1', #282 ) ;
#268 = DIRECTION ( 'NONE',  ( 0.0000000000000000000, 0.0000000000000000000, -1.000000000000000000 ) ) ;
#269 = DIRECTION ( 'NONE',  ( 1.000000000000000000, 0.0000000000000000000, 0.0000000000000000000 ) ) ;
#270 =( GEOMETRIC_REPRESENTATION_CONTEXT ( 3 ) GLOBAL_UNCERTAINTY_ASSIGNED_CONTEXT ( ( #251 ) ) GLOBAL_UNIT_ASSIGNED_CONTEXT ( ( #111, #156, #293 ) ) REPRESENTATION_CONTEXT ( 'NONE', 'WORKASPACE' ) );
#271 = EDGE_LOOP ( 'NONE', ( #29, #75, #28, #226 ) ) ;
#272 =( NAMED_UNIT ( * ) SI_UNIT ( $, .STERADIAN. ) SOLID_ANGLE_UNIT ( ) );
#273 = EDGE_CURVE ( 'NONE', #74, #183, #158, .T. ) ;
#274 = ORIENTED_EDGE ( 'NONE', *, *, #294, .T. ) ;
#275 = ORIENTED_EDGE ( 'NONE', *, *, #4, .T. ) ;
#276 = AXIS2_PLACEMENT_3D ( 'NONE', #79, #235, #208 ) ;
#277 = PRODUCT_DEFINITION_FORMATION_WITH_SPECIFIED_SOURCE ( 'ANY', '', #152, .NOT_KNOWN. ) ;
#278 = ORIENTED_EDGE ( 'NONE', *, *, #92, .F. ) ;
#279 = EDGE_CURVE ( 'NONE', #119, #183, #210, .T. ) ;
#280 = PLANE ( 'NONE',  #52 ) ;
#281 = DIRECTION ( 'NONE',  ( 0.1736481776669313581, 0.0000000000000000000, 0.9848077530122077983 ) ) ;
#282 = CLOSED_SHELL ( 'NONE', ( #154, #22, #230, #87, #139, #159, #233, #240, #205, #54 ) ) ;
#283 = VECTOR ( 'NONE', #281, 39.37007874015748143 ) ;
#284 = ADVANCED_BREP_SHAPE_REPRESENTATION ( 'Micro_RME-016-2', ( #267, #167 ), #247 ) ;
#285 = CARTESIAN_POINT ( 'NONE',  ( 0.0000000000000000000, 0.0000000000000000000, 1.485000000000000764 ) ) ;
#286 = CYLINDRICAL_SURFACE ( 'NONE', #179, 0.007992000000000002574 ) ;
#287 =( CONVERSION_BASED_UNIT ( 'INCH', #108 ) LENGTH_UNIT ( ) NAMED_UNIT ( #61 ) );
#288 = DIRECTION ( 'NONE',  ( -0.0000000000000000000, -0.0000000000000000000, -1.000000000000000000 ) ) ;
#289 = FILL_AREA_STYLE ('',( #249 ) ) ;
#290 = CARTESIAN_POINT ( 'NONE',  ( 0.007992000000000002574, 9.787377218785648302E-19, 0.0000000000000000000 ) ) ;
#291 = PRODUCT_CONTEXT ( 'NONE', #142, 'mechanical' ) ;
#292 = LINE ( 'NONE', #86, #224 ) ;
#293 =( NAMED_UNIT ( * ) SI_UNIT ( $, .STERADIAN. ) SOLID_ANGLE_UNIT ( ) );
#294 = EDGE_CURVE ( 'NONE', #222, #266, #292, .T. ) ;
#295 = VECTOR ( 'NONE', #110, 39.37007874015748854 ) ;
#296 = DIRECTION ( 'NONE',  ( 0.0000000000000000000, 0.0000000000000000000, 1.000000000000000000 ) ) ;
#297 = CIRCLE ( 'NONE', #58, 0.007992000000000002574 ) ;
#298 = EDGE_CURVE ( 'NONE', #163, #222, #53, .T. ) ;
#299 = ORIENTED_EDGE ( 'NONE', *, *, #134, .F. ) ;
ENDSEC;
END-ISO-10303-21;
