ISO-10303-21;
HEADER;
FILE_DESCRIPTION (( 'STEP AP214' ),
    '1' );
FILE_NAME ('48425.STEP',
    '2023-06-22T21:34:20',
    ( '' ),
    ( '' ),
    'SwSTEP 2.0',
    'SolidWorks 2023',
    '' );
FILE_SCHEMA (( 'AUTOMOTIVE_DESIGN' ));
ENDSEC;

DATA;
#1 = DIRECTION ( 'NONE',  ( 0.000000000000000000, 1.000000000000000000, 0.000000000000000000 ) ) ;
#2 = ORIENTED_EDGE ( 'NONE', *, *, #266, .F. ) ;
#3 = EDGE_CURVE ( 'NONE', #169, #245, #207, .T. ) ;
#4 = MECHANICAL_DESIGN_GEOMETRIC_PRESENTATION_REPRESENTATION (  '', ( #23 ), #182 ) ;
#5 = PRODUCT_DEFINITION_FORMATION_WITH_SPECIFIED_SOURCE ( 'ANY', '', #267, .NOT_KNOWN. ) ;
#6 = DIMENSIONAL_EXPONENTS ( 1.000000000000000000, 0.000000000000000000, 0.000000000000000000, 0.000000000000000000, 0.000000000000000000, 0.000000000000000000, 0.000000000000000000 ) ;
#7 = DIRECTION ( 'NONE',  ( -5.156407575357275916E-17, 1.000000000000000000, 0.000000000000000000 ) ) ;
#8 = ORIENTED_EDGE ( 'NONE', *, *, #101, .F. ) ;
#9 = DIRECTION ( 'NONE',  ( -5.156407575357275299E-17, 1.000000000000000000, -0.000000000000000000 ) ) ;
#10 = APPLICATION_CONTEXT ( 'automotive_design' ) ;
#11 =( NAMED_UNIT ( * ) PLANE_ANGLE_UNIT ( ) SI_UNIT ( $, .RADIAN. ) );
#12 = CARTESIAN_POINT ( 'NONE',  ( 0.000000000000000000, 0.000000000000000000, 0.000000000000000000 ) ) ;
#13 = MECHANICAL_DESIGN_GEOMETRIC_PRESENTATION_REPRESENTATION (  '', ( #181 ), #144 ) ;
#14 = PRESENTATION_LAYER_ASSIGNMENT (  '', '', ( #142 ) ) ;
#15 = PRESENTATION_STYLE_ASSIGNMENT (( #151 ) ) ;
#16 = DIRECTION ( 'NONE',  ( -1.000000000000000000, 0.000000000000000000, 0.000000000000000000 ) ) ;
#17 = LENGTH_MEASURE_WITH_UNIT ( LENGTH_MEASURE( 0.02539999999999999897 ), #19 );
#18 = PLANE ( 'NONE',  #203 ) ;
#19 =( LENGTH_UNIT ( ) NAMED_UNIT ( * ) SI_UNIT ( $, .METRE. ) );
#20 = AXIS2_PLACEMENT_3D ( 'NONE', #260, #268, #106 ) ;
#21 =( NAMED_UNIT ( * ) PLANE_ANGLE_UNIT ( ) SI_UNIT ( $, .RADIAN. ) );
#22 = SURFACE_SIDE_STYLE ('',( #138 ) ) ;
#23 = STYLED_ITEM ( 'NONE', ( #307 ), #44 ) ;
#24 = CARTESIAN_POINT ( 'NONE',  ( 0.000000000000000000, 1.625000000000000000, 0.000000000000000000 ) ) ;
#25 = LENGTH_MEASURE_WITH_UNIT ( LENGTH_MEASURE( 0.02539999999999999897 ), #158 );
#26 = EDGE_LOOP ( 'NONE', ( #256, #29, #213, #293 ) ) ;
#27 = VECTOR ( 'NONE', #204, 39.37007874015748143 ) ;
#28 = LENGTH_MEASURE_WITH_UNIT ( LENGTH_MEASURE( 0.02539999999999999897 ), #276 );
#29 = ORIENTED_EDGE ( 'NONE', *, *, #253, .T. ) ;
#30 = DIRECTION ( 'NONE',  ( -5.156407575357275299E-17, 1.000000000000000000, -0.000000000000000000 ) ) ;
#31 = CARTESIAN_POINT ( 'NONE',  ( 0.000000000000000000, 0.000000000000000000, 0.000000000000000000 ) ) ;
#32 = EDGE_CURVE ( 'NONE', #49, #124, #83, .T. ) ;
#33 = FACE_OUTER_BOUND ( 'NONE', #184, .T. ) ;
#34 = DIRECTION ( 'NONE',  ( 0.000000000000000000, 0.000000000000000000, -1.000000000000000000 ) ) ;
#35 = LINE ( 'NONE', #159, #273 ) ;
#36 = MECHANICAL_DESIGN_GEOMETRIC_PRESENTATION_REPRESENTATION (  '', ( #295 ), #280 ) ;
#37 =( CONVERSION_BASED_UNIT ( 'INCH', #262 ) LENGTH_UNIT ( ) NAMED_UNIT ( #217 ) );
#38 = LENGTH_MEASURE_WITH_UNIT ( LENGTH_MEASURE( 0.02539999999999999897 ), #143 );
#39 = FILL_AREA_STYLE ('',( #237 ) ) ;
#40 = STYLED_ITEM ( 'NONE', ( #299 ), #146 ) ;
#41 = AXIS2_PLACEMENT_3D ( 'NONE', #59, #229, #257 ) ;
#42 = MANIFOLD_SOLID_BREP ( 'Revolve - Tool Body (Straight Shanked)', #68 ) ;
#43 = SURFACE_STYLE_USAGE ( .BOTH. , #22 ) ;
#44 = ADVANCED_FACE ( 'NONE', ( #238 ), #114, .T. ) ;
#45 = ORIENTED_EDGE ( 'NONE', *, *, #187, .T. ) ;
#46 =( CONVERSION_BASED_UNIT ( 'INCH', #149 ) LENGTH_UNIT ( ) NAMED_UNIT ( #6 ) );
#47 = AXIS2_PLACEMENT_3D ( 'NONE', #74, #154, #170 ) ;
#48 = ADVANCED_FACE ( 'NONE', ( #97 ), #192, .F. ) ;
#49 = VERTEX_POINT ( 'NONE', #292 ) ;
#50 = VERTEX_POINT ( 'NONE', #73 ) ;
#51 =( GEOMETRIC_REPRESENTATION_CONTEXT ( 3 ) GLOBAL_UNCERTAINTY_ASSIGNED_CONTEXT ( ( #208 ) ) GLOBAL_UNIT_ASSIGNED_CONTEXT ( ( #300, #225, #178 ) ) REPRESENTATION_CONTEXT ( 'NONE', 'WORKASPACE' ) );
#52 = ORIENTED_EDGE ( 'NONE', *, *, #67, .F. ) ;
#53 = APPLICATION_CONTEXT ( 'automotive_design' ) ;
#54 = DIRECTION ( 'NONE',  ( 0.000000000000000000, 0.000000000000000000, -1.000000000000000000 ) ) ;
#55 = CARTESIAN_POINT ( 'NONE',  ( -0.2500000000000000555, 1.625000000000000000, 0.000000000000000000 ) ) ;
#56 = DIRECTION ( 'NONE',  ( -0.000000000000000000, -1.000000000000000000, -0.000000000000000000 ) ) ;
#57 = ORIENTED_EDGE ( 'NONE', *, *, #242, .F. ) ;
#58 = CYLINDRICAL_SURFACE ( 'NONE', #108, 0.2500000000000001110 ) ;
#59 = CARTESIAN_POINT ( 'NONE',  ( 0.000000000000000000, 0.000000000000000000, 0.000000000000000000 ) ) ;
#60 = UNCERTAINTY_MEASURE_WITH_UNIT (LENGTH_MEASURE( 1.000000000000000082E-05 ), #37, 'distance_accuracy_value', 'NONE');
#61 =( LENGTH_UNIT ( ) NAMED_UNIT ( * ) SI_UNIT ( $, .METRE. ) );
#62 = ADVANCED_BREP_SHAPE_REPRESENTATION ( '48425', ( #148, #42, #120 ), #191 ) ;
#63 = SURFACE_STYLE_FILL_AREA ( #306 ) ;
#64 = CIRCLE ( 'NONE', #270, 0.2500000000000000000 ) ;
#65 = PRODUCT_DEFINITION_CONTEXT ( 'detailed design', #10, 'design' ) ;
#66 =( LENGTH_UNIT ( ) NAMED_UNIT ( * ) SI_UNIT ( $, .METRE. ) );
#67 = EDGE_CURVE ( 'NONE', #124, #49, #140, .T. ) ;
#68 = CLOSED_SHELL ( 'NONE', ( #88, #48, #290, #134 ) ) ;
#69 = AXIS2_PLACEMENT_3D ( 'NONE', #183, #244, #215 ) ;
#70 = ORIENTED_EDGE ( 'NONE', *, *, #32, .T. ) ;
#71 = ORIENTED_EDGE ( 'NONE', *, *, #202, .T. ) ;
#72 = ORIENTED_EDGE ( 'NONE', *, *, #3, .T. ) ;
#73 = CARTESIAN_POINT ( 'NONE',  ( 0.2500000000000000555, 4.000000000000000000, 3.061616997868384867E-17 ) ) ;
#74 = CARTESIAN_POINT ( 'NONE',  ( 3.032960542342103792E-32, 1.625000000000000000, 0.000000000000000000 ) ) ;
#75 = FACE_OUTER_BOUND ( 'NONE', #252, .T. ) ;
#76 = ORIENTED_EDGE ( 'NONE', *, *, #99, .T. ) ;
#77 = CARTESIAN_POINT ( 'NONE',  ( -1.224646799147352714E-16, 4.000000000000000000, 0.000000000000000000 ) ) ;
#78 = CARTESIAN_POINT ( 'NONE',  ( 3.061616997868383018E-17, 0.000000000000000000, 0.2500000000000000000 ) ) ;
#79 = ORIENTED_EDGE ( 'NONE', *, *, #282, .F. ) ;
#80 = EDGE_CURVE ( 'NONE', #245, #169, #64, .T. ) ;
#81 = DIRECTION ( 'NONE',  ( -1.000000000000000000, 0.000000000000000000, 0.000000000000000000 ) ) ;
#82 = DIRECTION ( 'NONE',  ( 5.156407575357275916E-17, -1.000000000000000000, 0.000000000000000000 ) ) ;
#83 = CIRCLE ( 'NONE', #186, 0.2500000000000000555 ) ;
#84 = CIRCLE ( 'NONE', #298, 0.2500000000000000555 ) ;
#85 = SURFACE_STYLE_FILL_AREA ( #185 ) ;
#86 = UNCERTAINTY_MEASURE_WITH_UNIT (LENGTH_MEASURE( 1.000000000000000082E-05 ), #265, 'distance_accuracy_value', 'NONE');
#87 = CARTESIAN_POINT ( 'NONE',  ( 0.000000000000000000, 0.000000000000000000, -0.2500000000000000000 ) ) ;
#88 = ADVANCED_FACE ( 'NONE', ( #250 ), #58, .T. ) ;
#89 = UNCERTAINTY_MEASURE_WITH_UNIT (LENGTH_MEASURE( 1.000000000000000082E-05 ), #46, 'distance_accuracy_value', 'NONE');
#90 = ORIENTED_EDGE ( 'NONE', *, *, #253, .F. ) ;
#91 = LENGTH_MEASURE_WITH_UNIT ( LENGTH_MEASURE( 0.02539999999999999897 ), #66 );
#92 = CARTESIAN_POINT ( 'NONE',  ( -0.2500000000000002220, 4.000000000000000000, 0.000000000000000000 ) ) ;
#93 = PRESENTATION_LAYER_ASSIGNMENT (  '', '', ( #168 ) ) ;
#94 = LINE ( 'NONE', #92, #96 ) ;
#95 = DIMENSIONAL_EXPONENTS ( 1.000000000000000000, 0.000000000000000000, 0.000000000000000000, 0.000000000000000000, 0.000000000000000000, 0.000000000000000000, 0.000000000000000000 ) ;
#96 = VECTOR ( 'NONE', #246, 39.37007874015748143 ) ;
#97 = FACE_OUTER_BOUND ( 'NONE', #152, .T. ) ;
#98 = ORIENTED_EDGE ( 'NONE', *, *, #202, .F. ) ;
#99 = EDGE_CURVE ( 'NONE', #50, #131, #175, .T. ) ;
#100 = FILL_AREA_STYLE ('',( #294 ) ) ;
#101 = EDGE_CURVE ( 'NONE', #131, #50, #190, .T. ) ;
#102 = ORIENTED_EDGE ( 'NONE', *, *, #101, .T. ) ;
#103 = CARTESIAN_POINT ( 'NONE',  ( -0.2500000000000002776, 4.000000000000000000, 0.000000000000000000 ) ) ;
#104 = SURFACE_SIDE_STYLE ('',( #173 ) ) ;
#105 =( NAMED_UNIT ( * ) SI_UNIT ( $, .STERADIAN. ) SOLID_ANGLE_UNIT ( ) );
#106 = DIRECTION ( 'NONE',  ( 0.000000000000000000, 0.000000000000000000, -1.000000000000000000 ) ) ;
#107 = SURFACE_STYLE_USAGE ( .BOTH. , #104 ) ;
#108 = AXIS2_PLACEMENT_3D ( 'NONE', #200, #126, #81 ) ;
#109 = APPLICATION_PROTOCOL_DEFINITION ( 'draft international standard', 'automotive_design', 1998, #53 ) ;
#110 = PRODUCT_DEFINITION ( 'UNKNOWN', '', #5, #65 ) ;
#111 = DIRECTION ( 'NONE',  ( 0.000000000000000000, 0.000000000000000000, 1.000000000000000000 ) ) ;
#112 = FILL_AREA_STYLE ('',( #263 ) ) ;
#113 = DIRECTION ( 'NONE',  ( -0.000000000000000000, -1.000000000000000000, -0.000000000000000000 ) ) ;
#114 = PLANE ( 'NONE',  #196 ) ;
#115 = PRODUCT_DEFINITION_SHAPE ( 'NONE', 'NONE',  #110 ) ;
#116 = VERTEX_POINT ( 'NONE', #132 ) ;
#117 =( NAMED_UNIT ( * ) SI_UNIT ( $, .STERADIAN. ) SOLID_ANGLE_UNIT ( ) );
#118 = CARTESIAN_POINT ( 'NONE',  ( 3.061616997868383634E-17, 1.625000000000000000, 0.2500000000000000555 ) ) ;
#119 = VECTOR ( 'NONE', #176, 39.37007874015748143 ) ;
#120 = AXIS2_PLACEMENT_3D ( 'NONE', #137, #111, #285 ) ;
#121 = DIMENSIONAL_EXPONENTS ( 1.000000000000000000, 0.000000000000000000, 0.000000000000000000, 0.000000000000000000, 0.000000000000000000, 0.000000000000000000, 0.000000000000000000 ) ;
#122 = AXIS2_PLACEMENT_3D ( 'NONE', #248, #7, #193 ) ;
#123 = FILL_AREA_STYLE_COLOUR ( '', #288 ) ;
#124 = VERTEX_POINT ( 'NONE', #55 ) ;
#125 =( NAMED_UNIT ( * ) PLANE_ANGLE_UNIT ( ) SI_UNIT ( $, .RADIAN. ) );
#126 = DIRECTION ( 'NONE',  ( -5.156407575357275299E-17, 1.000000000000000000, -0.000000000000000000 ) ) ;
#127 = DIRECTION ( 'NONE',  ( 0.000000000000000000, 0.000000000000000000, -1.000000000000000000 ) ) ;
#128 = COLOUR_RGB ( '',0.7921568627450980005, 0.8196078431372548767, 0.9333333333333333481 ) ;
#129 = DIRECTION ( 'NONE',  ( -1.000000000000000000, 0.000000000000000000, 0.000000000000000000 ) ) ;
#130 = PRODUCT_RELATED_PRODUCT_CATEGORY ( 'part', '', ( #267 ) ) ;
#131 = VERTEX_POINT ( 'NONE', #103 ) ;
#132 = CARTESIAN_POINT ( 'NONE',  ( 0.000000000000000000, 1.625000000000000000, -0.2500000000000000555 ) ) ;
#133 = SURFACE_SIDE_STYLE ('',( #85 ) ) ;
#134 = ADVANCED_FACE ( 'NONE', ( #231 ), #18, .F. ) ;
#135 = CIRCLE ( 'NONE', #308, 0.2500000000000000555 ) ;
#136 = PRESENTATION_STYLE_ASSIGNMENT (( #234 ) ) ;
#137 = CARTESIAN_POINT ( 'NONE',  ( 0.000000000000000000, 0.000000000000000000, 0.000000000000000000 ) ) ;
#138 = SURFACE_STYLE_FILL_AREA ( #112 ) ;
#139 = AXIS2_PLACEMENT_3D ( 'NONE', #31, #230, #127 ) ;
#140 = CIRCLE ( 'NONE', #47, 0.2500000000000000555 ) ;
#141 =( NAMED_UNIT ( * ) SI_UNIT ( $, .STERADIAN. ) SOLID_ANGLE_UNIT ( ) );
#142 = STYLED_ITEM ( 'NONE', ( #155 ), #304 ) ;
#143 =( LENGTH_UNIT ( ) NAMED_UNIT ( * ) SI_UNIT ( $, .METRE. ) );
#144 =( GEOMETRIC_REPRESENTATION_CONTEXT ( 3 ) GLOBAL_UNCERTAINTY_ASSIGNED_CONTEXT ( ( #180 ) ) GLOBAL_UNIT_ASSIGNED_CONTEXT ( ( #218, #11, #240 ) ) REPRESENTATION_CONTEXT ( 'NONE', 'WORKASPACE' ) );
#145 =( NAMED_UNIT ( * ) PLANE_ANGLE_UNIT ( ) SI_UNIT ( $, .RADIAN. ) );
#146 = ADVANCED_FACE ( 'NONE', ( #33 ), #157, .T. ) ;
#147 = DIRECTION ( 'NONE',  ( -5.156407575357275299E-17, 1.000000000000000000, -0.000000000000000000 ) ) ;
#148 = MANIFOLD_SOLID_BREP ( 'Revolve - Cutting Edge', #283 ) ;
#149 = LENGTH_MEASURE_WITH_UNIT ( LENGTH_MEASURE( 0.02539999999999999897 ), #236 );
#150 = AXIS2_PLACEMENT_3D ( 'NONE', #77, #278, #129 ) ;
#151 = SURFACE_STYLE_USAGE ( .BOTH. , #194 ) ;
#152 = EDGE_LOOP ( 'NONE', ( #52, #269 ) ) ;
#153 = LINE ( 'NONE', #78, #27 ) ;
#154 = DIRECTION ( 'NONE',  ( -5.156407575357275299E-17, 1.000000000000000000, -0.000000000000000000 ) ) ;
#155 = PRESENTATION_STYLE_ASSIGNMENT (( #107 ) ) ;
#156 =( GEOMETRIC_REPRESENTATION_CONTEXT ( 3 ) GLOBAL_UNCERTAINTY_ASSIGNED_CONTEXT ( ( #60 ) ) GLOBAL_UNIT_ASSIGNED_CONTEXT ( ( #37, #235, #206 ) ) REPRESENTATION_CONTEXT ( 'NONE', 'WORKASPACE' ) );
#157 = PLANE ( 'NONE',  #20 ) ;
#158 =( LENGTH_UNIT ( ) NAMED_UNIT ( * ) SI_UNIT ( $, .METRE. ) );
#159 = CARTESIAN_POINT ( 'NONE',  ( 0.000000000000000000, 0.000000000000000000, -0.2500000000000000000 ) ) ;
#160 = PRESENTATION_LAYER_ASSIGNMENT (  '', '', ( #295 ) ) ;
#161 = SURFACE_SIDE_STYLE ('',( #63 ) ) ;
#162 = COLOUR_RGB ( '',1.000000000000000000, 0.000000000000000000, 0.000000000000000000 ) ;
#163 = UNCERTAINTY_MEASURE_WITH_UNIT (LENGTH_MEASURE( 1.000000000000000082E-05 ), #296, 'distance_accuracy_value', 'NONE');
#164 = ORIENTED_EDGE ( 'NONE', *, *, #99, .F. ) ;
#165 = DIRECTION ( 'NONE',  ( -0.000000000000000000, -1.000000000000000000, -0.000000000000000000 ) ) ;
#166 = DIMENSIONAL_EXPONENTS ( 1.000000000000000000, 0.000000000000000000, 0.000000000000000000, 0.000000000000000000, 0.000000000000000000, 0.000000000000000000, 0.000000000000000000 ) ;
#167 = SURFACE_STYLE_FILL_AREA ( #197 ) ;
#168 = STYLED_ITEM ( 'NONE', ( #136 ), #148 ) ;
#169 = VERTEX_POINT ( 'NONE', #87 ) ;
#170 = DIRECTION ( 'NONE',  ( -1.000000000000000000, 0.000000000000000000, 0.000000000000000000 ) ) ;
#171 = DIRECTION ( 'NONE',  ( 0.000000000000000000, 0.000000000000000000, -1.000000000000000000 ) ) ;
#172 = EDGE_LOOP ( 'NONE', ( #57, #2 ) ) ;
#173 = SURFACE_STYLE_FILL_AREA ( #100 ) ;
#174 =( CONVERSION_BASED_UNIT ( 'INCH', #91 ) LENGTH_UNIT ( ) NAMED_UNIT ( #166 ) );
#175 = CIRCLE ( 'NONE', #261, 0.2500000000000001665 ) ;
#176 = DIRECTION ( 'NONE',  ( -5.156407575357275916E-17, 1.000000000000000000, -0.000000000000000000 ) ) ;
#177 = SURFACE_SIDE_STYLE ('',( #301 ) ) ;
#178 =( NAMED_UNIT ( * ) SI_UNIT ( $, .STERADIAN. ) SOLID_ANGLE_UNIT ( ) );
#179 = SURFACE_STYLE_USAGE ( .BOTH. , #177 ) ;
#180 = UNCERTAINTY_MEASURE_WITH_UNIT (LENGTH_MEASURE( 1.000000000000000082E-05 ), #218, 'distance_accuracy_value', 'NONE');
#181 = STYLED_ITEM ( 'NONE', ( #209 ), #188 ) ;
#182 =( GEOMETRIC_REPRESENTATION_CONTEXT ( 3 ) GLOBAL_UNCERTAINTY_ASSIGNED_CONTEXT ( ( #89 ) ) GLOBAL_UNIT_ASSIGNED_CONTEXT ( ( #46, #145, #117 ) ) REPRESENTATION_CONTEXT ( 'NONE', 'WORKASPACE' ) );
#183 = CARTESIAN_POINT ( 'NONE',  ( 0.000000000000000000, 0.000000000000000000, 0.000000000000000000 ) ) ;
#184 = EDGE_LOOP ( 'NONE', ( #72, #274 ) ) ;
#185 = FILL_AREA_STYLE ('',( #305 ) ) ;
#186 = AXIS2_PLACEMENT_3D ( 'NONE', #227, #147, #277 ) ;
#187 = EDGE_CURVE ( 'NONE', #116, #169, #35, .T. ) ;
#188 = ADVANCED_FACE ( 'NONE', ( #284 ), #211, .T. ) ;
#189 = DIRECTION ( 'NONE',  ( 0.000000000000000000, -0.000000000000000000, 1.000000000000000000 ) ) ;
#190 = CIRCLE ( 'NONE', #150, 0.2500000000000001665 ) ;
#191 =( GEOMETRIC_REPRESENTATION_CONTEXT ( 3 ) GLOBAL_UNCERTAINTY_ASSIGNED_CONTEXT ( ( #163 ) ) GLOBAL_UNIT_ASSIGNED_CONTEXT ( ( #296, #125, #105 ) ) REPRESENTATION_CONTEXT ( 'NONE', 'WORKASPACE' ) );
#192 = PLANE ( 'NONE',  #122 ) ;
#193 = DIRECTION ( 'NONE',  ( -1.000000000000000000, -5.156407575357275916E-17, 0.000000000000000000 ) ) ;
#194 = SURFACE_SIDE_STYLE ('',( #167 ) ) ;
#195 = DIRECTION ( 'NONE',  ( -1.000000000000000000, 0.000000000000000000, 0.000000000000000000 ) ) ;
#196 = AXIS2_PLACEMENT_3D ( 'NONE', #24, #1, #189 ) ;
#197 = FILL_AREA_STYLE ('',( #291 ) ) ;
#198 = CYLINDRICAL_SURFACE ( 'NONE', #41, 0.2500000000000000000 ) ;
#199 = ORIENTED_EDGE ( 'NONE', *, *, #266, .T. ) ;
#200 = CARTESIAN_POINT ( 'NONE',  ( -1.224646799147352714E-16, 4.000000000000000000, 0.000000000000000000 ) ) ;
#201 = CARTESIAN_POINT ( 'NONE',  ( 3.061616997868383018E-17, 0.000000000000000000, 0.2500000000000000000 ) ) ;
#202 = EDGE_CURVE ( 'NONE', #124, #131, #94, .T. ) ;
#203 = AXIS2_PLACEMENT_3D ( 'NONE', #297, #82, #258 ) ;
#204 = DIRECTION ( 'NONE',  ( -0.000000000000000000, -1.000000000000000000, -0.000000000000000000 ) ) ;
#205 =( NAMED_UNIT ( * ) SI_UNIT ( $, .STERADIAN. ) SOLID_ANGLE_UNIT ( ) );
#206 =( NAMED_UNIT ( * ) SI_UNIT ( $, .STERADIAN. ) SOLID_ANGLE_UNIT ( ) );
#207 = CIRCLE ( 'NONE', #139, 0.2500000000000000000 ) ;
#208 = UNCERTAINTY_MEASURE_WITH_UNIT (LENGTH_MEASURE( 1.000000000000000082E-05 ), #300, 'distance_accuracy_value', 'NONE');
#209 = PRESENTATION_STYLE_ASSIGNMENT (( #43 ) ) ;
#210 = PRODUCT_CONTEXT ( 'NONE', #53, 'mechanical' ) ;
#211 = CYLINDRICAL_SURFACE ( 'NONE', #69, 0.2500000000000000000 ) ;
#212 = DIMENSIONAL_EXPONENTS ( 1.000000000000000000, 0.000000000000000000, 0.000000000000000000, 0.000000000000000000, 0.000000000000000000, 0.000000000000000000, 0.000000000000000000 ) ;
#213 = ORIENTED_EDGE ( 'NONE', *, *, #3, .F. ) ;
#214 = SURFACE_STYLE_USAGE ( .BOTH. , #161 ) ;
#215 = DIRECTION ( 'NONE',  ( 0.000000000000000000, 0.000000000000000000, -1.000000000000000000 ) ) ;
#216 = MECHANICAL_DESIGN_GEOMETRIC_PRESENTATION_REPRESENTATION (  '', ( #40 ), #247 ) ;
#217 = DIMENSIONAL_EXPONENTS ( 1.000000000000000000, 0.000000000000000000, 0.000000000000000000, 0.000000000000000000, 0.000000000000000000, 0.000000000000000000, 0.000000000000000000 ) ;
#218 =( CONVERSION_BASED_UNIT ( 'INCH', #25 ) LENGTH_UNIT ( ) NAMED_UNIT ( #286 ) );
#219 = PRESENTATION_LAYER_ASSIGNMENT (  '', '', ( #40 ) ) ;
#220 = ORIENTED_EDGE ( 'NONE', *, *, #80, .F. ) ;
#221 = EDGE_LOOP ( 'NONE', ( #90, #199, #45, #220 ) ) ;
#222 = CYLINDRICAL_SURFACE ( 'NONE', #271, 0.2500000000000001110 ) ;
#223 = VERTEX_POINT ( 'NONE', #118 ) ;
#224 = CARTESIAN_POINT ( 'NONE',  ( -1.224646799147352714E-16, 4.000000000000000000, 0.000000000000000000 ) ) ;
#225 =( NAMED_UNIT ( * ) PLANE_ANGLE_UNIT ( ) SI_UNIT ( $, .RADIAN. ) );
#226 = COLOUR_RGB ( '',1.000000000000000000, 0.000000000000000000, 0.000000000000000000 ) ;
#227 = CARTESIAN_POINT ( 'NONE',  ( 3.032960542342103792E-32, 1.625000000000000000, 0.000000000000000000 ) ) ;
#228 = MECHANICAL_DESIGN_GEOMETRIC_PRESENTATION_REPRESENTATION (  '', ( #142 ), #51 ) ;
#229 = DIRECTION ( 'NONE',  ( -0.000000000000000000, -1.000000000000000000, -0.000000000000000000 ) ) ;
#230 = DIRECTION ( 'NONE',  ( -0.000000000000000000, -1.000000000000000000, -0.000000000000000000 ) ) ;
#231 = FACE_OUTER_BOUND ( 'NONE', #249, .T. ) ;
#232 = CARTESIAN_POINT ( 'NONE',  ( -1.224646799147352714E-16, 4.000000000000000000, 0.000000000000000000 ) ) ;
#233 = CARTESIAN_POINT ( 'NONE',  ( 0.000000000000000000, 1.625000000000000000, 0.000000000000000000 ) ) ;
#234 = SURFACE_STYLE_USAGE ( .BOTH. , #133 ) ;
#235 =( NAMED_UNIT ( * ) PLANE_ANGLE_UNIT ( ) SI_UNIT ( $, .RADIAN. ) );
#236 =( LENGTH_UNIT ( ) NAMED_UNIT ( * ) SI_UNIT ( $, .METRE. ) );
#237 = FILL_AREA_STYLE_COLOUR ( '', #226 ) ;
#238 = FACE_OUTER_BOUND ( 'NONE', #172, .T. ) ;
#239 = COLOUR_RGB ( '',1.000000000000000000, 0.000000000000000000, 0.000000000000000000 ) ;
#240 =( NAMED_UNIT ( * ) SI_UNIT ( $, .STERADIAN. ) SOLID_ANGLE_UNIT ( ) );
#241 = UNCERTAINTY_MEASURE_WITH_UNIT (LENGTH_MEASURE( 1.000000000000000082E-05 ), #174, 'distance_accuracy_value', 'NONE');
#242 = EDGE_CURVE ( 'NONE', #116, #223, #84, .T. ) ;
#243 = EDGE_LOOP ( 'NONE', ( #287, #272, #8, #98 ) ) ;
#244 = DIRECTION ( 'NONE',  ( -0.000000000000000000, -1.000000000000000000, -0.000000000000000000 ) ) ;
#245 = VERTEX_POINT ( 'NONE', #201 ) ;
#246 = DIRECTION ( 'NONE',  ( -5.156407575357275916E-17, 1.000000000000000000, -0.000000000000000000 ) ) ;
#247 =( GEOMETRIC_REPRESENTATION_CONTEXT ( 3 ) GLOBAL_UNCERTAINTY_ASSIGNED_CONTEXT ( ( #86 ) ) GLOBAL_UNIT_ASSIGNED_CONTEXT ( ( #265, #21, #205 ) ) REPRESENTATION_CONTEXT ( 'NONE', 'WORKASPACE' ) );
#248 = CARTESIAN_POINT ( 'NONE',  ( 3.323567385400236968E-34, 1.625000000000000000, 0.000000000000000000 ) ) ;
#249 = EDGE_LOOP ( 'NONE', ( #102, #76 ) ) ;
#250 = FACE_OUTER_BOUND ( 'NONE', #243, .T. ) ;
#251 = FACE_OUTER_BOUND ( 'NONE', #26, .T. ) ;
#252 = EDGE_LOOP ( 'NONE', ( #79, #70, #71, #164 ) ) ;
#253 = EDGE_CURVE ( 'NONE', #223, #245, #153, .T. ) ;
#254 = COLOUR_RGB ( '',0.7921568627450980005, 0.8196078431372548767, 0.9333333333333333481 ) ;
#255 = PRESENTATION_LAYER_ASSIGNMENT (  '', '', ( #23 ) ) ;
#256 = ORIENTED_EDGE ( 'NONE', *, *, #242, .T. ) ;
#257 = DIRECTION ( 'NONE',  ( 0.000000000000000000, 0.000000000000000000, -1.000000000000000000 ) ) ;
#258 = DIRECTION ( 'NONE',  ( 1.000000000000000000, 5.156407575357275916E-17, 0.000000000000000000 ) ) ;
#259 = LINE ( 'NONE', #279, #119 ) ;
#260 = CARTESIAN_POINT ( 'NONE',  ( 0.000000000000000000, 0.000000000000000000, 0.000000000000000000 ) ) ;
#261 = AXIS2_PLACEMENT_3D ( 'NONE', #224, #30, #16 ) ;
#262 = LENGTH_MEASURE_WITH_UNIT ( LENGTH_MEASURE( 0.02539999999999999897 ), #61 );
#263 = FILL_AREA_STYLE_COLOUR ( '', #239 ) ;
#264 = APPLICATION_PROTOCOL_DEFINITION ( 'draft international standard', 'automotive_design', 1998, #10 ) ;
#265 =( CONVERSION_BASED_UNIT ( 'INCH', #38 ) LENGTH_UNIT ( ) NAMED_UNIT ( #212 ) );
#266 = EDGE_CURVE ( 'NONE', #223, #116, #135, .T. ) ;
#267 = PRODUCT ( '48425', '48425', '', ( #210 ) ) ;
#268 = DIRECTION ( 'NONE',  ( 0.000000000000000000, -1.000000000000000000, -0.000000000000000000 ) ) ;
#269 = ORIENTED_EDGE ( 'NONE', *, *, #32, .F. ) ;
#270 = AXIS2_PLACEMENT_3D ( 'NONE', #12, #275, #54 ) ;
#271 = AXIS2_PLACEMENT_3D ( 'NONE', #232, #9, #195 ) ;
#272 = ORIENTED_EDGE ( 'NONE', *, *, #282, .T. ) ;
#273 = VECTOR ( 'NONE', #113, 39.37007874015748143 ) ;
#274 = ORIENTED_EDGE ( 'NONE', *, *, #80, .T. ) ;
#275 = DIRECTION ( 'NONE',  ( -0.000000000000000000, -1.000000000000000000, -0.000000000000000000 ) ) ;
#276 =( LENGTH_UNIT ( ) NAMED_UNIT ( * ) SI_UNIT ( $, .METRE. ) );
#277 = DIRECTION ( 'NONE',  ( -1.000000000000000000, 0.000000000000000000, 0.000000000000000000 ) ) ;
#278 = DIRECTION ( 'NONE',  ( -5.156407575357275299E-17, 1.000000000000000000, -0.000000000000000000 ) ) ;
#279 = CARTESIAN_POINT ( 'NONE',  ( 0.2499999999999999722, 4.000000000000000000, 3.061616997868384251E-17 ) ) ;
#280 =( GEOMETRIC_REPRESENTATION_CONTEXT ( 3 ) GLOBAL_UNCERTAINTY_ASSIGNED_CONTEXT ( ( #241 ) ) GLOBAL_UNIT_ASSIGNED_CONTEXT ( ( #174, #281, #141 ) ) REPRESENTATION_CONTEXT ( 'NONE', 'WORKASPACE' ) );
#281 =( NAMED_UNIT ( * ) PLANE_ANGLE_UNIT ( ) SI_UNIT ( $, .RADIAN. ) );
#282 = EDGE_CURVE ( 'NONE', #49, #50, #259, .T. ) ;
#283 = CLOSED_SHELL ( 'NONE', ( #304, #44, #188, #146 ) ) ;
#284 = FACE_OUTER_BOUND ( 'NONE', #221, .T. ) ;
#285 = DIRECTION ( 'NONE',  ( 1.000000000000000000, 0.000000000000000000, 0.000000000000000000 ) ) ;
#286 = DIMENSIONAL_EXPONENTS ( 1.000000000000000000, 0.000000000000000000, 0.000000000000000000, 0.000000000000000000, 0.000000000000000000, 0.000000000000000000, 0.000000000000000000 ) ;
#287 = ORIENTED_EDGE ( 'NONE', *, *, #67, .T. ) ;
#288 = COLOUR_RGB ( '',1.000000000000000000, 0.000000000000000000, 0.000000000000000000 ) ;
#289 = MECHANICAL_DESIGN_GEOMETRIC_PRESENTATION_REPRESENTATION (  '', ( #168 ), #156 ) ;
#290 = ADVANCED_FACE ( 'NONE', ( #75 ), #222, .T. ) ;
#291 = FILL_AREA_STYLE_COLOUR ( '', #254 ) ;
#292 = CARTESIAN_POINT ( 'NONE',  ( 0.2500000000000000555, 1.625000000000000000, 3.061616997868384867E-17 ) ) ;
#293 = ORIENTED_EDGE ( 'NONE', *, *, #187, .F. ) ;
#294 = FILL_AREA_STYLE_COLOUR ( '', #162 ) ;
#295 = STYLED_ITEM ( 'NONE', ( #15 ), #42 ) ;
#296 =( CONVERSION_BASED_UNIT ( 'INCH', #17 ) LENGTH_UNIT ( ) NAMED_UNIT ( #121 ) );
#297 = CARTESIAN_POINT ( 'NONE',  ( 0.2500000000000000555, 4.000000000000000000, 0.000000000000000000 ) ) ;
#298 = AXIS2_PLACEMENT_3D ( 'NONE', #309, #165, #34 ) ;
#299 = PRESENTATION_STYLE_ASSIGNMENT (( #179 ) ) ;
#300 =( CONVERSION_BASED_UNIT ( 'INCH', #28 ) LENGTH_UNIT ( ) NAMED_UNIT ( #95 ) );
#301 = SURFACE_STYLE_FILL_AREA ( #39 ) ;
#302 = SHAPE_DEFINITION_REPRESENTATION ( #115, #62 ) ;
#303 = PRESENTATION_LAYER_ASSIGNMENT (  '', '', ( #181 ) ) ;
#304 = ADVANCED_FACE ( 'NONE', ( #251 ), #198, .T. ) ;
#305 = FILL_AREA_STYLE_COLOUR ( '', #128 ) ;
#306 = FILL_AREA_STYLE ('',( #123 ) ) ;
#307 = PRESENTATION_STYLE_ASSIGNMENT (( #214 ) ) ;
#308 = AXIS2_PLACEMENT_3D ( 'NONE', #233, #56, #171 ) ;
#309 = CARTESIAN_POINT ( 'NONE',  ( 0.000000000000000000, 1.625000000000000000, 0.000000000000000000 ) ) ;
ENDSEC;
END-ISO-10303-21;
