ISO-10303-21;
HEADER;
FILE_DESCRIPTION (( 'STEP AP214' ),
    '1' );
FILE_NAME ('84601.STEP',
    '2023-07-12T13:10:19',
    ( '' ),
    ( '' ),
    'SwSTEP 2.0',
    'SolidWorks 2023',
    '' );
FILE_SCHEMA (( 'AUTOMOTIVE_DESIGN' ));
ENDSEC;

DATA;
#1 = SURFACE_STYLE_FILL_AREA ( #31 ) ;
#2 = STYLED_ITEM ( 'NONE', ( #139 ), #98 ) ;
#3 = FACE_OUTER_BOUND ( 'NONE', #276, .T. ) ;
#4 = SURFACE_SIDE_STYLE ('',( #30 ) ) ;
#5 = DIRECTION ( 'NONE',  ( -1.000000000000000000, 0.000000000000000000, 0.000000000000000000 ) ) ;
#6 = VERTEX_POINT ( 'NONE', #223 ) ;
#7 = PRODUCT_DEFINITION_CONTEXT ( 'detailed design', #135, 'design' ) ;
#8 = DIRECTION ( 'NONE',  ( 1.000000000000000000, 2.168184519554202467E-33, 0.000000000000000000 ) ) ;
#9 = LENGTH_MEASURE_WITH_UNIT ( LENGTH_MEASURE( 0.02539999999999999897 ), #209 );
#10 = DIRECTION ( 'NONE',  ( -1.213712763141083641E-16, 1.000000000000000000, -0.000000000000000000 ) ) ;
#11 = ADVANCED_FACE ( 'NONE', ( #132 ), #251, .T. ) ;
#12 = VERTEX_POINT ( 'NONE', #281 ) ;
#13 = LINE ( 'NONE', #149, #216 ) ;
#14 = ORIENTED_EDGE ( 'NONE', *, *, #52, .F. ) ;
#15 = VECTOR ( 'NONE', #128, 39.37007874015748143 ) ;
#16 = DIRECTION ( 'NONE',  ( 1.213712763141083641E-16, -1.000000000000000000, 0.000000000000000000 ) ) ;
#17 = EDGE_LOOP ( 'NONE', ( #125, #39, #253, #247 ) ) ;
#18 = STYLED_ITEM ( 'NONE', ( #113 ), #11 ) ;
#19 = EDGE_CURVE ( 'NONE', #67, #198, #71, .T. ) ;
#20 = CARTESIAN_POINT ( 'NONE',  ( 0.02999999999999999889, 0.000000000000000000, 3.673940397442059190E-18 ) ) ;
#21 = LENGTH_MEASURE_WITH_UNIT ( LENGTH_MEASURE( 0.02539999999999999897 ), #211 );
#22 = FILL_AREA_STYLE ('',( #159 ) ) ;
#23 = AXIS2_PLACEMENT_3D ( 'NONE', #34, #86, #197 ) ;
#24 = SURFACE_SIDE_STYLE ('',( #73 ) ) ;
#25 = MECHANICAL_DESIGN_GEOMETRIC_PRESENTATION_REPRESENTATION (  '', ( #306 ), #169 ) ;
#26 = AXIS2_PLACEMENT_3D ( 'NONE', #168, #309, #99 ) ;
#27 =( CONVERSION_BASED_UNIT ( 'INCH', #46 ) LENGTH_UNIT ( ) NAMED_UNIT ( #72 ) );
#28 = DIRECTION ( 'NONE',  ( 2.168184519554202125E-33, -1.000000000000000000, -0.000000000000000000 ) ) ;
#29 = PRESENTATION_LAYER_ASSIGNMENT (  '', '', ( #2 ) ) ;
#30 = SURFACE_STYLE_FILL_AREA ( #146 ) ;
#31 = FILL_AREA_STYLE ('',( #217 ) ) ;
#32 = CARTESIAN_POINT ( 'NONE',  ( 0.1249999999999999861, 0.1092849986859956990, 1.530808498934191509E-17 ) ) ;
#33 = AXIS2_PLACEMENT_3D ( 'NONE', #62, #156, #8 ) ;
#34 = CARTESIAN_POINT ( 'NONE',  ( 2.289317910553982969E-16, 0.1092849986859956851, 0.000000000000000000 ) ) ;
#35 = DIRECTION ( 'NONE',  ( -2.168184519554202125E-33, 1.000000000000000000, 0.000000000000000000 ) ) ;
#36 = CIRCLE ( 'NONE', #123, 0.1250000000000000555 ) ;
#37 = FILL_AREA_STYLE_COLOUR ( '', #278 ) ;
#38 = FACE_OUTER_BOUND ( 'NONE', #158, .T. ) ;
#39 = ORIENTED_EDGE ( 'NONE', *, *, #52, .T. ) ;
#40 = ADVANCED_FACE ( 'NONE', ( #210 ), #283, .T. ) ;
#41 = AXIS2_PLACEMENT_3D ( 'NONE', #277, #118, #237 ) ;
#42 = ORIENTED_EDGE ( 'NONE', *, *, #249, .T. ) ;
#43 = LENGTH_MEASURE_WITH_UNIT ( LENGTH_MEASURE( 0.02539999999999999897 ), #182 );
#44 = DIRECTION ( 'NONE',  ( 1.000000000000000000, 2.168184519554202467E-33, 0.000000000000000000 ) ) ;
#45 = CIRCLE ( 'NONE', #302, 0.1250000000000000000 ) ;
#46 = LENGTH_MEASURE_WITH_UNIT ( LENGTH_MEASURE( 0.02539999999999999897 ), #186 );
#47 =( GEOMETRIC_REPRESENTATION_CONTEXT ( 3 ) GLOBAL_UNCERTAINTY_ASSIGNED_CONTEXT ( ( #91 ) ) GLOBAL_UNIT_ASSIGNED_CONTEXT ( ( #27, #188, #126 ) ) REPRESENTATION_CONTEXT ( 'NONE', 'WORKASPACE' ) );
#48 = SURFACE_STYLE_FILL_AREA ( #215 ) ;
#49 = CARTESIAN_POINT ( 'NONE',  ( 1.410307233250345916E-67, -6.504553558662607101E-35, 0.000000000000000000 ) ) ;
#50 = EDGE_CURVE ( 'NONE', #134, #226, #36, .T. ) ;
#51 =( NAMED_UNIT ( * ) PLANE_ANGLE_UNIT ( ) SI_UNIT ( $, .RADIAN. ) );
#52 = EDGE_CURVE ( 'NONE', #110, #6, #264, .T. ) ;
#53 =( NAMED_UNIT ( * ) PLANE_ANGLE_UNIT ( ) SI_UNIT ( $, .RADIAN. ) );
#54 = PRODUCT_DEFINITION_SHAPE ( 'NONE', 'NONE',  #173 ) ;
#55 = CYLINDRICAL_SURFACE ( 'NONE', #147, 0.1249999999999999306 ) ;
#56 = CONICAL_SURFACE ( 'NONE', #93, 0.02999999999999999889, 0.7155849933176765543 ) ;
#57 = STYLED_ITEM ( 'NONE', ( #242 ), #107 ) ;
#58 = DIRECTION ( 'NONE',  ( -1.213712763141083641E-16, 1.000000000000000000, -0.000000000000000000 ) ) ;
#59 = LINE ( 'NONE', #103, #266 ) ;
#60 = CARTESIAN_POINT ( 'NONE',  ( -6.123233995736766036E-17, 2.500000000000000000, 0.000000000000000000 ) ) ;
#61 = AXIS2_PLACEMENT_3D ( 'NONE', #60, #10, #5 ) ;
#62 = CARTESIAN_POINT ( 'NONE',  ( 1.410307233250345916E-67, -6.504553558662607101E-35, 0.000000000000000000 ) ) ;
#63 = VECTOR ( 'NONE', #115, 39.37007874015748143 ) ;
#64 = ORIENTED_EDGE ( 'NONE', *, *, #304, .F. ) ;
#65 =( LENGTH_UNIT ( ) NAMED_UNIT ( * ) SI_UNIT ( $, .METRE. ) );
#66 = EDGE_LOOP ( 'NONE', ( #295, #102 ) ) ;
#67 = VERTEX_POINT ( 'NONE', #212 ) ;
#68 =( NAMED_UNIT ( * ) PLANE_ANGLE_UNIT ( ) SI_UNIT ( $, .RADIAN. ) );
#69 = SURFACE_SIDE_STYLE ('',( #48 ) ) ;
#70 =( NAMED_UNIT ( * ) SI_UNIT ( $, .STERADIAN. ) SOLID_ANGLE_UNIT ( ) );
#71 = LINE ( 'NONE', #20, #63 ) ;
#72 = DIMENSIONAL_EXPONENTS ( 1.000000000000000000, 0.000000000000000000, 0.000000000000000000, 0.000000000000000000, 0.000000000000000000, 0.000000000000000000, 0.000000000000000000 ) ;
#73 = SURFACE_STYLE_FILL_AREA ( #22 ) ;
#74 = PLANE ( 'NONE',  #26 ) ;
#75 = SURFACE_SIDE_STYLE ('',( #1 ) ) ;
#76 = CONICAL_SURFACE ( 'NONE', #248, 0.02999999999999999889, 0.7155849933176765543 ) ;
#77 = DIRECTION ( 'NONE',  ( -1.000000000000000000, -2.168184519554202467E-33, 0.000000000000000000 ) ) ;
#78 = UNCERTAINTY_MEASURE_WITH_UNIT (LENGTH_MEASURE( 1.000000000000000082E-05 ), #298, 'distance_accuracy_value', 'NONE');
#79 = PRESENTATION_STYLE_ASSIGNMENT (( #192 ) ) ;
#80 = ORIENTED_EDGE ( 'NONE', *, *, #144, .T. ) ;
#81 = DIRECTION ( 'NONE',  ( 2.168184519554202125E-33, -1.000000000000000000, -0.000000000000000000 ) ) ;
#82 = ORIENTED_EDGE ( 'NONE', *, *, #19, .F. ) ;
#83 = PRESENTATION_STYLE_ASSIGNMENT (( #222 ) ) ;
#84 =( GEOMETRIC_REPRESENTATION_CONTEXT ( 3 ) GLOBAL_UNCERTAINTY_ASSIGNED_CONTEXT ( ( #200 ) ) GLOBAL_UNIT_ASSIGNED_CONTEXT ( ( #299, #87, #172 ) ) REPRESENTATION_CONTEXT ( 'NONE', 'WORKASPACE' ) );
#85 = ORIENTED_EDGE ( 'NONE', *, *, #282, .F. ) ;
#86 = DIRECTION ( 'NONE',  ( -1.213712763141083641E-16, 1.000000000000000000, -0.000000000000000000 ) ) ;
#87 =( NAMED_UNIT ( * ) PLANE_ANGLE_UNIT ( ) SI_UNIT ( $, .RADIAN. ) );
#88 = SURFACE_STYLE_USAGE ( .BOTH. , #24 ) ;
#89 = DIRECTION ( 'NONE',  ( 2.168184519554202125E-33, -1.000000000000000000, -0.000000000000000000 ) ) ;
#90 = DIRECTION ( 'NONE',  ( -1.000000000000000000, -2.168184519554202125E-33, 0.000000000000000000 ) ) ;
#91 = UNCERTAINTY_MEASURE_WITH_UNIT (LENGTH_MEASURE( 1.000000000000000082E-05 ), #27, 'distance_accuracy_value', 'NONE');
#92 = EDGE_CURVE ( 'NONE', #155, #67, #274, .T. ) ;
#93 = AXIS2_PLACEMENT_3D ( 'NONE', #270, #35, #154 ) ;
#94 = CARTESIAN_POINT ( 'NONE',  ( -6.123233995736766036E-17, 2.500000000000000000, 0.000000000000000000 ) ) ;
#95 = COLOUR_RGB ( '',1.000000000000000000, 0.000000000000000000, 0.000000000000000000 ) ;
#96 = LENGTH_MEASURE_WITH_UNIT ( LENGTH_MEASURE( 0.02539999999999999897 ), #263 );
#97 = AXIS2_PLACEMENT_3D ( 'NONE', #124, #28, #122 ) ;
#98 = MANIFOLD_SOLID_BREP ( 'Revolve - Tool Body (Tipped Off)', #176 ) ;
#99 = DIRECTION ( 'NONE',  ( -1.000000000000000000, -1.213712763141083641E-16, 0.000000000000000000 ) ) ;
#100 = PRODUCT ( '84601', '84601', '', ( #114 ) ) ;
#101 = PLANE ( 'NONE',  #231 ) ;
#102 = ORIENTED_EDGE ( 'NONE', *, *, #166, .T. ) ;
#103 = CARTESIAN_POINT ( 'NONE',  ( -0.1250000000000000000, 2.500000000000000000, 0.000000000000000000 ) ) ;
#104 = EDGE_LOOP ( 'NONE', ( #82, #106, #42, #175 ) ) ;
#105 = FILL_AREA_STYLE_COLOUR ( '', #183 ) ;
#106 = ORIENTED_EDGE ( 'NONE', *, *, #92, .F. ) ;
#107 = ADVANCED_FACE ( 'NONE', ( #240 ), #76, .T. ) ;
#108 = MANIFOLD_SOLID_BREP ( 'Revolve - Cutting Edge', #148 ) ;
#109 = DIRECTION ( 'NONE',  ( -0.6560590289905083861, 0.7547095802227710148, 0.000000000000000000 ) ) ;
#110 = VERTEX_POINT ( 'NONE', #32 ) ;
#111 = CIRCLE ( 'NONE', #33, 0.02999999999999999889 ) ;
#112 = CARTESIAN_POINT ( 'NONE',  ( -2.369500423704769015E-34, 0.1092849986859955602, 0.000000000000000000 ) ) ;
#113 = PRESENTATION_STYLE_ASSIGNMENT (( #230 ) ) ;
#114 = PRODUCT_CONTEXT ( 'NONE', #196, 'mechanical' ) ;
#115 = DIRECTION ( 'NONE',  ( 0.6560590289905083861, 0.7547095802227710148, 8.034405899049467357E-17 ) ) ;
#116 = AXIS2_PLACEMENT_3D ( 'NONE', #260, #261, #138 ) ;
#117 = STYLED_ITEM ( 'NONE', ( #79 ), #108 ) ;
#118 = DIRECTION ( 'NONE',  ( 0.000000000000000000, 0.000000000000000000, 1.000000000000000000 ) ) ;
#119 = ADVANCED_FACE ( 'NONE', ( #3 ), #74, .F. ) ;
#120 =( CONVERSION_BASED_UNIT ( 'INCH', #21 ) LENGTH_UNIT ( ) NAMED_UNIT ( #219 ) );
#121 = DIRECTION ( 'NONE',  ( -1.213712763141083641E-16, 1.000000000000000000, -0.000000000000000000 ) ) ;
#122 = DIRECTION ( 'NONE',  ( 1.000000000000000000, 0.000000000000000000, 0.000000000000000000 ) ) ;
#123 = AXIS2_PLACEMENT_3D ( 'NONE', #94, #121, #303 ) ;
#124 = CARTESIAN_POINT ( 'NONE',  ( -2.369500423704769015E-34, 0.1092849986859955602, 0.000000000000000000 ) ) ;
#125 = ORIENTED_EDGE ( 'NONE', *, *, #179, .F. ) ;
#126 =( NAMED_UNIT ( * ) SI_UNIT ( $, .STERADIAN. ) SOLID_ANGLE_UNIT ( ) );
#127 =( GEOMETRIC_REPRESENTATION_CONTEXT ( 3 ) GLOBAL_UNCERTAINTY_ASSIGNED_CONTEXT ( ( #187 ) ) GLOBAL_UNIT_ASSIGNED_CONTEXT ( ( #120, #68, #70 ) ) REPRESENTATION_CONTEXT ( 'NONE', 'WORKASPACE' ) );
#128 = DIRECTION ( 'NONE',  ( -1.213712763141083641E-16, 1.000000000000000000, -0.000000000000000000 ) ) ;
#129 = CIRCLE ( 'NONE', #257, 0.1250000000000000555 ) ;
#130 = SURFACE_STYLE_FILL_AREA ( #206 ) ;
#131 = FACE_OUTER_BOUND ( 'NONE', #104, .T. ) ;
#132 = FACE_OUTER_BOUND ( 'NONE', #66, .T. ) ;
#133 = CARTESIAN_POINT ( 'NONE',  ( 0.1250000000000000000, 2.500000000000000000, 0.000000000000000000 ) ) ;
#134 = VERTEX_POINT ( 'NONE', #268 ) ;
#135 = APPLICATION_CONTEXT ( 'automotive_design' ) ;
#136 = MECHANICAL_DESIGN_GEOMETRIC_PRESENTATION_REPRESENTATION (  '', ( #57 ), #218 ) ;
#137 = ORIENTED_EDGE ( 'NONE', *, *, #213, .F. ) ;
#138 = DIRECTION ( 'NONE',  ( -1.000000000000000000, -1.365923996832134074E-16, 0.000000000000000000 ) ) ;
#139 = PRESENTATION_STYLE_ASSIGNMENT (( #160 ) ) ;
#140 = CARTESIAN_POINT ( 'NONE',  ( 1.410307233250345916E-67, -6.504553558662607101E-35, 0.000000000000000000 ) ) ;
#141 = AXIS2_PLACEMENT_3D ( 'NONE', #301, #89, #162 ) ;
#142 = SURFACE_STYLE_USAGE ( .BOTH. , #4 ) ;
#143 = STYLED_ITEM ( 'NONE', ( #235 ), #40 ) ;
#144 = EDGE_CURVE ( 'NONE', #198, #12, #236, .T. ) ;
#145 =( NAMED_UNIT ( * ) SI_UNIT ( $, .STERADIAN. ) SOLID_ANGLE_UNIT ( ) );
#146 = FILL_AREA_STYLE ('',( #265 ) ) ;
#147 = AXIS2_PLACEMENT_3D ( 'NONE', #151, #221, #294 ) ;
#148 = CLOSED_SHELL ( 'NONE', ( #107, #40, #234, #11 ) ) ;
#149 = CARTESIAN_POINT ( 'NONE',  ( -0.02999999999999999889, -1.300910711732521420E-34, 0.000000000000000000 ) ) ;
#150 = ORIENTED_EDGE ( 'NONE', *, *, #166, .F. ) ;
#151 = CARTESIAN_POINT ( 'NONE',  ( -6.123233995736766036E-17, 2.500000000000000000, 0.000000000000000000 ) ) ;
#152 = PRESENTATION_LAYER_ASSIGNMENT (  '', '', ( #306 ) ) ;
#153 =( GEOMETRIC_REPRESENTATION_CONTEXT ( 3 ) GLOBAL_UNCERTAINTY_ASSIGNED_CONTEXT ( ( #285 ) ) GLOBAL_UNIT_ASSIGNED_CONTEXT ( ( #288, #51, #145 ) ) REPRESENTATION_CONTEXT ( 'NONE', 'WORKASPACE' ) );
#154 = DIRECTION ( 'NONE',  ( -1.000000000000000000, -2.168184519554202467E-33, 0.000000000000000000 ) ) ;
#155 = VERTEX_POINT ( 'NONE', #194 ) ;
#156 = DIRECTION ( 'NONE',  ( 2.168184519554202125E-33, -1.000000000000000000, -0.000000000000000000 ) ) ;
#157 = ORIENTED_EDGE ( 'NONE', *, *, #179, .T. ) ;
#158 = EDGE_LOOP ( 'NONE', ( #272, #178 ) ) ;
#159 = FILL_AREA_STYLE_COLOUR ( '', #300 ) ;
#160 = SURFACE_STYLE_USAGE ( .BOTH. , #69 ) ;
#161 = APPLICATION_PROTOCOL_DEFINITION ( 'draft international standard', 'automotive_design', 1998, #196 ) ;
#162 = DIRECTION ( 'NONE',  ( 1.000000000000000000, 2.168184519554202125E-33, 0.000000000000000000 ) ) ;
#163 = ADVANCED_FACE ( 'NONE', ( #167 ), #55, .T. ) ;
#164 =( GEOMETRIC_REPRESENTATION_CONTEXT ( 3 ) GLOBAL_UNCERTAINTY_ASSIGNED_CONTEXT ( ( #224 ) ) GLOBAL_UNIT_ASSIGNED_CONTEXT ( ( #233, #238, #185 ) ) REPRESENTATION_CONTEXT ( 'NONE', 'WORKASPACE' ) );
#165 = LENGTH_MEASURE_WITH_UNIT ( LENGTH_MEASURE( 0.02539999999999999897 ), #289 );
#166 = EDGE_CURVE ( 'NONE', #67, #155, #111, .T. ) ;
#167 = FACE_OUTER_BOUND ( 'NONE', #170, .T. ) ;
#168 = CARTESIAN_POINT ( 'NONE',  ( 2.289317910553982969E-16, 0.1092849986859955602, 0.000000000000000000 ) ) ;
#169 =( GEOMETRIC_REPRESENTATION_CONTEXT ( 3 ) GLOBAL_UNCERTAINTY_ASSIGNED_CONTEXT ( ( #78 ) ) GLOBAL_UNIT_ASSIGNED_CONTEXT ( ( #298, #227, #174 ) ) REPRESENTATION_CONTEXT ( 'NONE', 'WORKASPACE' ) );
#170 = EDGE_LOOP ( 'NONE', ( #204, #157, #181, #64 ) ) ;
#171 = CARTESIAN_POINT ( 'NONE',  ( 0.1249999999999999861, 0.1092849986859955602, 1.530808498934191201E-17 ) ) ;
#172 =( NAMED_UNIT ( * ) SI_UNIT ( $, .STERADIAN. ) SOLID_ANGLE_UNIT ( ) );
#173 = PRODUCT_DEFINITION ( 'UNKNOWN', '', #296, #7 ) ;
#174 =( NAMED_UNIT ( * ) SI_UNIT ( $, .STERADIAN. ) SOLID_ANGLE_UNIT ( ) );
#175 = ORIENTED_EDGE ( 'NONE', *, *, #213, .T. ) ;
#176 = CLOSED_SHELL ( 'NONE', ( #163, #119, #202, #259 ) ) ;
#177 = FACE_OUTER_BOUND ( 'NONE', #17, .T. ) ;
#178 = ORIENTED_EDGE ( 'NONE', *, *, #50, .T. ) ;
#179 = EDGE_CURVE ( 'NONE', #110, #134, #244, .T. ) ;
#180 = FILL_AREA_STYLE ('',( #105 ) ) ;
#181 = ORIENTED_EDGE ( 'NONE', *, *, #207, .F. ) ;
#182 =( LENGTH_UNIT ( ) NAMED_UNIT ( * ) SI_UNIT ( $, .METRE. ) );
#183 = COLOUR_RGB ( '',1.000000000000000000, 0.000000000000000000, 0.000000000000000000 ) ;
#184 = PRESENTATION_LAYER_ASSIGNMENT (  '', '', ( #57 ) ) ;
#185 =( NAMED_UNIT ( * ) SI_UNIT ( $, .STERADIAN. ) SOLID_ANGLE_UNIT ( ) );
#186 =( LENGTH_UNIT ( ) NAMED_UNIT ( * ) SI_UNIT ( $, .METRE. ) );
#187 = UNCERTAINTY_MEASURE_WITH_UNIT (LENGTH_MEASURE( 1.000000000000000082E-05 ), #120, 'distance_accuracy_value', 'NONE');
#188 =( NAMED_UNIT ( * ) PLANE_ANGLE_UNIT ( ) SI_UNIT ( $, .RADIAN. ) );
#189 = AXIS2_PLACEMENT_3D ( 'NONE', #256, #305, #90 ) ;
#190 = FILL_AREA_STYLE_COLOUR ( '', #307 ) ;
#191 = CIRCLE ( 'NONE', #23, 0.1249999999999997780 ) ;
#192 = SURFACE_STYLE_USAGE ( .BOTH. , #75 ) ;
#193 = MECHANICAL_DESIGN_GEOMETRIC_PRESENTATION_REPRESENTATION (  '', ( #18 ), #84 ) ;
#194 = CARTESIAN_POINT ( 'NONE',  ( -0.02999999999999999889, -1.300910711732521420E-34, 0.000000000000000000 ) ) ;
#195 = DIMENSIONAL_EXPONENTS ( 1.000000000000000000, 0.000000000000000000, 0.000000000000000000, 0.000000000000000000, 0.000000000000000000, 0.000000000000000000, 0.000000000000000000 ) ;
#196 = APPLICATION_CONTEXT ( 'automotive_design' ) ;
#197 = DIRECTION ( 'NONE',  ( -1.000000000000000000, -1.365923996832134074E-16, 0.000000000000000000 ) ) ;
#198 = VERTEX_POINT ( 'NONE', #171 ) ;
#199 = PRESENTATION_LAYER_ASSIGNMENT (  '', '', ( #117 ) ) ;
#200 = UNCERTAINTY_MEASURE_WITH_UNIT (LENGTH_MEASURE( 1.000000000000000082E-05 ), #299, 'distance_accuracy_value', 'NONE');
#201 = DIRECTION ( 'NONE',  ( -1.213712763141083641E-16, 1.000000000000000000, -0.000000000000000000 ) ) ;
#202 = ADVANCED_FACE ( 'NONE', ( #177 ), #252, .T. ) ;
#203 = LENGTH_MEASURE_WITH_UNIT ( LENGTH_MEASURE( 0.02539999999999999897 ), #65 );
#204 = ORIENTED_EDGE ( 'NONE', *, *, #282, .T. ) ;
#205 = CARTESIAN_POINT ( 'NONE',  ( -6.123233995736766036E-17, 2.500000000000000000, 0.000000000000000000 ) ) ;
#206 = FILL_AREA_STYLE ('',( #37 ) ) ;
#207 = EDGE_CURVE ( 'NONE', #226, #134, #129, .T. ) ;
#208 = DIRECTION ( 'NONE',  ( 1.000000000000000000, 1.213712763141083641E-16, 0.000000000000000000 ) ) ;
#209 =( LENGTH_UNIT ( ) NAMED_UNIT ( * ) SI_UNIT ( $, .METRE. ) );
#210 = FACE_OUTER_BOUND ( 'NONE', #293, .T. ) ;
#211 =( LENGTH_UNIT ( ) NAMED_UNIT ( * ) SI_UNIT ( $, .METRE. ) );
#212 = CARTESIAN_POINT ( 'NONE',  ( 0.02999999999999999889, 0.000000000000000000, 9.491012693391986370E-18 ) ) ;
#213 = EDGE_CURVE ( 'NONE', #12, #198, #45, .T. ) ;
#214 = APPLICATION_PROTOCOL_DEFINITION ( 'draft international standard', 'automotive_design', 1998, #135 ) ;
#215 = FILL_AREA_STYLE ('',( #190 ) ) ;
#216 = VECTOR ( 'NONE', #109, 39.37007874015748143 ) ;
#217 = FILL_AREA_STYLE_COLOUR ( '', #245 ) ;
#218 =( GEOMETRIC_REPRESENTATION_CONTEXT ( 3 ) GLOBAL_UNCERTAINTY_ASSIGNED_CONTEXT ( ( #267 ) ) GLOBAL_UNIT_ASSIGNED_CONTEXT ( ( #287, #53, #220 ) ) REPRESENTATION_CONTEXT ( 'NONE', 'WORKASPACE' ) );
#219 = DIMENSIONAL_EXPONENTS ( 1.000000000000000000, 0.000000000000000000, 0.000000000000000000, 0.000000000000000000, 0.000000000000000000, 0.000000000000000000, 0.000000000000000000 ) ;
#220 =( NAMED_UNIT ( * ) SI_UNIT ( $, .STERADIAN. ) SOLID_ANGLE_UNIT ( ) );
#221 = DIRECTION ( 'NONE',  ( -1.213712763141083641E-16, 1.000000000000000000, -0.000000000000000000 ) ) ;
#222 = SURFACE_STYLE_USAGE ( .BOTH. , #246 ) ;
#223 = CARTESIAN_POINT ( 'NONE',  ( -0.1249999999999995559, 0.1092849986859956712, 0.000000000000000000 ) ) ;
#224 = UNCERTAINTY_MEASURE_WITH_UNIT (LENGTH_MEASURE( 1.000000000000000082E-05 ), #233, 'distance_accuracy_value', 'NONE');
#225 = CARTESIAN_POINT ( 'NONE',  ( 0.1249999999999998612, 2.500000000000000000, 1.530808498934190893E-17 ) ) ;
#226 = VERTEX_POINT ( 'NONE', #243 ) ;
#227 =( NAMED_UNIT ( * ) PLANE_ANGLE_UNIT ( ) SI_UNIT ( $, .RADIAN. ) );
#228 = ORIENTED_EDGE ( 'NONE', *, *, #144, .F. ) ;
#229 = PRODUCT_RELATED_PRODUCT_CATEGORY ( 'part', '', ( #100 ) ) ;
#230 = SURFACE_STYLE_USAGE ( .BOTH. , #275 ) ;
#231 = AXIS2_PLACEMENT_3D ( 'NONE', #133, #16, #208 ) ;
#232 = PRESENTATION_LAYER_ASSIGNMENT (  '', '', ( #18 ) ) ;
#233 =( CONVERSION_BASED_UNIT ( 'INCH', #43 ) LENGTH_UNIT ( ) NAMED_UNIT ( #290 ) );
#234 = ADVANCED_FACE ( 'NONE', ( #131 ), #56, .T. ) ;
#235 = PRESENTATION_STYLE_ASSIGNMENT (( #88 ) ) ;
#236 = CIRCLE ( 'NONE', #97, 0.1250000000000000000 ) ;
#237 = DIRECTION ( 'NONE',  ( 1.000000000000000000, 0.000000000000000000, 0.000000000000000000 ) ) ;
#238 =( NAMED_UNIT ( * ) PLANE_ANGLE_UNIT ( ) SI_UNIT ( $, .RADIAN. ) );
#239 = MECHANICAL_DESIGN_GEOMETRIC_PRESENTATION_REPRESENTATION (  '', ( #117 ), #153 ) ;
#240 = FACE_OUTER_BOUND ( 'NONE', #254, .T. ) ;
#241 = DIRECTION ( 'NONE',  ( -2.168184519554202125E-33, 1.000000000000000000, 0.000000000000000000 ) ) ;
#242 = PRESENTATION_STYLE_ASSIGNMENT (( #142 ) ) ;
#243 = CARTESIAN_POINT ( 'NONE',  ( -0.1250000000000001388, 2.500000000000000000, 0.000000000000000000 ) ) ;
#244 = LINE ( 'NONE', #225, #15 ) ;
#245 = COLOUR_RGB ( '',0.7921568627450980005, 0.8196078431372548767, 0.9333333333333333481 ) ;
#246 = SURFACE_SIDE_STYLE ('',( #250 ) ) ;
#247 = ORIENTED_EDGE ( 'NONE', *, *, #50, .F. ) ;
#248 = AXIS2_PLACEMENT_3D ( 'NONE', #140, #241, #77 ) ;
#249 = EDGE_CURVE ( 'NONE', #155, #12, #13, .T. ) ;
#250 = SURFACE_STYLE_FILL_AREA ( #180 ) ;
#251 = PLANE ( 'NONE',  #141 ) ;
#252 = CYLINDRICAL_SURFACE ( 'NONE', #61, 0.1249999999999999306 ) ;
#253 = ORIENTED_EDGE ( 'NONE', *, *, #304, .T. ) ;
#254 = EDGE_LOOP ( 'NONE', ( #150, #271, #80, #273 ) ) ;
#255 = MECHANICAL_DESIGN_GEOMETRIC_PRESENTATION_REPRESENTATION (  '', ( #143 ), #164 ) ;
#256 = CARTESIAN_POINT ( 'NONE',  ( -2.369500423704768587E-34, 0.1092849986859955463, 0.000000000000000000 ) ) ;
#257 = AXIS2_PLACEMENT_3D ( 'NONE', #205, #58, #297 ) ;
#258 = SHAPE_DEFINITION_REPRESENTATION ( #54, #280 ) ;
#259 = ADVANCED_FACE ( 'NONE', ( #38 ), #101, .F. ) ;
#260 = CARTESIAN_POINT ( 'NONE',  ( 2.289317910553982969E-16, 0.1092849986859956851, 0.000000000000000000 ) ) ;
#261 = DIRECTION ( 'NONE',  ( -1.213712763141083641E-16, 1.000000000000000000, -0.000000000000000000 ) ) ;
#262 = DIMENSIONAL_EXPONENTS ( 1.000000000000000000, 0.000000000000000000, 0.000000000000000000, 0.000000000000000000, 0.000000000000000000, 0.000000000000000000, 0.000000000000000000 ) ;
#263 =( LENGTH_UNIT ( ) NAMED_UNIT ( * ) SI_UNIT ( $, .METRE. ) );
#264 = CIRCLE ( 'NONE', #116, 0.1249999999999997780 ) ;
#265 = FILL_AREA_STYLE_COLOUR ( '', #95 ) ;
#266 = VECTOR ( 'NONE', #201, 39.37007874015748143 ) ;
#267 = UNCERTAINTY_MEASURE_WITH_UNIT (LENGTH_MEASURE( 1.000000000000000082E-05 ), #287, 'distance_accuracy_value', 'NONE');
#268 = CARTESIAN_POINT ( 'NONE',  ( 0.1249999999999999861, 2.500000000000000000, 1.530808498934191509E-17 ) ) ;
#269 = PRESENTATION_LAYER_ASSIGNMENT (  '', '', ( #143 ) ) ;
#270 = CARTESIAN_POINT ( 'NONE',  ( 1.410307233250345916E-67, -6.504553558662607101E-35, 0.000000000000000000 ) ) ;
#271 = ORIENTED_EDGE ( 'NONE', *, *, #19, .T. ) ;
#272 = ORIENTED_EDGE ( 'NONE', *, *, #207, .T. ) ;
#273 = ORIENTED_EDGE ( 'NONE', *, *, #249, .F. ) ;
#274 = CIRCLE ( 'NONE', #286, 0.02999999999999999889 ) ;
#275 = SURFACE_SIDE_STYLE ('',( #130 ) ) ;
#276 = EDGE_LOOP ( 'NONE', ( #85, #14 ) ) ;
#277 = CARTESIAN_POINT ( 'NONE',  ( 0.000000000000000000, 0.000000000000000000, 0.000000000000000000 ) ) ;
#278 = COLOUR_RGB ( '',1.000000000000000000, 0.000000000000000000, 0.000000000000000000 ) ;
#279 = DIRECTION ( 'NONE',  ( 2.168184519554202125E-33, -1.000000000000000000, -0.000000000000000000 ) ) ;
#280 = ADVANCED_BREP_SHAPE_REPRESENTATION ( '84601', ( #108, #98, #41 ), #127 ) ;
#281 = CARTESIAN_POINT ( 'NONE',  ( -0.1249999999999999861, 0.1092849986859955602, 0.000000000000000000 ) ) ;
#282 = EDGE_CURVE ( 'NONE', #6, #110, #191, .T. ) ;
#283 = PLANE ( 'NONE',  #189 ) ;
#284 = DIMENSIONAL_EXPONENTS ( 1.000000000000000000, 0.000000000000000000, 0.000000000000000000, 0.000000000000000000, 0.000000000000000000, 0.000000000000000000, 0.000000000000000000 ) ;
#285 = UNCERTAINTY_MEASURE_WITH_UNIT (LENGTH_MEASURE( 1.000000000000000082E-05 ), #288, 'distance_accuracy_value', 'NONE');
#286 = AXIS2_PLACEMENT_3D ( 'NONE', #49, #279, #44 ) ;
#287 =( CONVERSION_BASED_UNIT ( 'INCH', #96 ) LENGTH_UNIT ( ) NAMED_UNIT ( #262 ) );
#288 =( CONVERSION_BASED_UNIT ( 'INCH', #165 ) LENGTH_UNIT ( ) NAMED_UNIT ( #195 ) );
#289 =( LENGTH_UNIT ( ) NAMED_UNIT ( * ) SI_UNIT ( $, .METRE. ) );
#290 = DIMENSIONAL_EXPONENTS ( 1.000000000000000000, 0.000000000000000000, 0.000000000000000000, 0.000000000000000000, 0.000000000000000000, 0.000000000000000000, 0.000000000000000000 ) ;
#291 = DIRECTION ( 'NONE',  ( 1.000000000000000000, 0.000000000000000000, 0.000000000000000000 ) ) ;
#292 = MECHANICAL_DESIGN_GEOMETRIC_PRESENTATION_REPRESENTATION (  '', ( #2 ), #47 ) ;
#293 = EDGE_LOOP ( 'NONE', ( #137, #228 ) ) ;
#294 = DIRECTION ( 'NONE',  ( -1.000000000000000000, 0.000000000000000000, 0.000000000000000000 ) ) ;
#295 = ORIENTED_EDGE ( 'NONE', *, *, #92, .T. ) ;
#296 = PRODUCT_DEFINITION_FORMATION_WITH_SPECIFIED_SOURCE ( 'ANY', '', #100, .NOT_KNOWN. ) ;
#297 = DIRECTION ( 'NONE',  ( -1.000000000000000000, 0.000000000000000000, 0.000000000000000000 ) ) ;
#298 =( CONVERSION_BASED_UNIT ( 'INCH', #203 ) LENGTH_UNIT ( ) NAMED_UNIT ( #308 ) );
#299 =( CONVERSION_BASED_UNIT ( 'INCH', #9 ) LENGTH_UNIT ( ) NAMED_UNIT ( #284 ) );
#300 = COLOUR_RGB ( '',1.000000000000000000, 0.000000000000000000, 0.000000000000000000 ) ;
#301 = CARTESIAN_POINT ( 'NONE',  ( 7.051536166251729578E-68, -3.252276779331303550E-35, 0.000000000000000000 ) ) ;
#302 = AXIS2_PLACEMENT_3D ( 'NONE', #112, #81, #291 ) ;
#303 = DIRECTION ( 'NONE',  ( -1.000000000000000000, 0.000000000000000000, 0.000000000000000000 ) ) ;
#304 = EDGE_CURVE ( 'NONE', #6, #226, #59, .T. ) ;
#305 = DIRECTION ( 'NONE',  ( -2.168184519554202125E-33, 1.000000000000000000, 0.000000000000000000 ) ) ;
#306 = STYLED_ITEM ( 'NONE', ( #83 ), #234 ) ;
#307 = COLOUR_RGB ( '',0.7921568627450980005, 0.8196078431372548767, 0.9333333333333333481 ) ;
#308 = DIMENSIONAL_EXPONENTS ( 1.000000000000000000, 0.000000000000000000, 0.000000000000000000, 0.000000000000000000, 0.000000000000000000, 0.000000000000000000, 0.000000000000000000 ) ;
#309 = DIRECTION ( 'NONE',  ( -1.213712763141083641E-16, 1.000000000000000000, 0.000000000000000000 ) ) ;
ENDSEC;
END-ISO-10303-21;
