ISO-10303-21;
HEADER;
FILE_DESCRIPTION (( 'STEP AP214' ),
    '1' );
FILE_NAME ('Micro_SFA-187-33.STEP',
    '2021-09-02T03:46:30',
    ( '' ),
    ( '' ),
    'SwSTEP 2.0',
    'SolidWorks 2020',
    '' );
FILE_SCHEMA (( 'AUTOMOTIVE_DESIGN' ));
ENDSEC;

DATA;
#1 = EDGE_CURVE ( 'NONE', #248, #39, #210, .T. ) ;
#2 = VECTOR ( 'NONE', #128, 39.37007874015748143 ) ;
#3 = DIRECTION ( 'NONE',  ( -0.7071067811865463515, 0.0000000000000000000, -0.7071067811865486830 ) ) ;
#4 = CARTESIAN_POINT ( 'NONE',  ( -0.09375000000000001388, 0.0000000000000000000, 1.984999999999999654 ) ) ;
#5 = EDGE_CURVE ( 'NONE', #57, #185, #65, .T. ) ;
#6 = DIRECTION ( 'NONE',  ( -1.000000000000000000, 0.0000000000000000000, 0.0000000000000000000 ) ) ;
#7 = ORIENTED_EDGE ( 'NONE', *, *, #15, .T. ) ;
#8 = EDGE_CURVE ( 'NONE', #203, #205, #286, .T. ) ;
#9 = FACE_OUTER_BOUND ( 'NONE', #265, .T. ) ;
#10 = DIRECTION ( 'NONE',  ( -1.000000000000000000, 0.0000000000000000000, 0.0000000000000000000 ) ) ;
#11 = CARTESIAN_POINT ( 'NONE',  ( 0.0000000000000000000, 0.0000000000000000000, 2.000000000000000000 ) ) ;
#12 = ORIENTED_EDGE ( 'NONE', *, *, #5, .F. ) ;
#13 =( CONVERSION_BASED_UNIT ( 'INCH', #160 ) LENGTH_UNIT ( ) NAMED_UNIT ( #105 ) );
#14 = EDGE_LOOP ( 'NONE', ( #102, #268, #50, #154 ) ) ;
#15 = EDGE_CURVE ( 'NONE', #81, #135, #215, .T. ) ;
#16 = ORIENTED_EDGE ( 'NONE', *, *, #120, .F. ) ;
#17 = DIRECTION ( 'NONE',  ( 1.000000000000000000, 0.0000000000000000000, -0.0000000000000000000 ) ) ;
#18 = FILL_AREA_STYLE_COLOUR ( '', #278 ) ;
#19 = CIRCLE ( 'NONE', #181, 0.09375000000000001388 ) ;
#20 = CARTESIAN_POINT ( 'NONE',  ( 0.09365624999999999645, 1.146958267826442798E-17, 0.0000000000000000000 ) ) ;
#21 = CARTESIAN_POINT ( 'NONE',  ( -0.07874999999999980627, 0.0000000000000000000, 2.000000000000000000 ) ) ;
#22 = VECTOR ( 'NONE', #107, 39.37007874015748143 ) ;
#23 = MANIFOLD_SOLID_BREP ( 'Cut-Revolve1', #198 ) ;
#24 = LINE ( 'NONE', #239, #238 ) ;
#25 = UNCERTAINTY_MEASURE_WITH_UNIT (LENGTH_MEASURE( 1.000000000000000082E-05 ), #173, 'distance_accuracy_value', 'NONE');
#26 = DIRECTION ( 'NONE',  ( -1.000000000000000000, 0.0000000000000000000, 0.0000000000000000000 ) ) ;
#27 = FACE_OUTER_BOUND ( 'NONE', #14, .T. ) ;
#28 = PRODUCT_DEFINITION_CONTEXT ( 'detailed design', #91, 'design' ) ;
#29 = ADVANCED_FACE ( 'NONE', ( #90 ), #293, .T. ) ;
#30 = AXIS2_PLACEMENT_3D ( 'NONE', #80, #218, #51 ) ;
#31 = DIRECTION ( 'NONE',  ( -0.0000000000000000000, -0.0000000000000000000, -1.000000000000000000 ) ) ;
#32 = DIRECTION ( 'NONE',  ( -1.224646799147353207E-16, -0.0000000000000000000, -1.000000000000000000 ) ) ;
#33 = DIRECTION ( 'NONE',  ( 1.224646799147353207E-16, 0.0000000000000000000, 1.000000000000000000 ) ) ;
#34 = ORIENTED_EDGE ( 'NONE', *, *, #15, .F. ) ;
#35 = VERTEX_POINT ( 'NONE', #21 ) ;
#36 = ADVANCED_FACE ( 'NONE', ( #119 ), #162, .T. ) ;
#37 = ORIENTED_EDGE ( 'NONE', *, *, #5, .T. ) ;
#38 = SURFACE_SIDE_STYLE ('',( #111 ) ) ;
#39 = VERTEX_POINT ( 'NONE', #43 ) ;
#40 = CARTESIAN_POINT ( 'NONE',  ( 0.0000000000000000000, 0.0000000000000000000, 0.0000000000000000000 ) ) ;
#41 = ADVANCED_FACE ( 'NONE', ( #96 ), #280, .F. ) ;
#42 = DIRECTION ( 'NONE',  ( 1.000000000000000000, 0.0000000000000000000, 0.0000000000000000000 ) ) ;
#43 = CARTESIAN_POINT ( 'NONE',  ( -0.09365624999999992706, 1.147532321013543253E-17, 0.5000000000000000000 ) ) ;
#44 = CIRCLE ( 'NONE', #121, 0.07874999999999980627 ) ;
#45 = DIRECTION ( 'NONE',  ( -0.1736481776669311916, 2.126576849575783316E-17, 0.9848077530122080203 ) ) ;
#46 = EDGE_CURVE ( 'NONE', #35, #203, #44, .T. ) ;
#47 = FACE_OUTER_BOUND ( 'NONE', #55, .T. ) ;
#48 = DIRECTION ( 'NONE',  ( -1.224646799147353207E-16, -0.0000000000000000000, -1.000000000000000000 ) ) ;
#49 = DIRECTION ( 'NONE',  ( 0.1736481776669313859, 0.0000000000000000000, 0.9848077530122077983 ) ) ;
#50 = ORIENTED_EDGE ( 'NONE', *, *, #94, .T. ) ;
#51 = DIRECTION ( 'NONE',  ( 1.000000000000000000, 0.0000000000000000000, 0.0000000000000000000 ) ) ;
#52 = ORIENTED_EDGE ( 'NONE', *, *, #177, .T. ) ;
#53 = AXIS2_PLACEMENT_3D ( 'NONE', #281, #275, #124 ) ;
#54 = DIRECTION ( 'NONE',  ( -0.0000000000000000000, -0.0000000000000000000, -1.000000000000000000 ) ) ;
#55 = EDGE_LOOP ( 'NONE', ( #112, #260, #161, #34 ) ) ;
#56 = SHAPE_DEFINITION_REPRESENTATION ( #266, #129 ) ;
#57 = VERTEX_POINT ( 'NONE', #70 ) ;
#58 = EDGE_LOOP ( 'NONE', ( #110, #247, #12, #178 ) ) ;
#59 = AXIS2_PLACEMENT_3D ( 'NONE', #40, #252, #253 ) ;
#60 = AXIS2_PLACEMENT_3D ( 'NONE', #195, #103, #74 ) ;
#61 = ORIENTED_EDGE ( 'NONE', *, *, #82, .T. ) ;
#62 = CARTESIAN_POINT ( 'NONE',  ( 0.0000000000000000000, 0.0000000000000000000, 0.0000000000000000000 ) ) ;
#63 = EDGE_CURVE ( 'NONE', #39, #57, #140, .T. ) ;
#64 = FILL_AREA_STYLE ('',( #88 ) ) ;
#65 = CIRCLE ( 'NONE', #214, 0.09375000000000001388 ) ;
#66 = AXIS2_PLACEMENT_3D ( 'NONE', #196, #31, #97 ) ;
#67 = CARTESIAN_POINT ( 'NONE',  ( 1.404618771449245766E-33, 0.0000000000000000000, 1.146958267826442798E-17 ) ) ;
#68 = ADVANCED_FACE ( 'NONE', ( #166 ), #298, .T. ) ;
#69 = AXIS2_PLACEMENT_3D ( 'NONE', #232, #184, #296 ) ;
#70 = CARTESIAN_POINT ( 'NONE',  ( -0.09374999999999994449, 0.0000000000000000000, 0.5005316826705892286 ) ) ;
#71 = DIRECTION ( 'NONE',  ( -1.000000000000000000, 0.0000000000000000000, 1.224646799147352961E-16 ) ) ;
#72 = LINE ( 'NONE', #75, #122 ) ;
#73 = EDGE_CURVE ( 'NONE', #203, #35, #235, .T. ) ;
#74 = DIRECTION ( 'NONE',  ( -1.000000000000000000, 0.0000000000000000000, 0.0000000000000000000 ) ) ;
#75 = CARTESIAN_POINT ( 'NONE',  ( 0.09365624999999999645, 1.146958267826442798E-17, -1.146958267826442798E-17 ) ) ;
#76 = EDGE_LOOP ( 'NONE', ( #61, #223, #284, #85 ) ) ;
#77 = CARTESIAN_POINT ( 'NONE',  ( 0.09375000000000006939, 1.148106374200644633E-17, 0.5005316826705892286 ) ) ;
#78 = EDGE_LOOP ( 'NONE', ( #164, #225, #37, #84 ) ) ;
#79 = PRESENTATION_LAYER_ASSIGNMENT (  '', '', ( #172 ) ) ;
#80 = CARTESIAN_POINT ( 'NONE',  ( 0.0000000000000000000, 0.0000000000000000000, 1.984999999999999654 ) ) ;
#81 = VERTEX_POINT ( 'NONE', #20 ) ;
#82 = EDGE_CURVE ( 'NONE', #39, #248, #209, .T. ) ;
#83 = DIMENSIONAL_EXPONENTS ( 1.000000000000000000, 0.0000000000000000000, 0.0000000000000000000, 0.0000000000000000000, 0.0000000000000000000, 0.0000000000000000000, 0.0000000000000000000 ) ;
#84 = ORIENTED_EDGE ( 'NONE', *, *, #123, .F. ) ;
#85 = ORIENTED_EDGE ( 'NONE', *, *, #206, .F. ) ;
#86 = CARTESIAN_POINT ( 'NONE',  ( 0.0000000000000000000, 0.0000000000000000000, 2.000000000000000000 ) ) ;
#87 =( LENGTH_UNIT ( ) NAMED_UNIT ( * ) SI_UNIT ( $, .METRE. ) );
#88 = FILL_AREA_STYLE_COLOUR ( '', #108 ) ;
#89 = APPLICATION_PROTOCOL_DEFINITION ( 'draft international standard', 'automotive_design', 1998, #91 ) ;
#90 = FACE_OUTER_BOUND ( 'NONE', #180, .T. ) ;
#91 = APPLICATION_CONTEXT ( 'automotive_design' ) ;
#92 = AXIS2_PLACEMENT_3D ( 'NONE', #244, #32, #10 ) ;
#93 = DIRECTION ( 'NONE',  ( -1.224646799147353207E-16, -0.0000000000000000000, -1.000000000000000000 ) ) ;
#94 = EDGE_CURVE ( 'NONE', #35, #290, #236, .T. ) ;
#95 =( GEOMETRIC_REPRESENTATION_CONTEXT ( 3 ) GLOBAL_UNCERTAINTY_ASSIGNED_CONTEXT ( ( #98 ) ) GLOBAL_UNIT_ASSIGNED_CONTEXT ( ( #272, #158, #167 ) ) REPRESENTATION_CONTEXT ( 'NONE', 'WORKASPACE' ) );
#96 = FACE_OUTER_BOUND ( 'NONE', #271, .T. ) ;
#97 = DIRECTION ( 'NONE',  ( -1.000000000000000000, 0.0000000000000000000, 0.0000000000000000000 ) ) ;
#98 = UNCERTAINTY_MEASURE_WITH_UNIT (LENGTH_MEASURE( 1.000000000000000082E-05 ), #272, 'distance_accuracy_value', 'NONE');
#99 = ADVANCED_FACE ( 'NONE', ( #139 ), #259, .T. ) ;
#100 = DIRECTION ( 'NONE',  ( 1.000000000000000000, 0.0000000000000000000, 0.0000000000000000000 ) ) ;
#101 = LINE ( 'NONE', #237, #222 ) ;
#102 = ORIENTED_EDGE ( 'NONE', *, *, #8, .F. ) ;
#103 = DIRECTION ( 'NONE',  ( 0.0000000000000000000, 0.0000000000000000000, -1.000000000000000000 ) ) ;
#104 = ORIENTED_EDGE ( 'NONE', *, *, #240, .T. ) ;
#105 = DIMENSIONAL_EXPONENTS ( 1.000000000000000000, 0.0000000000000000000, 0.0000000000000000000, 0.0000000000000000000, 0.0000000000000000000, 0.0000000000000000000, 0.0000000000000000000 ) ;
#106 = CARTESIAN_POINT ( 'NONE',  ( 0.0000000000000000000, 0.0000000000000000000, 2.000000000000000000 ) ) ;
#107 = DIRECTION ( 'NONE',  ( 0.7071067811865463515, 8.659560562354916834E-17, -0.7071067811865486830 ) ) ;
#108 = COLOUR_RGB ( '',0.7921568627450980005, 0.8196078431372548767, 0.9333333333333333481 ) ;
#109 = LENGTH_MEASURE_WITH_UNIT ( LENGTH_MEASURE( 0.02539999999999999897 ), #241 );
#110 = ORIENTED_EDGE ( 'NONE', *, *, #254, .T. ) ;
#111 = SURFACE_STYLE_FILL_AREA ( #264 ) ;
#112 = ORIENTED_EDGE ( 'NONE', *, *, #194, .F. ) ;
#113 = APPLICATION_PROTOCOL_DEFINITION ( 'draft international standard', 'automotive_design', 1998, #146 ) ;
#114 = DIRECTION ( 'NONE',  ( 0.0000000000000000000, 0.0000000000000000000, 1.000000000000000000 ) ) ;
#115 = AXIS2_PLACEMENT_3D ( 'NONE', #62, #144, #168 ) ;
#116 = AXIS2_PLACEMENT_3D ( 'NONE', #106, #224, #6 ) ;
#117 = DIRECTION ( 'NONE',  ( 0.0000000000000000000, 0.0000000000000000000, 1.000000000000000000 ) ) ;
#118 = CARTESIAN_POINT ( 'NONE',  ( 0.0000000000000000000, 0.0000000000000000000, 2.000000000000000000 ) ) ;
#119 = FACE_OUTER_BOUND ( 'NONE', #78, .T. ) ;
#120 = EDGE_CURVE ( 'NONE', #205, #185, #101, .T. ) ;
#121 = AXIS2_PLACEMENT_3D ( 'NONE', #118, #273, #213 ) ;
#122 = VECTOR ( 'NONE', #287, 39.37007874015748143 ) ;
#123 = EDGE_CURVE ( 'NONE', #248, #185, #24, .T. ) ;
#124 = DIRECTION ( 'NONE',  ( 1.000000000000000000, 0.0000000000000000000, 0.0000000000000000000 ) ) ;
#125 = PRODUCT_DEFINITION_FORMATION_WITH_SPECIFIED_SOURCE ( 'ANY', '', #188, .NOT_KNOWN. ) ;
#126 = CARTESIAN_POINT ( 'NONE',  ( -0.09375000000000001388, 0.0000000000000000000, 2.000000000000000000 ) ) ;
#127 = LINE ( 'NONE', #126, #155 ) ;
#128 = DIRECTION ( 'NONE',  ( -1.224646799147353207E-16, -0.0000000000000000000, -1.000000000000000000 ) ) ;
#129 = ADVANCED_BREP_SHAPE_REPRESENTATION ( 'Micro_SFA-187-33', ( #23, #69 ), #95 ) ;
#130 = CIRCLE ( 'NONE', #30, 0.09375000000000001388 ) ;
#131 = FACE_OUTER_BOUND ( 'NONE', #199, .T. ) ;
#132 = ORIENTED_EDGE ( 'NONE', *, *, #1, .F. ) ;
#133 = CARTESIAN_POINT ( 'NONE',  ( 0.09375000000000001388, 1.148106374200643863E-17, 1.984999999999999654 ) ) ;
#134 = CARTESIAN_POINT ( 'NONE',  ( 0.07874999999999980627, 9.644093543285380530E-18, 2.000000000000000000 ) ) ;
#135 = VERTEX_POINT ( 'NONE', #176 ) ;
#136 = STYLED_ITEM ( 'NONE', ( #276 ), #23 ) ;
#137 = CIRCLE ( 'NONE', #163, 0.09365624999999999645 ) ;
#138 = ORIENTED_EDGE ( 'NONE', *, *, #8, .T. ) ;
#139 = FACE_OUTER_BOUND ( 'NONE', #288, .T. ) ;
#140 = LINE ( 'NONE', #191, #233 ) ;
#141 = MECHANICAL_DESIGN_GEOMETRIC_PRESENTATION_REPRESENTATION (  '', ( #172 ), #234 ) ;
#142 = CARTESIAN_POINT ( 'NONE',  ( 0.0000000000000000000, 0.0000000000000000000, 2.000000000000000000 ) ) ;
#143 = ADVANCED_FACE ( 'NONE', ( #131 ), #197, .T. ) ;
#144 = DIRECTION ( 'NONE',  ( 0.0000000000000000000, 0.0000000000000000000, 1.000000000000000000 ) ) ;
#145 = CONICAL_SURFACE ( 'NONE', #116, 0.07874999999999980627, 0.7853981633974466137 ) ;
#146 = APPLICATION_CONTEXT ( 'automotive_design' ) ;
#147 = DIRECTION ( 'NONE',  ( -1.224646799147353207E-16, -0.0000000000000000000, -1.000000000000000000 ) ) ;
#148 = CIRCLE ( 'NONE', #279, 0.09375000000000001388 ) ;
#149 = DIRECTION ( 'NONE',  ( -1.224646799147353207E-16, -0.0000000000000000000, -1.000000000000000000 ) ) ;
#150 = ADVANCED_FACE ( 'NONE', ( #27 ), #145, .T. ) ;
#151 = CARTESIAN_POINT ( 'NONE',  ( 0.0000000000000000000, 0.0000000000000000000, 1.984999999999999654 ) ) ;
#152 = DIRECTION ( 'NONE',  ( 0.0000000000000000000, 0.0000000000000000000, -1.000000000000000000 ) ) ;
#153 = VECTOR ( 'NONE', #3, 39.37007874015748143 ) ;
#154 = ORIENTED_EDGE ( 'NONE', *, *, #177, .F. ) ;
#155 = VECTOR ( 'NONE', #54, 39.37007874015748143 ) ;
#156 = DIRECTION ( 'NONE',  ( 1.000000000000000000, 0.0000000000000000000, 0.0000000000000000000 ) ) ;
#157 = DIRECTION ( 'NONE',  ( 1.000000000000000000, 0.0000000000000000000, 0.0000000000000000000 ) ) ;
#158 =( NAMED_UNIT ( * ) PLANE_ANGLE_UNIT ( ) SI_UNIT ( $, .RADIAN. ) );
#159 = ORIENTED_EDGE ( 'NONE', *, *, #73, .T. ) ;
#160 = LENGTH_MEASURE_WITH_UNIT ( LENGTH_MEASURE( 0.02539999999999999897 ), #87 );
#161 = ORIENTED_EDGE ( 'NONE', *, *, #206, .T. ) ;
#162 = CONICAL_SURFACE ( 'NONE', #53, 0.09365624999999999645, 0.1745329251994338915 ) ;
#163 = AXIS2_PLACEMENT_3D ( 'NONE', #226, #149, #182 ) ;
#164 = ORIENTED_EDGE ( 'NONE', *, *, #82, .F. ) ;
#165 = DIMENSIONAL_EXPONENTS ( 1.000000000000000000, 0.0000000000000000000, 0.0000000000000000000, 0.0000000000000000000, 0.0000000000000000000, 0.0000000000000000000, 0.0000000000000000000 ) ;
#166 = FACE_OUTER_BOUND ( 'NONE', #76, .T. ) ;
#167 =( NAMED_UNIT ( * ) SI_UNIT ( $, .STERADIAN. ) SOLID_ANGLE_UNIT ( ) );
#168 = DIRECTION ( 'NONE',  ( 1.000000000000000000, 0.0000000000000000000, -0.0000000000000000000 ) ) ;
#169 =( NAMED_UNIT ( * ) SI_UNIT ( $, .STERADIAN. ) SOLID_ANGLE_UNIT ( ) );
#170 = ADVANCED_FACE ( 'NONE', ( #9 ), #187, .T. ) ;
#171 = AXIS2_PLACEMENT_3D ( 'NONE', #211, #93, #256 ) ;
#172 = STYLED_ITEM ( 'NONE', ( #274 ), #129 ) ;
#173 =( CONVERSION_BASED_UNIT ( 'INCH', #231 ) LENGTH_UNIT ( ) NAMED_UNIT ( #83 ) );
#174 = SURFACE_STYLE_FILL_AREA ( #64 ) ;
#175 = CARTESIAN_POINT ( 'NONE',  ( -0.09365624999999999645, 0.0000000000000000000, 1.146958267826442798E-17 ) ) ;
#176 = CARTESIAN_POINT ( 'NONE',  ( -0.09365624999999999645, 0.0000000000000000000, 2.293916535652885596E-17 ) ) ;
#177 = EDGE_CURVE ( 'NONE', #205, #290, #130, .T. ) ;
#178 = ORIENTED_EDGE ( 'NONE', *, *, #240, .F. ) ;
#179 = DIRECTION ( 'NONE',  ( 1.000000000000000000, 0.0000000000000000000, 0.0000000000000000000 ) ) ;
#180 = EDGE_LOOP ( 'NONE', ( #183, #159 ) ) ;
#181 = AXIS2_PLACEMENT_3D ( 'NONE', #151, #152, #100 ) ;
#182 = DIRECTION ( 'NONE',  ( -1.000000000000000000, 0.0000000000000000000, 1.224646799147352961E-16 ) ) ;
#183 = ORIENTED_EDGE ( 'NONE', *, *, #46, .T. ) ;
#184 = DIRECTION ( 'NONE',  ( 0.0000000000000000000, 0.0000000000000000000, 1.000000000000000000 ) ) ;
#185 = VERTEX_POINT ( 'NONE', #77 ) ;
#186 = ORIENTED_EDGE ( 'NONE', *, *, #250, .T. ) ;
#187 = CONICAL_SURFACE ( 'NONE', #60, 0.07874999999999980627, 0.7853981633974466137 ) ;
#188 = PRODUCT ( 'Micro_SFA-187-33', 'Micro_SFA-187-33', '', ( #251 ) ) ;
#189 = DIRECTION ( 'NONE',  ( -1.224646799147353207E-16, -0.0000000000000000000, -1.000000000000000000 ) ) ;
#190 = PRODUCT_DEFINITION ( 'UNKNOWN', '', #125, #28 ) ;
#191 = CARTESIAN_POINT ( 'NONE',  ( -0.09365624999999992706, 1.146958267826442798E-17, 0.5000000000000000000 ) ) ;
#192 = EDGE_CURVE ( 'NONE', #185, #57, #148, .T. ) ;
#193 =( GEOMETRIC_REPRESENTATION_CONTEXT ( 3 ) GLOBAL_UNCERTAINTY_ASSIGNED_CONTEXT ( ( #25 ) ) GLOBAL_UNIT_ASSIGNED_CONTEXT ( ( #173, #255, #169 ) ) REPRESENTATION_CONTEXT ( 'NONE', 'WORKASPACE' ) );
#194 = EDGE_CURVE ( 'NONE', #248, #81, #72, .T. ) ;
#195 = CARTESIAN_POINT ( 'NONE',  ( 0.0000000000000000000, 0.0000000000000000000, 2.000000000000000000 ) ) ;
#196 = CARTESIAN_POINT ( 'NONE',  ( 0.0000000000000000000, 0.0000000000000000000, 2.000000000000000000 ) ) ;
#197 = CONICAL_SURFACE ( 'NONE', #270, 0.09365624999999999645, 0.1745329251994338915 ) ;
#198 = CLOSED_SHELL ( 'NONE', ( #68, #36, #170, #297, #99, #29, #150, #143, #269, #41 ) ) ;
#199 = EDGE_LOOP ( 'NONE', ( #228, #132, #227, #249 ) ) ;
#200 = DIRECTION ( 'NONE',  ( -1.000000000000000000, 0.0000000000000000000, 1.224646799147352961E-16 ) ) ;
#201 = DIRECTION ( 'NONE',  ( -1.224646799147353207E-16, -0.0000000000000000000, -1.000000000000000000 ) ) ;
#202 = CARTESIAN_POINT ( 'NONE',  ( 6.129745230543758501E-17, 0.0000000000000000000, 0.5005316826705892286 ) ) ;
#203 = VERTEX_POINT ( 'NONE', #261 ) ;
#204 =( NAMED_UNIT ( * ) PLANE_ANGLE_UNIT ( ) SI_UNIT ( $, .RADIAN. ) );
#205 = VERTEX_POINT ( 'NONE', #133 ) ;
#206 = EDGE_CURVE ( 'NONE', #39, #135, #258, .T. ) ;
#207 = ORIENTED_EDGE ( 'NONE', *, *, #192, .F. ) ;
#208 =( LENGTH_UNIT ( ) NAMED_UNIT ( * ) SI_UNIT ( $, .METRE. ) );
#209 = CIRCLE ( 'NONE', #171, 0.09365624999999999645 ) ;
#210 = CIRCLE ( 'NONE', #92, 0.09365624999999999645 ) ;
#211 = CARTESIAN_POINT ( 'NONE',  ( 6.123233995736766036E-17, 0.0000000000000000000, 0.5000000000000000000 ) ) ;
#212 = SURFACE_SIDE_STYLE ('',( #174 ) ) ;
#213 = DIRECTION ( 'NONE',  ( 1.000000000000000000, 0.0000000000000000000, 0.0000000000000000000 ) ) ;
#214 = AXIS2_PLACEMENT_3D ( 'NONE', #263, #201, #157 ) ;
#215 = CIRCLE ( 'NONE', #277, 0.09365624999999999645 ) ;
#216 = CARTESIAN_POINT ( 'NONE',  ( -0.07874999999999980627, 0.0000000000000000000, 2.000000000000000000 ) ) ;
#217 = CARTESIAN_POINT ( 'NONE',  ( 0.0000000000000000000, 0.0000000000000000000, 0.0000000000000000000 ) ) ;
#218 = DIRECTION ( 'NONE',  ( 0.0000000000000000000, 0.0000000000000000000, -1.000000000000000000 ) ) ;
#219 = PRODUCT_RELATED_PRODUCT_CATEGORY ( 'part', '', ( #188 ) ) ;
#220 = FACE_OUTER_BOUND ( 'NONE', #58, .T. ) ;
#221 = AXIS2_PLACEMENT_3D ( 'NONE', #142, #117, #42 ) ;
#222 = VECTOR ( 'NONE', #282, 39.37007874015748143 ) ;
#223 = ORIENTED_EDGE ( 'NONE', *, *, #194, .T. ) ;
#224 = DIRECTION ( 'NONE',  ( 0.0000000000000000000, 0.0000000000000000000, -1.000000000000000000 ) ) ;
#225 = ORIENTED_EDGE ( 'NONE', *, *, #63, .T. ) ;
#226 = CARTESIAN_POINT ( 'NONE',  ( 1.404618771449245766E-33, 0.0000000000000000000, 1.146958267826442798E-17 ) ) ;
#227 = ORIENTED_EDGE ( 'NONE', *, *, #123, .T. ) ;
#228 = ORIENTED_EDGE ( 'NONE', *, *, #63, .F. ) ;
#229 = AXIS2_PLACEMENT_3D ( 'NONE', #11, #283, #26 ) ;
#230 = ORIENTED_EDGE ( 'NONE', *, *, #254, .F. ) ;
#231 = LENGTH_MEASURE_WITH_UNIT ( LENGTH_MEASURE( 0.02539999999999999897 ), #208 );
#232 = CARTESIAN_POINT ( 'NONE',  ( 0.0000000000000000000, 0.0000000000000000000, 0.0000000000000000000 ) ) ;
#233 = VECTOR ( 'NONE', #45, 39.37007874015747433 ) ;
#234 =( GEOMETRIC_REPRESENTATION_CONTEXT ( 3 ) GLOBAL_UNCERTAINTY_ASSIGNED_CONTEXT ( ( #262 ) ) GLOBAL_UNIT_ASSIGNED_CONTEXT ( ( #13, #204, #267 ) ) REPRESENTATION_CONTEXT ( 'NONE', 'WORKASPACE' ) );
#235 = CIRCLE ( 'NONE', #221, 0.07874999999999980627 ) ;
#236 = LINE ( 'NONE', #216, #153 ) ;
#237 = CARTESIAN_POINT ( 'NONE',  ( 0.09375000000000001388, 1.148106374200643863E-17, 2.000000000000000000 ) ) ;
#238 = VECTOR ( 'NONE', #49, 39.37007874015748143 ) ;
#239 = CARTESIAN_POINT ( 'NONE',  ( 0.09365625000000006584, 0.0000000000000000000, 0.5000000000000000000 ) ) ;
#240 = EDGE_CURVE ( 'NONE', #290, #57, #127, .T. ) ;
#241 =( LENGTH_UNIT ( ) NAMED_UNIT ( * ) SI_UNIT ( $, .METRE. ) );
#242 = CYLINDRICAL_SURFACE ( 'NONE', #292, 0.09365624999999999645 ) ;
#243 = AXIS2_PLACEMENT_3D ( 'NONE', #86, #114, #17 ) ;
#244 = CARTESIAN_POINT ( 'NONE',  ( 6.123233995736766036E-17, 0.0000000000000000000, 0.5000000000000000000 ) ) ;
#245 = CARTESIAN_POINT ( 'NONE',  ( 0.09365625000000006584, 0.0000000000000000000, 0.5000000000000000000 ) ) ;
#246 = ORIENTED_EDGE ( 'NONE', *, *, #94, .F. ) ;
#247 = ORIENTED_EDGE ( 'NONE', *, *, #120, .T. ) ;
#248 = VERTEX_POINT ( 'NONE', #245 ) ;
#249 = ORIENTED_EDGE ( 'NONE', *, *, #192, .T. ) ;
#250 = EDGE_CURVE ( 'NONE', #135, #81, #137, .T. ) ;
#251 = PRODUCT_CONTEXT ( 'NONE', #146, 'mechanical' ) ;
#252 = DIRECTION ( 'NONE',  ( -1.224646799147353207E-16, -0.0000000000000000000, -1.000000000000000000 ) ) ;
#253 = DIRECTION ( 'NONE',  ( -1.000000000000000000, 0.0000000000000000000, 1.224646799147352961E-16 ) ) ;
#254 = EDGE_CURVE ( 'NONE', #290, #205, #19, .T. ) ;
#255 =( NAMED_UNIT ( * ) PLANE_ANGLE_UNIT ( ) SI_UNIT ( $, .RADIAN. ) );
#256 = DIRECTION ( 'NONE',  ( -1.000000000000000000, 0.0000000000000000000, 0.0000000000000000000 ) ) ;
#257 = CARTESIAN_POINT ( 'NONE',  ( 6.123233995736766036E-17, 0.0000000000000000000, 0.5000000000000000000 ) ) ;
#258 = LINE ( 'NONE', #175, #2 ) ;
#259 = CYLINDRICAL_SURFACE ( 'NONE', #229, 0.09375000000000001388 ) ;
#260 = ORIENTED_EDGE ( 'NONE', *, *, #1, .T. ) ;
#261 = CARTESIAN_POINT ( 'NONE',  ( 0.07874999999999980627, 1.056257864264590573E-17, 2.000000000000000000 ) ) ;
#262 = UNCERTAINTY_MEASURE_WITH_UNIT (LENGTH_MEASURE( 1.000000000000000082E-05 ), #13, 'distance_accuracy_value', 'NONE');
#263 = CARTESIAN_POINT ( 'NONE',  ( 6.129745230543758501E-17, 0.0000000000000000000, 0.5005316826705892286 ) ) ;
#264 = FILL_AREA_STYLE ('',( #18 ) ) ;
#265 = EDGE_LOOP ( 'NONE', ( #289, #138, #230, #246 ) ) ;
#266 = PRODUCT_DEFINITION_SHAPE ( 'NONE', 'NONE',  #190 ) ;
#267 =( NAMED_UNIT ( * ) SI_UNIT ( $, .STERADIAN. ) SOLID_ANGLE_UNIT ( ) );
#268 = ORIENTED_EDGE ( 'NONE', *, *, #46, .F. ) ;
#269 = ADVANCED_FACE ( 'NONE', ( #47 ), #242, .T. ) ;
#270 = AXIS2_PLACEMENT_3D ( 'NONE', #257, #33, #156 ) ;
#271 = EDGE_LOOP ( 'NONE', ( #186, #7 ) ) ;
#272 =( CONVERSION_BASED_UNIT ( 'INCH', #109 ) LENGTH_UNIT ( ) NAMED_UNIT ( #165 ) );
#273 = DIRECTION ( 'NONE',  ( 0.0000000000000000000, 0.0000000000000000000, 1.000000000000000000 ) ) ;
#274 = PRESENTATION_STYLE_ASSIGNMENT (( #294 ) ) ;
#275 = DIRECTION ( 'NONE',  ( 1.224646799147353207E-16, 0.0000000000000000000, 1.000000000000000000 ) ) ;
#276 = PRESENTATION_STYLE_ASSIGNMENT (( #295 ) ) ;
#277 = AXIS2_PLACEMENT_3D ( 'NONE', #67, #189, #71 ) ;
#278 = COLOUR_RGB ( '',0.7921568627450980005, 0.8196078431372548767, 0.9333333333333333481 ) ;
#279 = AXIS2_PLACEMENT_3D ( 'NONE', #202, #48, #179 ) ;
#280 = PLANE ( 'NONE',  #115 ) ;
#281 = CARTESIAN_POINT ( 'NONE',  ( 6.123233995736766036E-17, 0.0000000000000000000, 0.5000000000000000000 ) ) ;
#282 = DIRECTION ( 'NONE',  ( -0.0000000000000000000, -0.0000000000000000000, -1.000000000000000000 ) ) ;
#283 = DIRECTION ( 'NONE',  ( -0.0000000000000000000, -0.0000000000000000000, -1.000000000000000000 ) ) ;
#284 = ORIENTED_EDGE ( 'NONE', *, *, #250, .F. ) ;
#285 = CYLINDRICAL_SURFACE ( 'NONE', #66, 0.09375000000000001388 ) ;
#286 = LINE ( 'NONE', #134, #22 ) ;
#287 = DIRECTION ( 'NONE',  ( -1.224646799147353207E-16, -0.0000000000000000000, -1.000000000000000000 ) ) ;
#288 = EDGE_LOOP ( 'NONE', ( #16, #52, #104, #207 ) ) ;
#289 = ORIENTED_EDGE ( 'NONE', *, *, #73, .F. ) ;
#290 = VERTEX_POINT ( 'NONE', #4 ) ;
#291 = MECHANICAL_DESIGN_GEOMETRIC_PRESENTATION_REPRESENTATION (  '', ( #136 ), #193 ) ;
#292 = AXIS2_PLACEMENT_3D ( 'NONE', #217, #147, #200 ) ;
#293 = PLANE ( 'NONE',  #243 ) ;
#294 = SURFACE_STYLE_USAGE ( .BOTH. , #38 ) ;
#295 = SURFACE_STYLE_USAGE ( .BOTH. , #212 ) ;
#296 = DIRECTION ( 'NONE',  ( 1.000000000000000000, 0.0000000000000000000, 0.0000000000000000000 ) ) ;
#297 = ADVANCED_FACE ( 'NONE', ( #220 ), #285, .T. ) ;
#298 = CYLINDRICAL_SURFACE ( 'NONE', #59, 0.09365624999999999645 ) ;
#299 = PRESENTATION_LAYER_ASSIGNMENT (  '', '', ( #136 ) ) ;
ENDSEC;
END-ISO-10303-21;
