ISO-10303-21;
HEADER;
FILE_DESCRIPTION (( 'STEP AP214' ),
    '1' );
FILE_NAME ('56152.STEP',
    '2023-06-30T22:06:20',
    ( '' ),
    ( '' ),
    'SwSTEP 2.0',
    'SolidWorks 2023',
    '' );
FILE_SCHEMA (( 'AUTOMOTIVE_DESIGN' ));
ENDSEC;

DATA;
#1 = SPHERICAL_SURFACE ( 'NONE', #269, 0.1250000000000000000 ) ;
#2 = SURFACE_SIDE_STYLE ('',( #193 ) ) ;
#3 =( GEOMETRIC_REPRESENTATION_CONTEXT ( 3 ) GLOBAL_UNCERTAINTY_ASSIGNED_CONTEXT ( ( #213 ) ) GLOBAL_UNIT_ASSIGNED_CONTEXT ( ( #272, #366, #50 ) ) REPRESENTATION_CONTEXT ( 'NONE', 'WORKASPACE' ) );
#4 = EDGE_CURVE ( 'NONE', #131, #20, #143, .T. ) ;
#5 = SURFACE_STYLE_USAGE ( .BOTH. , #2 ) ;
#6 = LENGTH_MEASURE_WITH_UNIT ( LENGTH_MEASURE( 0.02539999999999999897 ), #259 );
#7 = PRODUCT ( '56152', '56152', '', ( #222 ) ) ;
#8 = FILL_AREA_STYLE_COLOUR ( '', #100 ) ;
#9 = MECHANICAL_DESIGN_GEOMETRIC_PRESENTATION_REPRESENTATION (  '', ( #82 ), #157 ) ;
#10 = PRODUCT_DEFINITION_FORMATION_WITH_SPECIFIED_SOURCE ( 'ANY', '', #7, .NOT_KNOWN. ) ;
#11 = ORIENTED_EDGE ( 'NONE', *, *, #227, .T. ) ;
#12 = FILL_AREA_STYLE_COLOUR ( '', #320 ) ;
#13 = DIRECTION ( 'NONE',  ( 0.000000000000000000, 0.000000000000000000, -1.000000000000000000 ) ) ;
#14 = CARTESIAN_POINT ( 'NONE',  ( 0.000000000000000000, 0.1250000000000000278, 0.000000000000000000 ) ) ;
#15 = FACE_OUTER_BOUND ( 'NONE', #145, .T. ) ;
#16 = MECHANICAL_DESIGN_GEOMETRIC_PRESENTATION_REPRESENTATION (  '', ( #79 ), #296 ) ;
#17 = ORIENTED_EDGE ( 'NONE', *, *, #340, .F. ) ;
#18 = UNCERTAINTY_MEASURE_WITH_UNIT (LENGTH_MEASURE( 1.000000000000000082E-05 ), #72, 'distance_accuracy_value', 'NONE');
#19 = COLOUR_RGB ( '',1.000000000000000000, 0.000000000000000000, 0.000000000000000000 ) ;
#20 = VERTEX_POINT ( 'NONE', #144 ) ;
#21 = FACE_OUTER_BOUND ( 'NONE', #324, .T. ) ;
#22 = DIRECTION ( 'NONE',  ( -1.574545884618025482E-16, 1.000000000000000000, 0.000000000000000000 ) ) ;
#23 = CYLINDRICAL_SURFACE ( 'NONE', #59, 0.1249999999999999445 ) ;
#24 = AXIS2_PLACEMENT_3D ( 'NONE', #14, #264, #93 ) ;
#25 = DIRECTION ( 'NONE',  ( -1.574545884618025482E-16, 1.000000000000000000, -0.000000000000000000 ) ) ;
#26 = LENGTH_MEASURE_WITH_UNIT ( LENGTH_MEASURE( 0.02539999999999999897 ), #315 );
#27 = CIRCLE ( 'NONE', #243, 0.1249999999999996947 ) ;
#28 =( LENGTH_UNIT ( ) NAMED_UNIT ( * ) SI_UNIT ( $, .METRE. ) );
#29 = FILL_AREA_STYLE_COLOUR ( '', #105 ) ;
#30 = CARTESIAN_POINT ( 'NONE',  ( 0.000000000000000000, 0.7500000000000001110, 0.000000000000000000 ) ) ;
#31 = CARTESIAN_POINT ( 'NONE',  ( 0.1249999999999999167, 0.7499999999999998890, 1.530808498934190276E-17 ) ) ;
#32 = EDGE_CURVE ( 'NONE', #348, #358, #190, .T. ) ;
#33 = DIRECTION ( 'NONE',  ( 0.000000000000000000, 0.000000000000000000, -1.000000000000000000 ) ) ;
#34 = ORIENTED_EDGE ( 'NONE', *, *, #188, .T. ) ;
#35 = CARTESIAN_POINT ( 'NONE',  ( 1.530808498934190585E-17, 0.7500000000000001110, 0.1249999999999999029 ) ) ;
#36 = AXIS2_PLACEMENT_3D ( 'NONE', #172, #357, #206 ) ;
#37 = FILL_AREA_STYLE_COLOUR ( '', #19 ) ;
#38 = CARTESIAN_POINT ( 'NONE',  ( -7.654042494670957545E-18, 0.000000000000000000, 0.000000000000000000 ) ) ;
#39 = DIRECTION ( 'NONE',  ( -0.000000000000000000, -1.000000000000000000, -0.000000000000000000 ) ) ;
#40 = DIRECTION ( 'NONE',  ( -1.000000000000000000, 0.000000000000000000, 0.000000000000000000 ) ) ;
#41 = EDGE_CURVE ( 'NONE', #204, #101, #173, .T. ) ;
#42 = SURFACE_SIDE_STYLE ('',( #241 ) ) ;
#43 =( LENGTH_UNIT ( ) NAMED_UNIT ( * ) SI_UNIT ( $, .METRE. ) );
#44 = EDGE_LOOP ( 'NONE', ( #17, #11, #270, #47, #74 ) ) ;
#45 = PRESENTATION_LAYER_ASSIGNMENT (  '', '', ( #123 ) ) ;
#46 = ORIENTED_EDGE ( 'NONE', *, *, #164, .F. ) ;
#47 = ORIENTED_EDGE ( 'NONE', *, *, #234, .F. ) ;
#48 = MECHANICAL_DESIGN_GEOMETRIC_PRESENTATION_REPRESENTATION (  '', ( #191 ), #114 ) ;
#49 = AXIS2_PLACEMENT_3D ( 'NONE', #76, #291, #91 ) ;
#50 =( NAMED_UNIT ( * ) SI_UNIT ( $, .STERADIAN. ) SOLID_ANGLE_UNIT ( ) );
#51 = SHAPE_DEFINITION_REPRESENTATION ( #316, #103 ) ;
#52 = CARTESIAN_POINT ( 'NONE',  ( 2.143131898507868297E-16, 0.7500000000000001110, 0.000000000000000000 ) ) ;
#53 = SURFACE_STYLE_USAGE ( .BOTH. , #95 ) ;
#54 = APPLICATION_PROTOCOL_DEFINITION ( 'draft international standard', 'automotive_design', 1998, #294 ) ;
#55 = FILL_AREA_STYLE ('',( #225 ) ) ;
#56 = DIMENSIONAL_EXPONENTS ( 1.000000000000000000, 0.000000000000000000, 0.000000000000000000, 0.000000000000000000, 0.000000000000000000, 0.000000000000000000, 0.000000000000000000 ) ;
#57 =( NAMED_UNIT ( * ) SI_UNIT ( $, .STERADIAN. ) SOLID_ANGLE_UNIT ( ) );
#58 =( LENGTH_UNIT ( ) NAMED_UNIT ( * ) SI_UNIT ( $, .METRE. ) );
#59 = AXIS2_PLACEMENT_3D ( 'NONE', #179, #352, #13 ) ;
#60 =( NAMED_UNIT ( * ) PLANE_ANGLE_UNIT ( ) SI_UNIT ( $, .RADIAN. ) );
#61 =( GEOMETRIC_REPRESENTATION_CONTEXT ( 3 ) GLOBAL_UNCERTAINTY_ASSIGNED_CONTEXT ( ( #224 ) ) GLOBAL_UNIT_ASSIGNED_CONTEXT ( ( #196, #236, #289 ) ) REPRESENTATION_CONTEXT ( 'NONE', 'WORKASPACE' ) );
#62 = DIRECTION ( 'NONE',  ( -1.000000000000000000, 0.000000000000000000, 0.000000000000000000 ) ) ;
#63 = DIRECTION ( 'NONE',  ( 0.000000000000000000, 0.000000000000000000, 1.000000000000000000 ) ) ;
#64 = CARTESIAN_POINT ( 'NONE',  ( 0.000000000000000000, 0.1250000000000000278, 0.000000000000000000 ) ) ;
#65 = DIRECTION ( 'NONE',  ( -0.000000000000000000, -1.000000000000000000, -0.000000000000000000 ) ) ;
#66 = PRODUCT_DEFINITION_CONTEXT ( 'detailed design', #294, 'design' ) ;
#67 =( CONVERSION_BASED_UNIT ( 'INCH', #141 ) LENGTH_UNIT ( ) NAMED_UNIT ( #162 ) );
#68 = ORIENTED_EDGE ( 'NONE', *, *, #41, .F. ) ;
#69 = CIRCLE ( 'NONE', #368, 0.1250000000000000000 ) ;
#70 =( LENGTH_UNIT ( ) NAMED_UNIT ( * ) SI_UNIT ( $, .METRE. ) );
#71 = CARTESIAN_POINT ( 'NONE',  ( -1.530808498934191509E-17, 0.1250000000000000000, 0.000000000000000000 ) ) ;
#72 =( CONVERSION_BASED_UNIT ( 'INCH', #210 ) LENGTH_UNIT ( ) NAMED_UNIT ( #229 ) );
#73 = PRESENTATION_STYLE_ASSIGNMENT (( #333 ) ) ;
#74 = ORIENTED_EDGE ( 'NONE', *, *, #135, .F. ) ;
#75 = EDGE_CURVE ( 'NONE', #301, #182, #223, .T. ) ;
#76 = CARTESIAN_POINT ( 'NONE',  ( -6.123233995736766036E-17, 2.500000000000000000, 0.000000000000000000 ) ) ;
#77 =( LENGTH_UNIT ( ) NAMED_UNIT ( * ) SI_UNIT ( $, .METRE. ) );
#78 = SURFACE_STYLE_USAGE ( .BOTH. , #42 ) ;
#79 = STYLED_ITEM ( 'NONE', ( #245 ), #317 ) ;
#80 = DIRECTION ( 'NONE',  ( 0.000000000000000000, 0.000000000000000000, -1.000000000000000000 ) ) ;
#81 = SURFACE_STYLE_USAGE ( .BOTH. , #287 ) ;
#82 = STYLED_ITEM ( 'NONE', ( #314 ), #194 ) ;
#83 = AXIS2_PLACEMENT_3D ( 'NONE', #52, #22, #169 ) ;
#84 = PRESENTATION_LAYER_ASSIGNMENT (  '', '', ( #79 ) ) ;
#85 = DIMENSIONAL_EXPONENTS ( 1.000000000000000000, 0.000000000000000000, 0.000000000000000000, 0.000000000000000000, 0.000000000000000000, 0.000000000000000000, 0.000000000000000000 ) ;
#86 =( CONVERSION_BASED_UNIT ( 'INCH', #26 ) LENGTH_UNIT ( ) NAMED_UNIT ( #85 ) );
#87 = SURFACE_STYLE_FILL_AREA ( #112 ) ;
#88 = SURFACE_SIDE_STYLE ('',( #167 ) ) ;
#89 = CIRCLE ( 'NONE', #150, 0.1250000000000000000 ) ;
#90 = CARTESIAN_POINT ( 'NONE',  ( -0.1250000000000000555, 2.500000000000000000, 0.000000000000000000 ) ) ;
#91 = DIRECTION ( 'NONE',  ( -1.000000000000000000, 0.000000000000000000, 0.000000000000000000 ) ) ;
#92 = DIRECTION ( 'NONE',  ( -0.000000000000000000, -1.000000000000000000, -0.000000000000000000 ) ) ;
#93 = DIRECTION ( 'NONE',  ( 0.000000000000000000, 0.000000000000000000, -1.000000000000000000 ) ) ;
#94 =( NAMED_UNIT ( * ) SI_UNIT ( $, .STERADIAN. ) SOLID_ANGLE_UNIT ( ) );
#95 = SURFACE_SIDE_STYLE ('',( #354 ) ) ;
#96 = DIRECTION ( 'NONE',  ( -0.000000000000000000, -1.000000000000000000, -0.000000000000000000 ) ) ;
#97 = EDGE_LOOP ( 'NONE', ( #339, #244, #369, #209 ) ) ;
#98 = DIRECTION ( 'NONE',  ( 0.000000000000000000, 0.000000000000000000, -1.000000000000000000 ) ) ;
#99 = CLOSED_SHELL ( 'NONE', ( #299, #265, #305, #171 ) ) ;
#100 = COLOUR_RGB ( '',0.7921568627450980005, 0.8196078431372548767, 0.9333333333333333481 ) ;
#101 = VERTEX_POINT ( 'NONE', #90 ) ;
#102 = DIRECTION ( 'NONE',  ( 0.000000000000000000, 0.000000000000000000, 1.000000000000000000 ) ) ;
#103 = ADVANCED_BREP_SHAPE_REPRESENTATION ( '56152', ( #163, #292, #313 ), #130 ) ;
#104 = DIRECTION ( 'NONE',  ( 1.000000000000000000, 0.000000000000000000, 0.000000000000000000 ) ) ;
#105 = COLOUR_RGB ( '',0.7921568627450980005, 0.8196078431372548767, 0.9333333333333333481 ) ;
#106 = AXIS2_PLACEMENT_3D ( 'NONE', #332, #212, #170 ) ;
#107 = LENGTH_MEASURE_WITH_UNIT ( LENGTH_MEASURE( 0.02539999999999999897 ), #58 );
#108 = ORIENTED_EDGE ( 'NONE', *, *, #340, .T. ) ;
#109 = DIRECTION ( 'NONE',  ( 1.000000000000000000, 0.000000000000000000, 0.000000000000000000 ) ) ;
#110 = DIRECTION ( 'NONE',  ( 1.000000000000000000, 0.000000000000000000, 0.000000000000000000 ) ) ;
#111 = DIMENSIONAL_EXPONENTS ( 1.000000000000000000, 0.000000000000000000, 0.000000000000000000, 0.000000000000000000, 0.000000000000000000, 0.000000000000000000, 0.000000000000000000 ) ;
#112 = FILL_AREA_STYLE ('',( #166 ) ) ;
#113 = AXIS2_PLACEMENT_3D ( 'NONE', #125, #262, #62 ) ;
#114 =( GEOMETRIC_REPRESENTATION_CONTEXT ( 3 ) GLOBAL_UNCERTAINTY_ASSIGNED_CONTEXT ( ( #129 ) ) GLOBAL_UNIT_ASSIGNED_CONTEXT ( ( #86, #60, #57 ) ) REPRESENTATION_CONTEXT ( 'NONE', 'WORKASPACE' ) );
#115 = CIRCLE ( 'NONE', #329, 0.1250000000000000000 ) ;
#116 = DIRECTION ( 'NONE',  ( 1.574545884618025482E-16, -1.000000000000000000, 0.000000000000000000 ) ) ;
#117 = DIRECTION ( 'NONE',  ( -1.574545884618025482E-16, 1.000000000000000000, -0.000000000000000000 ) ) ;
#118 = FILL_AREA_STYLE ('',( #8 ) ) ;
#119 = AXIS2_PLACEMENT_3D ( 'NONE', #30, #177, #33 ) ;
#120 = VECTOR ( 'NONE', #65, 39.37007874015748143 ) ;
#121 = FACE_OUTER_BOUND ( 'NONE', #149, .T. ) ;
#122 =( NAMED_UNIT ( * ) SI_UNIT ( $, .STERADIAN. ) SOLID_ANGLE_UNIT ( ) );
#123 = STYLED_ITEM ( 'NONE', ( #306 ), #163 ) ;
#124 = CARTESIAN_POINT ( 'NONE',  ( 0.000000000000000000, 0.1250000000000000278, -0.1250000000000000000 ) ) ;
#125 = CARTESIAN_POINT ( 'NONE',  ( 2.143131898507868297E-16, 0.7499999999999998890, 0.000000000000000000 ) ) ;
#126 = CARTESIAN_POINT ( 'NONE',  ( 1.530808498934190893E-17, 0.000000000000000000, 0.1249999999999999445 ) ) ;
#127 = CARTESIAN_POINT ( 'NONE',  ( 0.000000000000000000, 0.000000000000000000, 0.000000000000000000 ) ) ;
#128 = COLOUR_RGB ( '',1.000000000000000000, 0.000000000000000000, 0.000000000000000000 ) ;
#129 = UNCERTAINTY_MEASURE_WITH_UNIT (LENGTH_MEASURE( 1.000000000000000082E-05 ), #86, 'distance_accuracy_value', 'NONE');
#130 =( GEOMETRIC_REPRESENTATION_CONTEXT ( 3 ) GLOBAL_UNCERTAINTY_ASSIGNED_CONTEXT ( ( #203 ) ) GLOBAL_UNIT_ASSIGNED_CONTEXT ( ( #370, #217, #276 ) ) REPRESENTATION_CONTEXT ( 'NONE', 'WORKASPACE' ) );
#131 = VERTEX_POINT ( 'NONE', #31 ) ;
#132 = SURFACE_STYLE_USAGE ( .BOTH. , #88 ) ;
#133 = STYLED_ITEM ( 'NONE', ( #309 ), #292 ) ;
#134 = UNCERTAINTY_MEASURE_WITH_UNIT (LENGTH_MEASURE( 1.000000000000000082E-05 ), #198, 'distance_accuracy_value', 'NONE');
#135 = EDGE_CURVE ( 'NONE', #253, #348, #69, .T. ) ;
#136 = ORIENTED_EDGE ( 'NONE', *, *, #252, .T. ) ;
#137 = FILL_AREA_STYLE ('',( #371 ) ) ;
#138 = STYLED_ITEM ( 'NONE', ( #351 ), #277 ) ;
#139 = FILL_AREA_STYLE ('',( #29 ) ) ;
#140 = SURFACE_SIDE_STYLE ('',( #142 ) ) ;
#141 = LENGTH_MEASURE_WITH_UNIT ( LENGTH_MEASURE( 0.02539999999999999897 ), #43 );
#142 = SURFACE_STYLE_FILL_AREA ( #139 ) ;
#143 = CIRCLE ( 'NONE', #113, 0.1249999999999996947 ) ;
#144 = CARTESIAN_POINT ( 'NONE',  ( -0.1249999999999994726, 0.7499999999999998890, 0.000000000000000000 ) ) ;
#145 = EDGE_LOOP ( 'NONE', ( #136, #246, #180, #297 ) ) ;
#146 = LINE ( 'NONE', #325, #120 ) ;
#147 = DIRECTION ( 'NONE',  ( 0.000000000000000000, 0.000000000000000000, -1.000000000000000000 ) ) ;
#148 = ORIENTED_EDGE ( 'NONE', *, *, #346, .T. ) ;
#149 = EDGE_LOOP ( 'NONE', ( #275, #232 ) ) ;
#150 = AXIS2_PLACEMENT_3D ( 'NONE', #242, #96, #80 ) ;
#151 = DIRECTION ( 'NONE',  ( -1.574545884618025482E-16, 1.000000000000000000, -0.000000000000000000 ) ) ;
#152 = MECHANICAL_DESIGN_GEOMETRIC_PRESENTATION_REPRESENTATION (  '', ( #133 ), #192 ) ;
#153 = CYLINDRICAL_SURFACE ( 'NONE', #106, 0.1249999999999998335 ) ;
#154 = UNCERTAINTY_MEASURE_WITH_UNIT (LENGTH_MEASURE( 1.000000000000000082E-05 ), #67, 'distance_accuracy_value', 'NONE');
#155 = EDGE_LOOP ( 'NONE', ( #290, #344, #240, #148 ) ) ;
#156 = LENGTH_MEASURE_WITH_UNIT ( LENGTH_MEASURE( 0.02539999999999999897 ), #70 );
#157 =( GEOMETRIC_REPRESENTATION_CONTEXT ( 3 ) GLOBAL_UNCERTAINTY_ASSIGNED_CONTEXT ( ( #176 ) ) GLOBAL_UNIT_ASSIGNED_CONTEXT ( ( #197, #226, #255 ) ) REPRESENTATION_CONTEXT ( 'NONE', 'WORKASPACE' ) );
#158 = LENGTH_MEASURE_WITH_UNIT ( LENGTH_MEASURE( 0.02539999999999999897 ), #28 );
#159 = COLOUR_RGB ( '',1.000000000000000000, 0.000000000000000000, 0.000000000000000000 ) ;
#160 = AXIS2_PLACEMENT_3D ( 'NONE', #335, #365, #98 ) ;
#161 = PRESENTATION_STYLE_ASSIGNMENT (( #81 ) ) ;
#162 = DIMENSIONAL_EXPONENTS ( 1.000000000000000000, 0.000000000000000000, 0.000000000000000000, 0.000000000000000000, 0.000000000000000000, 0.000000000000000000, 0.000000000000000000 ) ;
#163 = MANIFOLD_SOLID_BREP ( 'Revolve - Cutting Edge', #261 ) ;
#164 = EDGE_CURVE ( 'NONE', #131, #204, #256, .T. ) ;
#165 = STYLED_ITEM ( 'NONE', ( #73 ), #221 ) ;
#166 = FILL_AREA_STYLE_COLOUR ( '', #128 ) ;
#167 = SURFACE_STYLE_FILL_AREA ( #55 ) ;
#168 = ORIENTED_EDGE ( 'NONE', *, *, #252, .F. ) ;
#169 = DIRECTION ( 'NONE',  ( -1.000000000000000000, -1.574545884618025482E-16, 0.000000000000000000 ) ) ;
#170 = DIRECTION ( 'NONE',  ( -1.000000000000000000, 0.000000000000000000, 0.000000000000000000 ) ) ;
#171 = ADVANCED_FACE ( 'NONE', ( #121 ), #233, .F. ) ;
#172 = CARTESIAN_POINT ( 'NONE',  ( 0.000000000000000000, 0.7500000000000001110, 0.000000000000000000 ) ) ;
#173 = CIRCLE ( 'NONE', #207, 0.1250000000000000000 ) ;
#174 = CIRCLE ( 'NONE', #119, 0.1249999999999999029 ) ;
#175 = CARTESIAN_POINT ( 'NONE',  ( -6.123233995736766036E-17, 2.500000000000000000, 0.000000000000000000 ) ) ;
#176 = UNCERTAINTY_MEASURE_WITH_UNIT (LENGTH_MEASURE( 1.000000000000000082E-05 ), #197, 'distance_accuracy_value', 'NONE');
#177 = DIRECTION ( 'NONE',  ( -0.000000000000000000, -1.000000000000000000, -0.000000000000000000 ) ) ;
#178 = DIRECTION ( 'NONE',  ( -1.000000000000000000, 0.000000000000000000, 0.000000000000000000 ) ) ;
#179 = CARTESIAN_POINT ( 'NONE',  ( 0.000000000000000000, 0.000000000000000000, 0.000000000000000000 ) ) ;
#180 = ORIENTED_EDGE ( 'NONE', *, *, #328, .F. ) ;
#181 = PRODUCT_RELATED_PRODUCT_CATEGORY ( 'part', '', ( #7 ) ) ;
#182 = VERTEX_POINT ( 'NONE', #310 ) ;
#183 = ADVANCED_FACE ( 'NONE', ( #284 ), #311, .T. ) ;
#184 = MECHANICAL_DESIGN_GEOMETRIC_PRESENTATION_REPRESENTATION (  '', ( #165 ), #257 ) ;
#185 = CARTESIAN_POINT ( 'NONE',  ( 2.143131898507868297E-16, 0.7499999999999998890, 0.000000000000000000 ) ) ;
#186 = ORIENTED_EDGE ( 'NONE', *, *, #227, .F. ) ;
#187 = CARTESIAN_POINT ( 'NONE',  ( -1.530808498934191509E-17, 0.1250000000000000000, 0.000000000000000000 ) ) ;
#188 = EDGE_CURVE ( 'NONE', #20, #101, #231, .T. ) ;
#189 = DIMENSIONAL_EXPONENTS ( 1.000000000000000000, 0.000000000000000000, 0.000000000000000000, 0.000000000000000000, 0.000000000000000000, 0.000000000000000000, 0.000000000000000000 ) ;
#190 = CIRCLE ( 'NONE', #347, 0.1250000000000000000 ) ;
#191 = STYLED_ITEM ( 'NONE', ( #161 ), #183 ) ;
#192 =( GEOMETRIC_REPRESENTATION_CONTEXT ( 3 ) GLOBAL_UNCERTAINTY_ASSIGNED_CONTEXT ( ( #134 ) ) GLOBAL_UNIT_ASSIGNED_CONTEXT ( ( #198, #318, #122 ) ) REPRESENTATION_CONTEXT ( 'NONE', 'WORKASPACE' ) );
#193 = SURFACE_STYLE_FILL_AREA ( #137 ) ;
#194 = ADVANCED_FACE ( 'NONE', ( #350 ), #23, .T. ) ;
#195 = CARTESIAN_POINT ( 'NONE',  ( -1.530808498934191509E-17, 0.1250000000000000000, 0.000000000000000000 ) ) ;
#196 =( CONVERSION_BASED_UNIT ( 'INCH', #158 ) LENGTH_UNIT ( ) NAMED_UNIT ( #278 ) );
#197 =( CONVERSION_BASED_UNIT ( 'INCH', #107 ) LENGTH_UNIT ( ) NAMED_UNIT ( #111 ) );
#198 =( CONVERSION_BASED_UNIT ( 'INCH', #6 ) LENGTH_UNIT ( ) NAMED_UNIT ( #341 ) );
#199 = VECTOR ( 'NONE', #355, 39.37007874015748143 ) ;
#200 = PLANE ( 'NONE',  #83 ) ;
#201 =( NAMED_UNIT ( * ) PLANE_ANGLE_UNIT ( ) SI_UNIT ( $, .RADIAN. ) );
#202 = CARTESIAN_POINT ( 'NONE',  ( 1.530808498934191817E-17, 0.1250000000000000278, 0.1250000000000000000 ) ) ;
#203 = UNCERTAINTY_MEASURE_WITH_UNIT (LENGTH_MEASURE( 1.000000000000000082E-05 ), #370, 'distance_accuracy_value', 'NONE');
#204 = VERTEX_POINT ( 'NONE', #237 ) ;
#205 = DIRECTION ( 'NONE',  ( 0.000000000000000000, 0.000000000000000000, -1.000000000000000000 ) ) ;
#206 = DIRECTION ( 'NONE',  ( 0.000000000000000000, -0.000000000000000000, 1.000000000000000000 ) ) ;
#207 = AXIS2_PLACEMENT_3D ( 'NONE', #175, #288, #40 ) ;
#208 = PRESENTATION_LAYER_ASSIGNMENT (  '', '', ( #165 ) ) ;
#209 = ORIENTED_EDGE ( 'NONE', *, *, #356, .T. ) ;
#210 = LENGTH_MEASURE_WITH_UNIT ( LENGTH_MEASURE( 0.02539999999999999897 ), #266 );
#211 = DIRECTION ( 'NONE',  ( 0.000000000000000000, 0.000000000000000000, -1.000000000000000000 ) ) ;
#212 = DIRECTION ( 'NONE',  ( -1.574545884618025482E-16, 1.000000000000000000, -0.000000000000000000 ) ) ;
#213 = UNCERTAINTY_MEASURE_WITH_UNIT (LENGTH_MEASURE( 1.000000000000000082E-05 ), #272, 'distance_accuracy_value', 'NONE');
#214 = CIRCLE ( 'NONE', #286, 0.1250000000000000000 ) ;
#215 = APPLICATION_CONTEXT ( 'automotive_design' ) ;
#216 = ORIENTED_EDGE ( 'NONE', *, *, #363, .F. ) ;
#217 =( NAMED_UNIT ( * ) PLANE_ANGLE_UNIT ( ) SI_UNIT ( $, .RADIAN. ) );
#218 = EDGE_CURVE ( 'NONE', #331, #364, #174, .T. ) ;
#219 = LENGTH_MEASURE_WITH_UNIT ( LENGTH_MEASURE( 0.02539999999999999897 ), #77 );
#220 = APPLICATION_PROTOCOL_DEFINITION ( 'draft international standard', 'automotive_design', 1998, #215 ) ;
#221 = ADVANCED_FACE ( 'NONE', ( #295 ), #353, .T. ) ;
#222 = PRODUCT_CONTEXT ( 'NONE', #215, 'mechanical' ) ;
#223 = CIRCLE ( 'NONE', #24, 0.1250000000000000000 ) ;
#224 = UNCERTAINTY_MEASURE_WITH_UNIT (LENGTH_MEASURE( 1.000000000000000082E-05 ), #196, 'distance_accuracy_value', 'NONE');
#225 = FILL_AREA_STYLE_COLOUR ( '', #159 ) ;
#226 =( NAMED_UNIT ( * ) PLANE_ANGLE_UNIT ( ) SI_UNIT ( $, .RADIAN. ) );
#227 = EDGE_CURVE ( 'NONE', #364, #331, #251, .T. ) ;
#228 = CYLINDRICAL_SURFACE ( 'NONE', #49, 0.1249999999999998335 ) ;
#229 = DIMENSIONAL_EXPONENTS ( 1.000000000000000000, 0.000000000000000000, 0.000000000000000000, 0.000000000000000000, 0.000000000000000000, 0.000000000000000000, 0.000000000000000000 ) ;
#230 = CARTESIAN_POINT ( 'NONE',  ( -0.1249999999999999029, 2.500000000000000000, 0.000000000000000000 ) ) ;
#231 = LINE ( 'NONE', #230, #312 ) ;
#232 = ORIENTED_EDGE ( 'NONE', *, *, #41, .T. ) ;
#233 = PLANE ( 'NONE',  #281 ) ;
#234 = EDGE_CURVE ( 'NONE', #348, #301, #89, .T. ) ;
#235 = PRESENTATION_LAYER_ASSIGNMENT (  '', '', ( #133 ) ) ;
#236 =( NAMED_UNIT ( * ) PLANE_ANGLE_UNIT ( ) SI_UNIT ( $, .RADIAN. ) );
#237 = CARTESIAN_POINT ( 'NONE',  ( 0.1249999999999999306, 2.500000000000000000, 1.530808498934190276E-17 ) ) ;
#238 = DIRECTION ( 'NONE',  ( -0.000000000000000000, -1.000000000000000000, -0.000000000000000000 ) ) ;
#239 = FACE_OUTER_BOUND ( 'NONE', #44, .T. ) ;
#240 = ORIENTED_EDGE ( 'NONE', *, *, #356, .F. ) ;
#241 = SURFACE_STYLE_FILL_AREA ( #336 ) ;
#242 = CARTESIAN_POINT ( 'NONE',  ( 0.000000000000000000, 0.1250000000000000278, 0.000000000000000000 ) ) ;
#243 = AXIS2_PLACEMENT_3D ( 'NONE', #185, #117, #279 ) ;
#244 = ORIENTED_EDGE ( 'NONE', *, *, #234, .T. ) ;
#245 = PRESENTATION_STYLE_ASSIGNMENT (( #78 ) ) ;
#246 = ORIENTED_EDGE ( 'NONE', *, *, #164, .T. ) ;
#247 = DIRECTION ( 'NONE',  ( 0.000000000000000000, 0.000000000000000000, -1.000000000000000000 ) ) ;
#248 = ORIENTED_EDGE ( 'NONE', *, *, #4, .F. ) ;
#249 = LINE ( 'NONE', #126, #199 ) ;
#250 = PRESENTATION_LAYER_ASSIGNMENT (  '', '', ( #138 ) ) ;
#251 = CIRCLE ( 'NONE', #285, 0.1249999999999999029 ) ;
#252 = EDGE_CURVE ( 'NONE', #20, #131, #27, .T. ) ;
#253 = VERTEX_POINT ( 'NONE', #202 ) ;
#254 = AXIS2_PLACEMENT_3D ( 'NONE', #195, #280, #110 ) ;
#255 =( NAMED_UNIT ( * ) SI_UNIT ( $, .STERADIAN. ) SOLID_ANGLE_UNIT ( ) );
#256 = LINE ( 'NONE', #258, #293 ) ;
#257 =( GEOMETRIC_REPRESENTATION_CONTEXT ( 3 ) GLOBAL_UNCERTAINTY_ASSIGNED_CONTEXT ( ( #154 ) ) GLOBAL_UNIT_ASSIGNED_CONTEXT ( ( #67, #201, #323 ) ) REPRESENTATION_CONTEXT ( 'NONE', 'WORKASPACE' ) );
#258 = CARTESIAN_POINT ( 'NONE',  ( 0.1249999999999997641, 2.500000000000000000, 1.530808498934189352E-17 ) ) ;
#259 =( LENGTH_UNIT ( ) NAMED_UNIT ( * ) SI_UNIT ( $, .METRE. ) );
#260 = FILL_AREA_STYLE ('',( #37 ) ) ;
#261 = CLOSED_SHELL ( 'NONE', ( #183, #194, #221, #317, #277 ) ) ;
#262 = DIRECTION ( 'NONE',  ( -1.574545884618025482E-16, 1.000000000000000000, -0.000000000000000000 ) ) ;
#263 = SURFACE_SIDE_STYLE ('',( #321 ) ) ;
#264 = DIRECTION ( 'NONE',  ( -0.000000000000000000, -1.000000000000000000, -0.000000000000000000 ) ) ;
#265 = ADVANCED_FACE ( 'NONE', ( #21 ), #200, .F. ) ;
#266 =( LENGTH_UNIT ( ) NAMED_UNIT ( * ) SI_UNIT ( $, .METRE. ) );
#267 = ORIENTED_EDGE ( 'NONE', *, *, #75, .F. ) ;
#268 = CARTESIAN_POINT ( 'NONE',  ( 0.000000000000000000, 0.1250000000000000278, 0.000000000000000000 ) ) ;
#269 = AXIS2_PLACEMENT_3D ( 'NONE', #187, #63, #109 ) ;
#270 = ORIENTED_EDGE ( 'NONE', *, *, #363, .T. ) ;
#271 = CARTESIAN_POINT ( 'NONE',  ( -1.530808498934191509E-17, 0.1250000000000000000, 0.000000000000000000 ) ) ;
#272 =( CONVERSION_BASED_UNIT ( 'INCH', #219 ) LENGTH_UNIT ( ) NAMED_UNIT ( #56 ) );
#273 = EDGE_LOOP ( 'NONE', ( #338, #186 ) ) ;
#274 = MECHANICAL_DESIGN_GEOMETRIC_PRESENTATION_REPRESENTATION (  '', ( #138 ), #61 ) ;
#275 = ORIENTED_EDGE ( 'NONE', *, *, #328, .T. ) ;
#276 =( NAMED_UNIT ( * ) SI_UNIT ( $, .STERADIAN. ) SOLID_ANGLE_UNIT ( ) );
#277 = ADVANCED_FACE ( 'NONE', ( #322 ), #1, .T. ) ;
#278 = DIMENSIONAL_EXPONENTS ( 1.000000000000000000, 0.000000000000000000, 0.000000000000000000, 0.000000000000000000, 0.000000000000000000, 0.000000000000000000, 0.000000000000000000 ) ;
#279 = DIRECTION ( 'NONE',  ( -1.000000000000000000, 0.000000000000000000, 0.000000000000000000 ) ) ;
#280 = DIRECTION ( 'NONE',  ( 0.000000000000000000, 0.000000000000000000, 1.000000000000000000 ) ) ;
#281 = AXIS2_PLACEMENT_3D ( 'NONE', #343, #116, #345 ) ;
#282 = CIRCLE ( 'NONE', #303, 0.1250000000000000000 ) ;
#283 = DIRECTION ( 'NONE',  ( -1.574545884618025482E-16, 1.000000000000000000, -0.000000000000000000 ) ) ;
#284 = FACE_OUTER_BOUND ( 'NONE', #155, .T. ) ;
#285 = AXIS2_PLACEMENT_3D ( 'NONE', #330, #39, #147 ) ;
#286 = AXIS2_PLACEMENT_3D ( 'NONE', #271, #247, #367 ) ;
#287 = SURFACE_SIDE_STYLE ('',( #87 ) ) ;
#288 = DIRECTION ( 'NONE',  ( -1.574545884618025482E-16, 1.000000000000000000, -0.000000000000000000 ) ) ;
#289 =( NAMED_UNIT ( * ) SI_UNIT ( $, .STERADIAN. ) SOLID_ANGLE_UNIT ( ) );
#290 = ORIENTED_EDGE ( 'NONE', *, *, #135, .T. ) ;
#291 = DIRECTION ( 'NONE',  ( -1.574545884618025482E-16, 1.000000000000000000, -0.000000000000000000 ) ) ;
#292 = MANIFOLD_SOLID_BREP ( 'Revolve - Tool Body (Straight Shanked)', #99 ) ;
#293 = VECTOR ( 'NONE', #25, 39.37007874015748143 ) ;
#294 = APPLICATION_CONTEXT ( 'automotive_design' ) ;
#295 = FACE_OUTER_BOUND ( 'NONE', #273, .T. ) ;
#296 =( GEOMETRIC_REPRESENTATION_CONTEXT ( 3 ) GLOBAL_UNCERTAINTY_ASSIGNED_CONTEXT ( ( #18 ) ) GLOBAL_UNIT_ASSIGNED_CONTEXT ( ( #72, #304, #94 ) ) REPRESENTATION_CONTEXT ( 'NONE', 'WORKASPACE' ) );
#297 = ORIENTED_EDGE ( 'NONE', *, *, #188, .F. ) ;
#298 = DIRECTION ( 'NONE',  ( 1.000000000000000000, 0.000000000000000000, -1.224646799147353207E-16 ) ) ;
#299 = ADVANCED_FACE ( 'NONE', ( #15 ), #228, .T. ) ;
#300 = CARTESIAN_POINT ( 'NONE',  ( 0.000000000000000000, 0.7500000000000001110, -0.1249999999999999029 ) ) ;
#301 = VERTEX_POINT ( 'NONE', #124 ) ;
#302 = FACE_OUTER_BOUND ( 'NONE', #326, .T. ) ;
#303 = AXIS2_PLACEMENT_3D ( 'NONE', #268, #92, #205 ) ;
#304 =( NAMED_UNIT ( * ) PLANE_ANGLE_UNIT ( ) SI_UNIT ( $, .RADIAN. ) );
#305 = ADVANCED_FACE ( 'NONE', ( #302 ), #153, .T. ) ;
#306 = PRESENTATION_STYLE_ASSIGNMENT (( #53 ) ) ;
#307 = ORIENTED_EDGE ( 'NONE', *, *, #4, .T. ) ;
#308 = EDGE_LOOP ( 'NONE', ( #334, #108, #373, #267, #216 ) ) ;
#309 = PRESENTATION_STYLE_ASSIGNMENT (( #349 ) ) ;
#310 = CARTESIAN_POINT ( 'NONE',  ( 0.1250000000000000000, 0.1250000000000000278, 0.000000000000000000 ) ) ;
#311 = SPHERICAL_SURFACE ( 'NONE', #254, 0.1250000000000000000 ) ;
#312 = VECTOR ( 'NONE', #283, 39.37007874015748143 ) ;
#313 = AXIS2_PLACEMENT_3D ( 'NONE', #127, #102, #104 ) ;
#314 = PRESENTATION_STYLE_ASSIGNMENT (( #5 ) ) ;
#315 =( LENGTH_UNIT ( ) NAMED_UNIT ( * ) SI_UNIT ( $, .METRE. ) );
#316 = PRODUCT_DEFINITION_SHAPE ( 'NONE', 'NONE',  #342 ) ;
#317 = ADVANCED_FACE ( 'NONE', ( #239 ), #362, .T. ) ;
#318 =( NAMED_UNIT ( * ) PLANE_ANGLE_UNIT ( ) SI_UNIT ( $, .RADIAN. ) );
#319 = COLOUR_RGB ( '',1.000000000000000000, 0.000000000000000000, 0.000000000000000000 ) ;
#320 = COLOUR_RGB ( '',1.000000000000000000, 0.000000000000000000, 0.000000000000000000 ) ;
#321 = SURFACE_STYLE_FILL_AREA ( #260 ) ;
#322 = FACE_OUTER_BOUND ( 'NONE', #97, .T. ) ;
#323 =( NAMED_UNIT ( * ) SI_UNIT ( $, .STERADIAN. ) SOLID_ANGLE_UNIT ( ) );
#324 = EDGE_LOOP ( 'NONE', ( #168, #248 ) ) ;
#325 = CARTESIAN_POINT ( 'NONE',  ( 0.000000000000000000, 0.000000000000000000, -0.1249999999999999445 ) ) ;
#326 = EDGE_LOOP ( 'NONE', ( #46, #307, #34, #68 ) ) ;
#327 = CARTESIAN_POINT ( 'NONE',  ( -0.1250000000000000000, 0.1250000000000000278, 1.530808498934191201E-17 ) ) ;
#328 = EDGE_CURVE ( 'NONE', #101, #204, #115, .T. ) ;
#329 = AXIS2_PLACEMENT_3D ( 'NONE', #359, #151, #178 ) ;
#330 = CARTESIAN_POINT ( 'NONE',  ( 0.000000000000000000, 0.7500000000000001110, 0.000000000000000000 ) ) ;
#331 = VERTEX_POINT ( 'NONE', #300 ) ;
#332 = CARTESIAN_POINT ( 'NONE',  ( -6.123233995736766036E-17, 2.500000000000000000, 0.000000000000000000 ) ) ;
#333 = SURFACE_STYLE_USAGE ( .BOTH. , #263 ) ;
#334 = ORIENTED_EDGE ( 'NONE', *, *, #218, .T. ) ;
#335 = CARTESIAN_POINT ( 'NONE',  ( 0.000000000000000000, 0.000000000000000000, 0.000000000000000000 ) ) ;
#336 = FILL_AREA_STYLE ('',( #12 ) ) ;
#337 = PRESENTATION_LAYER_ASSIGNMENT (  '', '', ( #191 ) ) ;
#338 = ORIENTED_EDGE ( 'NONE', *, *, #218, .F. ) ;
#339 = ORIENTED_EDGE ( 'NONE', *, *, #32, .F. ) ;
#340 = EDGE_CURVE ( 'NONE', #364, #253, #249, .T. ) ;
#341 = DIMENSIONAL_EXPONENTS ( 1.000000000000000000, 0.000000000000000000, 0.000000000000000000, 0.000000000000000000, 0.000000000000000000, 0.000000000000000000, 0.000000000000000000 ) ;
#342 = PRODUCT_DEFINITION ( 'UNKNOWN', '', #10, #66 ) ;
#343 = CARTESIAN_POINT ( 'NONE',  ( 0.1249999999999999306, 2.500000000000000000, 0.000000000000000000 ) ) ;
#344 = ORIENTED_EDGE ( 'NONE', *, *, #32, .T. ) ;
#345 = DIRECTION ( 'NONE',  ( 1.000000000000000000, 1.574545884618025482E-16, 0.000000000000000000 ) ) ;
#346 = EDGE_CURVE ( 'NONE', #182, #253, #282, .T. ) ;
#347 = AXIS2_PLACEMENT_3D ( 'NONE', #71, #361, #298 ) ;
#348 = VERTEX_POINT ( 'NONE', #327 ) ;
#349 = SURFACE_STYLE_USAGE ( .BOTH. , #140 ) ;
#350 = FACE_OUTER_BOUND ( 'NONE', #308, .T. ) ;
#351 = PRESENTATION_STYLE_ASSIGNMENT (( #132 ) ) ;
#352 = DIRECTION ( 'NONE',  ( -0.000000000000000000, -1.000000000000000000, -0.000000000000000000 ) ) ;
#353 = PLANE ( 'NONE',  #36 ) ;
#354 = SURFACE_STYLE_FILL_AREA ( #118 ) ;
#355 = DIRECTION ( 'NONE',  ( -0.000000000000000000, -1.000000000000000000, -0.000000000000000000 ) ) ;
#356 = EDGE_CURVE ( 'NONE', #182, #358, #214, .T. ) ;
#357 = DIRECTION ( 'NONE',  ( 0.000000000000000000, 1.000000000000000000, 0.000000000000000000 ) ) ;
#358 = VERTEX_POINT ( 'NONE', #38 ) ;
#359 = CARTESIAN_POINT ( 'NONE',  ( -6.123233995736766036E-17, 2.500000000000000000, 0.000000000000000000 ) ) ;
#360 = PRESENTATION_LAYER_ASSIGNMENT (  '', '', ( #82 ) ) ;
#361 = DIRECTION ( 'NONE',  ( 1.224646799147353207E-16, -0.000000000000000000, 1.000000000000000000 ) ) ;
#362 = CYLINDRICAL_SURFACE ( 'NONE', #160, 0.1249999999999999445 ) ;
#363 = EDGE_CURVE ( 'NONE', #331, #301, #146, .T. ) ;
#364 = VERTEX_POINT ( 'NONE', #35 ) ;
#365 = DIRECTION ( 'NONE',  ( -0.000000000000000000, -1.000000000000000000, -0.000000000000000000 ) ) ;
#366 =( NAMED_UNIT ( * ) PLANE_ANGLE_UNIT ( ) SI_UNIT ( $, .RADIAN. ) );
#367 = DIRECTION ( 'NONE',  ( -1.000000000000000000, 0.000000000000000000, 0.000000000000000000 ) ) ;
#368 = AXIS2_PLACEMENT_3D ( 'NONE', #64, #238, #211 ) ;
#369 = ORIENTED_EDGE ( 'NONE', *, *, #75, .T. ) ;
#370 =( CONVERSION_BASED_UNIT ( 'INCH', #156 ) LENGTH_UNIT ( ) NAMED_UNIT ( #189 ) );
#371 = FILL_AREA_STYLE_COLOUR ( '', #319 ) ;
#372 = MECHANICAL_DESIGN_GEOMETRIC_PRESENTATION_REPRESENTATION (  '', ( #123 ), #3 ) ;
#373 = ORIENTED_EDGE ( 'NONE', *, *, #346, .F. ) ;
ENDSEC;
END-ISO-10303-21;
