ISO-10303-21;
HEADER;
FILE_DESCRIPTION (( 'STEP AP214' ),
    '1' );
FILE_NAME ('Micro_KC-187-300-025.STEP',
    '2021-09-03T19:13:57',
    ( '' ),
    ( '' ),
    'SwSTEP 2.0',
    'SolidWorks 2020',
    '' );
FILE_SCHEMA (( 'AUTOMOTIVE_DESIGN' ));
ENDSEC;

DATA;
#1 = CARTESIAN_POINT ( 'NONE',  ( 0.04500000000000001221, 5.510910596163091096E-18, 0.0000000000000000000 ) ) ;
#2 = DIRECTION ( 'NONE',  ( -0.0000000000000000000, -0.0000000000000000000, -1.000000000000000000 ) ) ;
#3 = DIRECTION ( 'NONE',  ( 0.0000000000000000000, 0.0000000000000000000, 1.000000000000000000 ) ) ;
#4 = ORIENTED_EDGE ( 'NONE', *, *, #18, .F. ) ;
#5 = COLOUR_RGB ( '',0.7921568627450980005, 0.8196078431372548767, 0.9333333333333333481 ) ;
#6 = DIRECTION ( 'NONE',  ( -1.000000000000000000, 0.0000000000000000000, 0.0000000000000000000 ) ) ;
#7 = DIRECTION ( 'NONE',  ( 0.0000000000000000000, 0.0000000000000000000, 1.000000000000000000 ) ) ;
#8 = ORIENTED_EDGE ( 'NONE', *, *, #63, .F. ) ;
#9 = AXIS2_PLACEMENT_3D ( 'NONE', #196, #99, #37 ) ;
#10 = FACE_OUTER_BOUND ( 'NONE', #307, .T. ) ;
#11 = ORIENTED_EDGE ( 'NONE', *, *, #287, .F. ) ;
#12 = ORIENTED_EDGE ( 'NONE', *, *, #232, .F. ) ;
#13 = MECHANICAL_DESIGN_GEOMETRIC_PRESENTATION_REPRESENTATION (  '', ( #170 ), #200 ) ;
#14 = LINE ( 'NONE', #245, #119 ) ;
#15 = CARTESIAN_POINT ( 'NONE',  ( 0.0000000000000000000, 0.0000000000000000000, 0.3487499999999997824 ) ) ;
#16 = ORIENTED_EDGE ( 'NONE', *, *, #276, .F. ) ;
#17 = LINE ( 'NONE', #208, #216 ) ;
#18 = EDGE_CURVE ( 'NONE', #273, #64, #348, .T. ) ;
#19 = AXIS2_PLACEMENT_3D ( 'NONE', #15, #306, #43 ) ;
#20 = UNCERTAINTY_MEASURE_WITH_UNIT (LENGTH_MEASURE( 1.000000000000000082E-05 ), #291, 'distance_accuracy_value', 'NONE');
#21 = DIRECTION ( 'NONE',  ( -0.0000000000000000000, -0.0000000000000000000, -1.000000000000000000 ) ) ;
#22 = FACE_OUTER_BOUND ( 'NONE', #36, .T. ) ;
#23 = DIRECTION ( 'NONE',  ( -0.0000000000000000000, -0.0000000000000000000, -1.000000000000000000 ) ) ;
#24 = VECTOR ( 'NONE', #21, 39.37007874015748143 ) ;
#25 = DIRECTION ( 'NONE',  ( -1.000000000000000000, 0.0000000000000000000, 0.0000000000000000000 ) ) ;
#26 = CARTESIAN_POINT ( 'NONE',  ( -0.04500000000000003303, 5.510910596163093407E-18, 0.2999999999999999889 ) ) ;
#27 = APPLICATION_PROTOCOL_DEFINITION ( 'draft international standard', 'automotive_design', 1998, #150 ) ;
#28 = DIRECTION ( 'NONE',  ( 1.000000000000000000, 0.0000000000000000000, 0.0000000000000000000 ) ) ;
#29 = EDGE_LOOP ( 'NONE', ( #4, #336, #265, #268 ) ) ;
#30 = AXIS2_PLACEMENT_3D ( 'NONE', #374, #107, #351 ) ;
#31 = CIRCLE ( 'NONE', #233, 0.04500000000000003303 ) ;
#32 = AXIS2_PLACEMENT_3D ( 'NONE', #323, #120, #205 ) ;
#33 = MECHANICAL_DESIGN_GEOMETRIC_PRESENTATION_REPRESENTATION (  '', ( #56 ), #143 ) ;
#34 = CYLINDRICAL_SURFACE ( 'NONE', #100, 0.09375000000000001388 ) ;
#35 = CARTESIAN_POINT ( 'NONE',  ( 0.09375000000000001388, 1.148106374200643863E-17, 1.984999999999999654 ) ) ;
#36 = EDGE_LOOP ( 'NONE', ( #241, #87, #186, #16 ) ) ;
#37 = DIRECTION ( 'NONE',  ( -1.000000000000000000, 0.0000000000000000000, 0.0000000000000000000 ) ) ;
#38 = SURFACE_STYLE_FILL_AREA ( #303 ) ;
#39 = ORIENTED_EDGE ( 'NONE', *, *, #193, .F. ) ;
#40 = AXIS2_PLACEMENT_3D ( 'NONE', #279, #167, #252 ) ;
#41 = ADVANCED_FACE ( 'NONE', ( #22 ), #314, .T. ) ;
#42 = CARTESIAN_POINT ( 'NONE',  ( -0.09375000000000001388, 0.0000000000000000000, 2.000000000000000000 ) ) ;
#43 = DIRECTION ( 'NONE',  ( 1.000000000000000000, 0.0000000000000000000, 0.0000000000000000000 ) ) ;
#44 = PRODUCT_RELATED_PRODUCT_CATEGORY ( 'part', '', ( #311 ) ) ;
#45 = LENGTH_MEASURE_WITH_UNIT ( LENGTH_MEASURE( 0.02539999999999999897 ), #190 );
#46 = EDGE_LOOP ( 'NONE', ( #327, #130, #123, #255 ) ) ;
#47 = EDGE_CURVE ( 'NONE', #183, #262, #169, .T. ) ;
#48 = CIRCLE ( 'NONE', #260, 0.09375000000000001388 ) ;
#49 = DIRECTION ( 'NONE',  ( 0.0000000000000000000, 0.0000000000000000000, 1.000000000000000000 ) ) ;
#50 =( NAMED_UNIT ( * ) SI_UNIT ( $, .STERADIAN. ) SOLID_ANGLE_UNIT ( ) );
#51 = CARTESIAN_POINT ( 'NONE',  ( 0.0000000000000000000, 0.0000000000000000000, 0.2999999999999999889 ) ) ;
#52 = VERTEX_POINT ( 'NONE', #202 ) ;
#53 = ADVANCED_FACE ( 'NONE', ( #317 ), #378, .T. ) ;
#54 = COLOUR_RGB ( '',0.7921568627450980005, 0.8196078431372548767, 0.9333333333333333481 ) ;
#55 = DIRECTION ( 'NONE',  ( -0.0000000000000000000, -0.0000000000000000000, -1.000000000000000000 ) ) ;
#56 = STYLED_ITEM ( 'NONE', ( #210 ), #270 ) ;
#57 = DIRECTION ( 'NONE',  ( 0.0000000000000000000, 0.0000000000000000000, 1.000000000000000000 ) ) ;
#58 = FACE_OUTER_BOUND ( 'NONE', #370, .T. ) ;
#59 = DIMENSIONAL_EXPONENTS ( 1.000000000000000000, 0.0000000000000000000, 0.0000000000000000000, 0.0000000000000000000, 0.0000000000000000000, 0.0000000000000000000, 0.0000000000000000000 ) ;
#60 = DIRECTION ( 'NONE',  ( 1.000000000000000000, 0.0000000000000000000, 0.0000000000000000000 ) ) ;
#61 = DIRECTION ( 'NONE',  ( 0.0000000000000000000, 0.0000000000000000000, -1.000000000000000000 ) ) ;
#62 = PLANE ( 'NONE',  #91 ) ;
#63 = EDGE_CURVE ( 'NONE', #319, #52, #98, .T. ) ;
#64 = VERTEX_POINT ( 'NONE', #171 ) ;
#65 = CARTESIAN_POINT ( 'NONE',  ( 0.0000000000000000000, 0.0000000000000000000, 2.000000000000000000 ) ) ;
#66 = SURFACE_STYLE_USAGE ( .BOTH. , #296 ) ;
#67 = CARTESIAN_POINT ( 'NONE',  ( 0.0000000000000000000, 0.0000000000000000000, 2.000000000000000000 ) ) ;
#68 = ORIENTED_EDGE ( 'NONE', *, *, #284, .F. ) ;
#69 =( NAMED_UNIT ( * ) SI_UNIT ( $, .STERADIAN. ) SOLID_ANGLE_UNIT ( ) );
#70 = ORIENTED_EDGE ( 'NONE', *, *, #232, .T. ) ;
#71 = APPLICATION_PROTOCOL_DEFINITION ( 'draft international standard', 'automotive_design', 1998, #189 ) ;
#72 = SURFACE_STYLE_USAGE ( .BOTH. , #309 ) ;
#73 = CARTESIAN_POINT ( 'NONE',  ( 0.09375000000000001388, 1.148106374200643863E-17, 0.02500000000000000486 ) ) ;
#74 = ORIENTED_EDGE ( 'NONE', *, *, #18, .T. ) ;
#75 = PRODUCT_DEFINITION ( 'UNKNOWN', '', #115, #195 ) ;
#76 = ORIENTED_EDGE ( 'NONE', *, *, #201, .F. ) ;
#77 = EDGE_LOOP ( 'NONE', ( #361, #365 ) ) ;
#78 = ADVANCED_FACE ( 'NONE', ( #259 ), #283, .T. ) ;
#79 = DIRECTION ( 'NONE',  ( -0.0000000000000000000, -0.0000000000000000000, -1.000000000000000000 ) ) ;
#80 = CYLINDRICAL_SURFACE ( 'NONE', #141, 0.09375000000000001388 ) ;
#81 = AXIS2_PLACEMENT_3D ( 'NONE', #137, #198, #313 ) ;
#82 = CARTESIAN_POINT ( 'NONE',  ( 0.0000000000000000000, 0.0000000000000000000, 0.0000000000000000000 ) ) ;
#83 = FACE_OUTER_BOUND ( 'NONE', #146, .T. ) ;
#84 = DIRECTION ( 'NONE',  ( -0.0000000000000000000, -0.0000000000000000000, -1.000000000000000000 ) ) ;
#85 = VERTEX_POINT ( 'NONE', #352 ) ;
#86 = EDGE_CURVE ( 'NONE', #293, #211, #168, .T. ) ;
#87 = ORIENTED_EDGE ( 'NONE', *, *, #63, .T. ) ;
#88 = CARTESIAN_POINT ( 'NONE',  ( -0.09375000000000001388, 0.0000000000000000000, 0.3487499999999997824 ) ) ;
#89 = CARTESIAN_POINT ( 'NONE',  ( 0.0000000000000000000, 0.0000000000000000000, 1.984999999999999654 ) ) ;
#90 = ORIENTED_EDGE ( 'NONE', *, *, #276, .T. ) ;
#91 = AXIS2_PLACEMENT_3D ( 'NONE', #290, #264, #129 ) ;
#92 = AXIS2_PLACEMENT_3D ( 'NONE', #67, #185, #166 ) ;
#93 = ORIENTED_EDGE ( 'NONE', *, *, #220, .F. ) ;
#94 = DIRECTION ( 'NONE',  ( -0.0000000000000000000, -0.0000000000000000000, -1.000000000000000000 ) ) ;
#95 = EDGE_LOOP ( 'NONE', ( #12, #226, #76, #206 ) ) ;
#96 = DIRECTION ( 'NONE',  ( 1.000000000000000000, 0.0000000000000000000, 0.0000000000000000000 ) ) ;
#97 = ORIENTED_EDGE ( 'NONE', *, *, #220, .T. ) ;
#98 = CIRCLE ( 'NONE', #316, 0.04500000000000003303 ) ;
#99 = DIRECTION ( 'NONE',  ( 0.0000000000000000000, 0.0000000000000000000, -1.000000000000000000 ) ) ;
#100 = AXIS2_PLACEMENT_3D ( 'NONE', #152, #132, #6 ) ;
#101 = AXIS2_PLACEMENT_3D ( 'NONE', #274, #61, #325 ) ;
#102 = VERTEX_POINT ( 'NONE', #354 ) ;
#103 =( NAMED_UNIT ( * ) PLANE_ANGLE_UNIT ( ) SI_UNIT ( $, .RADIAN. ) );
#104 = CIRCLE ( 'NONE', #127, 0.04499999999999999833 ) ;
#105 = ADVANCED_FACE ( 'NONE', ( #353 ), #312, .T. ) ;
#106 = ORIENTED_EDGE ( 'NONE', *, *, #193, .T. ) ;
#107 = DIRECTION ( 'NONE',  ( -0.0000000000000000000, -0.0000000000000000000, -1.000000000000000000 ) ) ;
#108 = ADVANCED_FACE ( 'NONE', ( #292 ), #236, .F. ) ;
#109 = CARTESIAN_POINT ( 'NONE',  ( 0.0000000000000000000, 0.0000000000000000000, 0.2999999999999999889 ) ) ;
#110 = VECTOR ( 'NONE', #209, 39.37007874015748143 ) ;
#111 = CARTESIAN_POINT ( 'NONE',  ( 0.0000000000000000000, 0.0000000000000000000, 0.02500000000000000486 ) ) ;
#112 = DIRECTION ( 'NONE',  ( -1.000000000000000000, 0.0000000000000000000, 0.0000000000000000000 ) ) ;
#113 = CLOSED_SHELL ( 'NONE', ( #362, #53, #105, #295, #347, #235, #78, #375, #207, #41, #230, #108, #131 ) ) ;
#114 = LINE ( 'NONE', #1, #342 ) ;
#115 = PRODUCT_DEFINITION_FORMATION_WITH_SPECIFIED_SOURCE ( 'ANY', '', #311, .NOT_KNOWN. ) ;
#116 = EDGE_CURVE ( 'NONE', #237, #211, #355, .T. ) ;
#117 = ORIENTED_EDGE ( 'NONE', *, *, #86, .F. ) ;
#118 = CIRCLE ( 'NONE', #32, 0.09375000000000001388 ) ;
#119 = VECTOR ( 'NONE', #163, 39.37007874015748143 ) ;
#120 = DIRECTION ( 'NONE',  ( 0.0000000000000000000, 0.0000000000000000000, -1.000000000000000000 ) ) ;
#121 = ORIENTED_EDGE ( 'NONE', *, *, #246, .F. ) ;
#122 = CARTESIAN_POINT ( 'NONE',  ( 0.04500000000000003303, 0.0000000000000000000, 0.2999999999999999889 ) ) ;
#123 = ORIENTED_EDGE ( 'NONE', *, *, #165, .T. ) ;
#124 = CARTESIAN_POINT ( 'NONE',  ( 0.04499999999999999833, 5.510910596163090326E-18, 0.02500000000000000486 ) ) ;
#125 = DIRECTION ( 'NONE',  ( -1.000000000000000000, 0.0000000000000000000, 0.0000000000000000000 ) ) ;
#126 = EDGE_LOOP ( 'NONE', ( #377, #70 ) ) ;
#127 = AXIS2_PLACEMENT_3D ( 'NONE', #111, #289, #203 ) ;
#128 =( LENGTH_UNIT ( ) NAMED_UNIT ( * ) SI_UNIT ( $, .METRE. ) );
#129 = DIRECTION ( 'NONE',  ( 1.000000000000000000, 0.0000000000000000000, -0.0000000000000000000 ) ) ;
#130 = ORIENTED_EDGE ( 'NONE', *, *, #86, .T. ) ;
#131 = ADVANCED_FACE ( 'NONE', ( #204 ), #80, .T. ) ;
#132 = DIRECTION ( 'NONE',  ( -0.0000000000000000000, -0.0000000000000000000, -1.000000000000000000 ) ) ;
#133 = DIRECTION ( 'NONE',  ( -0.0000000000000000000, -0.0000000000000000000, -1.000000000000000000 ) ) ;
#134 = AXIS2_PLACEMENT_3D ( 'NONE', #258, #229, #253 ) ;
#135 = ORIENTED_EDGE ( 'NONE', *, *, #47, .F. ) ;
#136 = EDGE_LOOP ( 'NONE', ( #117, #339, #329, #158 ) ) ;
#137 = CARTESIAN_POINT ( 'NONE',  ( 0.0000000000000000000, 0.0000000000000000000, 0.0000000000000000000 ) ) ;
#138 = UNCERTAINTY_MEASURE_WITH_UNIT (LENGTH_MEASURE( 1.000000000000000082E-05 ), #371, 'distance_accuracy_value', 'NONE');
#139 = DIRECTION ( 'NONE',  ( -1.000000000000000000, 0.0000000000000000000, 0.0000000000000000000 ) ) ;
#140 = DIRECTION ( 'NONE',  ( 1.000000000000000000, 0.0000000000000000000, 0.0000000000000000000 ) ) ;
#141 = AXIS2_PLACEMENT_3D ( 'NONE', #267, #79, #25 ) ;
#142 = DIRECTION ( 'NONE',  ( 0.0000000000000000000, 0.0000000000000000000, 1.000000000000000000 ) ) ;
#143 =( GEOMETRIC_REPRESENTATION_CONTEXT ( 3 ) GLOBAL_UNCERTAINTY_ASSIGNED_CONTEXT ( ( #345 ) ) GLOBAL_UNIT_ASSIGNED_CONTEXT ( ( #275, #194, #69 ) ) REPRESENTATION_CONTEXT ( 'NONE', 'WORKASPACE' ) );
#144 = DIRECTION ( 'NONE',  ( -1.000000000000000000, 0.0000000000000000000, 0.0000000000000000000 ) ) ;
#145 = CARTESIAN_POINT ( 'NONE',  ( -0.07874999999999980627, 0.0000000000000000000, 2.000000000000000000 ) ) ;
#146 = EDGE_LOOP ( 'NONE', ( #11, #135, #239, #121 ) ) ;
#147 = FILL_AREA_STYLE ('',( #337 ) ) ;
#148 = DIRECTION ( 'NONE',  ( -0.0000000000000000000, -0.0000000000000000000, -1.000000000000000000 ) ) ;
#149 = ORIENTED_EDGE ( 'NONE', *, *, #367, .F. ) ;
#150 = APPLICATION_CONTEXT ( 'automotive_design' ) ;
#151 = VECTOR ( 'NONE', #159, 39.37007874015748143 ) ;
#152 = CARTESIAN_POINT ( 'NONE',  ( 0.0000000000000000000, 0.0000000000000000000, 2.000000000000000000 ) ) ;
#153 = FILL_AREA_STYLE_COLOUR ( '', #5 ) ;
#154 = ORIENTED_EDGE ( 'NONE', *, *, #251, .T. ) ;
#155 = VECTOR ( 'NONE', #272, 39.37007874015748143 ) ;
#156 = LINE ( 'NONE', #42, #151 ) ;
#157 = CONICAL_SURFACE ( 'NONE', #101, 0.07874999999999980627, 0.7853981633974466137 ) ;
#158 = ORIENTED_EDGE ( 'NONE', *, *, #116, .T. ) ;
#159 = DIRECTION ( 'NONE',  ( -0.0000000000000000000, -0.0000000000000000000, -1.000000000000000000 ) ) ;
#160 = CARTESIAN_POINT ( 'NONE',  ( 0.0000000000000000000, 0.0000000000000000000, 0.3487499999999997824 ) ) ;
#161 = EDGE_LOOP ( 'NONE', ( #359, #90 ) ) ;
#162 = EDGE_CURVE ( 'NONE', #319, #302, #114, .T. ) ;
#163 = DIRECTION ( 'NONE',  ( 0.7071067811865491270, 0.0000000000000000000, 0.7071067811865459074 ) ) ;
#164 = LINE ( 'NONE', #346, #297 ) ;
#165 = EDGE_CURVE ( 'NONE', #211, #237, #48, .T. ) ;
#166 = DIRECTION ( 'NONE',  ( -1.000000000000000000, 0.0000000000000000000, 0.0000000000000000000 ) ) ;
#167 = DIRECTION ( 'NONE',  ( 0.0000000000000000000, 0.0000000000000000000, 1.000000000000000000 ) ) ;
#168 = LINE ( 'NONE', #379, #172 ) ;
#169 = CIRCLE ( 'NONE', #134, 0.07874999999999980627 ) ;
#170 = STYLED_ITEM ( 'NONE', ( #368 ), #244 ) ;
#171 = CARTESIAN_POINT ( 'NONE',  ( 0.09375000000000001388, 1.148106374200643863E-17, 0.3487499999999997824 ) ) ;
#172 = VECTOR ( 'NONE', #148, 39.37007874015748143 ) ;
#173 = DIMENSIONAL_EXPONENTS ( 1.000000000000000000, 0.0000000000000000000, 0.0000000000000000000, 0.0000000000000000000, 0.0000000000000000000, 0.0000000000000000000, 0.0000000000000000000 ) ;
#174 = AXIS2_PLACEMENT_3D ( 'NONE', #65, #343, #364 ) ;
#175 = DIRECTION ( 'NONE',  ( 0.0000000000000000000, 0.0000000000000000000, 1.000000000000000000 ) ) ;
#176 = DIRECTION ( 'NONE',  ( -0.7071067811865491270, 8.659560562354952580E-17, 0.7071067811865459074 ) ) ;
#177 = CARTESIAN_POINT ( 'NONE',  ( 0.0000000000000000000, 0.0000000000000000000, 0.2999999999999999889 ) ) ;
#178 = FACE_BOUND ( 'NONE', #161, .T. ) ;
#179 = DIRECTION ( 'NONE',  ( -0.0000000000000000000, -0.0000000000000000000, -1.000000000000000000 ) ) ;
#180 = SURFACE_STYLE_FILL_AREA ( #147 ) ;
#181 = AXIS2_PLACEMENT_3D ( 'NONE', #82, #7, #358 ) ;
#182 = DIRECTION ( 'NONE',  ( 1.000000000000000000, 0.0000000000000000000, 0.0000000000000000000 ) ) ;
#183 = VERTEX_POINT ( 'NONE', #145 ) ;
#184 = LENGTH_MEASURE_WITH_UNIT ( LENGTH_MEASURE( 0.02539999999999999897 ), #128 );
#185 = DIRECTION ( 'NONE',  ( -0.0000000000000000000, -0.0000000000000000000, -1.000000000000000000 ) ) ;
#186 = ORIENTED_EDGE ( 'NONE', *, *, #373, .T. ) ;
#187 = CARTESIAN_POINT ( 'NONE',  ( 0.07874999999999980627, 1.056257864264590573E-17, 2.000000000000000000 ) ) ;
#188 = EDGE_LOOP ( 'NONE', ( #39, #97, #300, #350 ) ) ;
#189 = APPLICATION_CONTEXT ( 'automotive_design' ) ;
#190 =( LENGTH_UNIT ( ) NAMED_UNIT ( * ) SI_UNIT ( $, .METRE. ) );
#191 = DIRECTION ( 'NONE',  ( -1.000000000000000000, 0.0000000000000000000, 0.0000000000000000000 ) ) ;
#192 = VERTEX_POINT ( 'NONE', #322 ) ;
#193 = EDGE_CURVE ( 'NONE', #52, #319, #31, .T. ) ;
#194 =( NAMED_UNIT ( * ) PLANE_ANGLE_UNIT ( ) SI_UNIT ( $, .RADIAN. ) );
#195 = PRODUCT_DEFINITION_CONTEXT ( 'detailed design', #189, 'design' ) ;
#196 = CARTESIAN_POINT ( 'NONE',  ( 0.0000000000000000000, 0.0000000000000000000, 2.000000000000000000 ) ) ;
#197 =( GEOMETRIC_REPRESENTATION_CONTEXT ( 3 ) GLOBAL_UNCERTAINTY_ASSIGNED_CONTEXT ( ( #20 ) ) GLOBAL_UNIT_ASSIGNED_CONTEXT ( ( #291, #217, #328 ) ) REPRESENTATION_CONTEXT ( 'NONE', 'WORKASPACE' ) );
#198 = DIRECTION ( 'NONE',  ( -0.0000000000000000000, -0.0000000000000000000, -1.000000000000000000 ) ) ;
#199 = CARTESIAN_POINT ( 'NONE',  ( 0.09375000000000001388, 1.148106374200643863E-17, 2.000000000000000000 ) ) ;
#200 =( GEOMETRIC_REPRESENTATION_CONTEXT ( 3 ) GLOBAL_UNCERTAINTY_ASSIGNED_CONTEXT ( ( #138 ) ) GLOBAL_UNIT_ASSIGNED_CONTEXT ( ( #371, #103, #50 ) ) REPRESENTATION_CONTEXT ( 'NONE', 'WORKASPACE' ) );
#201 = EDGE_CURVE ( 'NONE', #102, #273, #118, .T. ) ;
#202 = CARTESIAN_POINT ( 'NONE',  ( -0.04500000000000003303, 8.495987169084765633E-18, 0.2999999999999999889 ) ) ;
#203 = DIRECTION ( 'NONE',  ( -1.000000000000000000, 0.0000000000000000000, 0.0000000000000000000 ) ) ;
#204 = FACE_OUTER_BOUND ( 'NONE', #136, .T. ) ;
#205 = DIRECTION ( 'NONE',  ( 1.000000000000000000, 0.0000000000000000000, 0.0000000000000000000 ) ) ;
#206 = ORIENTED_EDGE ( 'NONE', *, *, #257, .F. ) ;
#207 = ADVANCED_FACE ( 'NONE', ( #58 ), #278, .T. ) ;
#208 = CARTESIAN_POINT ( 'NONE',  ( -0.09375000000000001388, 0.0000000000000000000, 2.000000000000000000 ) ) ;
#209 = DIRECTION ( 'NONE',  ( -0.7071067811865463515, 0.0000000000000000000, -0.7071067811865486830 ) ) ;
#210 = PRESENTATION_STYLE_ASSIGNMENT (( #72 ) ) ;
#211 = VERTEX_POINT ( 'NONE', #326 ) ;
#212 = AXIS2_PLACEMENT_3D ( 'NONE', #269, #94, #191 ) ;
#213 = EDGE_CURVE ( 'NONE', #192, #302, #104, .T. ) ;
#214 = ORIENTED_EDGE ( 'NONE', *, *, #162, .T. ) ;
#215 = AXIS2_PLACEMENT_3D ( 'NONE', #248, #179, #271 ) ;
#216 = VECTOR ( 'NONE', #266, 39.37007874015748143 ) ;
#217 =( NAMED_UNIT ( * ) PLANE_ANGLE_UNIT ( ) SI_UNIT ( $, .RADIAN. ) );
#218 = CYLINDRICAL_SURFACE ( 'NONE', #92, 0.09375000000000001388 ) ;
#219 = ORIENTED_EDGE ( 'NONE', *, *, #201, .T. ) ;
#220 = EDGE_CURVE ( 'NONE', #52, #304, #238, .T. ) ;
#221 = CARTESIAN_POINT ( 'NONE',  ( -0.09375000000000001388, 0.0000000000000000000, 0.0000000000000000000 ) ) ;
#222 = ORIENTED_EDGE ( 'NONE', *, *, #332, .T. ) ;
#223 = FACE_OUTER_BOUND ( 'NONE', #95, .T. ) ;
#224 = EDGE_CURVE ( 'NONE', #85, #293, #250, .T. ) ;
#225 = ORIENTED_EDGE ( 'NONE', *, *, #213, .F. ) ;
#226 = ORIENTED_EDGE ( 'NONE', *, *, #287, .T. ) ;
#227 = PRESENTATION_LAYER_ASSIGNMENT (  '', '', ( #170 ) ) ;
#228 = CARTESIAN_POINT ( 'NONE',  ( 0.0000000000000000000, 0.0000000000000000000, 2.000000000000000000 ) ) ;
#229 = DIRECTION ( 'NONE',  ( 0.0000000000000000000, 0.0000000000000000000, 1.000000000000000000 ) ) ;
#230 = ADVANCED_FACE ( 'NONE', ( #178, #288 ), #62, .T. ) ;
#231 = ORIENTED_EDGE ( 'NONE', *, *, #116, .F. ) ;
#232 = EDGE_CURVE ( 'NONE', #262, #183, #356, .T. ) ;
#233 = AXIS2_PLACEMENT_3D ( 'NONE', #286, #23, #112 ) ;
#234 = DIRECTION ( 'NONE',  ( 1.000000000000000000, 0.0000000000000000000, 0.0000000000000000000 ) ) ;
#235 = ADVANCED_FACE ( 'NONE', ( #338 ), #218, .T. ) ;
#236 = PLANE ( 'NONE',  #181 ) ;
#237 = VERTEX_POINT ( 'NONE', #221 ) ;
#238 = LINE ( 'NONE', #26, #331 ) ;
#239 = ORIENTED_EDGE ( 'NONE', *, *, #257, .T. ) ;
#240 = CYLINDRICAL_SURFACE ( 'NONE', #215, 0.09375000000000001388 ) ;
#241 = ORIENTED_EDGE ( 'NONE', *, *, #162, .F. ) ;
#242 = CARTESIAN_POINT ( 'NONE',  ( -0.07874999999999980627, 0.0000000000000000000, 2.000000000000000000 ) ) ;
#243 = EDGE_LOOP ( 'NONE', ( #106, #214, #225, #341 ) ) ;
#244 = ADVANCED_BREP_SHAPE_REPRESENTATION ( 'Micro_KC-187-300-025', ( #270, #40 ), #197 ) ;
#245 = CARTESIAN_POINT ( 'NONE',  ( 0.04500000000000003303, 0.0000000000000000000, 0.2999999999999999889 ) ) ;
#246 = EDGE_CURVE ( 'NONE', #273, #102, #344, .T. ) ;
#247 = DIRECTION ( 'NONE',  ( -0.0000000000000000000, -0.0000000000000000000, -1.000000000000000000 ) ) ;
#248 = CARTESIAN_POINT ( 'NONE',  ( 0.0000000000000000000, 0.0000000000000000000, 2.000000000000000000 ) ) ;
#249 = DIRECTION ( 'NONE',  ( 0.0000000000000000000, 0.0000000000000000000, -1.000000000000000000 ) ) ;
#250 = CIRCLE ( 'NONE', #261, 0.09375000000000001388 ) ;
#251 = EDGE_CURVE ( 'NONE', #64, #304, #318, .T. ) ;
#252 = DIRECTION ( 'NONE',  ( 1.000000000000000000, 0.0000000000000000000, 0.0000000000000000000 ) ) ;
#253 = DIRECTION ( 'NONE',  ( 1.000000000000000000, 0.0000000000000000000, 0.0000000000000000000 ) ) ;
#254 = AXIS2_PLACEMENT_3D ( 'NONE', #109, #57, #140 ) ;
#255 = ORIENTED_EDGE ( 'NONE', *, *, #324, .F. ) ;
#256 = CIRCLE ( 'NONE', #19, 0.09375000000000001388 ) ;
#257 = EDGE_CURVE ( 'NONE', #183, #102, #369, .T. ) ;
#258 = CARTESIAN_POINT ( 'NONE',  ( 0.0000000000000000000, 0.0000000000000000000, 2.000000000000000000 ) ) ;
#259 = FACE_OUTER_BOUND ( 'NONE', #126, .T. ) ;
#260 = AXIS2_PLACEMENT_3D ( 'NONE', #360, #175, #28 ) ;
#261 = AXIS2_PLACEMENT_3D ( 'NONE', #320, #2, #144 ) ;
#262 = VERTEX_POINT ( 'NONE', #187 ) ;
#263 = CARTESIAN_POINT ( 'NONE',  ( 0.0000000000000000000, 0.0000000000000000000, 0.0000000000000000000 ) ) ;
#264 = DIRECTION ( 'NONE',  ( 0.0000000000000000000, 0.0000000000000000000, 1.000000000000000000 ) ) ;
#265 = ORIENTED_EDGE ( 'NONE', *, *, #367, .T. ) ;
#266 = DIRECTION ( 'NONE',  ( -0.0000000000000000000, -0.0000000000000000000, -1.000000000000000000 ) ) ;
#267 = CARTESIAN_POINT ( 'NONE',  ( 0.0000000000000000000, 0.0000000000000000000, 2.000000000000000000 ) ) ;
#268 = ORIENTED_EDGE ( 'NONE', *, *, #251, .F. ) ;
#269 = CARTESIAN_POINT ( 'NONE',  ( 0.0000000000000000000, 0.0000000000000000000, 0.02500000000000000486 ) ) ;
#270 = MANIFOLD_SOLID_BREP ( 'Cut-Revolve1', #113 ) ;
#271 = DIRECTION ( 'NONE',  ( -1.000000000000000000, 0.0000000000000000000, 0.0000000000000000000 ) ) ;
#272 = DIRECTION ( 'NONE',  ( -0.0000000000000000000, -0.0000000000000000000, -1.000000000000000000 ) ) ;
#273 = VERTEX_POINT ( 'NONE', #35 ) ;
#274 = CARTESIAN_POINT ( 'NONE',  ( 0.0000000000000000000, 0.0000000000000000000, 2.000000000000000000 ) ) ;
#275 =( CONVERSION_BASED_UNIT ( 'INCH', #299 ) LENGTH_UNIT ( ) NAMED_UNIT ( #321 ) );
#276 = EDGE_CURVE ( 'NONE', #302, #192, #333, .T. ) ;
#277 = SHAPE_DEFINITION_REPRESENTATION ( #280, #244 ) ;
#278 = CONICAL_SURFACE ( 'NONE', #305, 0.04500000000000003303, 0.7853981633974506105 ) ;
#279 = CARTESIAN_POINT ( 'NONE',  ( 0.0000000000000000000, 0.0000000000000000000, 0.0000000000000000000 ) ) ;
#280 = PRODUCT_DEFINITION_SHAPE ( 'NONE', 'NONE',  #75 ) ;
#281 = EDGE_CURVE ( 'NONE', #293, #85, #366, .T. ) ;
#282 = DIRECTION ( 'NONE',  ( 1.000000000000000000, 0.0000000000000000000, -0.0000000000000000000 ) ) ;
#283 = PLANE ( 'NONE',  #294 ) ;
#284 = EDGE_CURVE ( 'NONE', #304, #64, #256, .T. ) ;
#285 = ORIENTED_EDGE ( 'NONE', *, *, #165, .F. ) ;
#286 = CARTESIAN_POINT ( 'NONE',  ( 0.0000000000000000000, 0.0000000000000000000, 0.2999999999999999889 ) ) ;
#287 = EDGE_CURVE ( 'NONE', #262, #273, #164, .T. ) ;
#288 = FACE_OUTER_BOUND ( 'NONE', #77, .T. ) ;
#289 = DIRECTION ( 'NONE',  ( -0.0000000000000000000, -0.0000000000000000000, -1.000000000000000000 ) ) ;
#290 = CARTESIAN_POINT ( 'NONE',  ( 0.09375000000000001388, 0.0000000000000000000, 0.02500000000000000486 ) ) ;
#291 =( CONVERSION_BASED_UNIT ( 'INCH', #184 ) LENGTH_UNIT ( ) NAMED_UNIT ( #59 ) );
#292 = FACE_OUTER_BOUND ( 'NONE', #315, .T. ) ;
#293 = VERTEX_POINT ( 'NONE', #73 ) ;
#294 = AXIS2_PLACEMENT_3D ( 'NONE', #228, #49, #282 ) ;
#295 = ADVANCED_FACE ( 'NONE', ( #223 ), #349, .T. ) ;
#296 = SURFACE_SIDE_STYLE ('',( #180 ) ) ;
#297 = VECTOR ( 'NONE', #310, 39.37007874015748143 ) ;
#298 = AXIS2_PLACEMENT_3D ( 'NONE', #89, #249, #96 ) ;
#299 = LENGTH_MEASURE_WITH_UNIT ( LENGTH_MEASURE( 0.02539999999999999897 ), #340 );
#300 = ORIENTED_EDGE ( 'NONE', *, *, #284, .T. ) ;
#301 = FACE_OUTER_BOUND ( 'NONE', #46, .T. ) ;
#302 = VERTEX_POINT ( 'NONE', #124 ) ;
#303 = FILL_AREA_STYLE ('',( #153 ) ) ;
#304 = VERTEX_POINT ( 'NONE', #88 ) ;
#305 = AXIS2_PLACEMENT_3D ( 'NONE', #177, #142, #60 ) ;
#306 = DIRECTION ( 'NONE',  ( -0.0000000000000000000, -0.0000000000000000000, -1.000000000000000000 ) ) ;
#307 = EDGE_LOOP ( 'NONE', ( #219, #74, #68, #149 ) ) ;
#308 = PRODUCT_CONTEXT ( 'NONE', #150, 'mechanical' ) ;
#309 = SURFACE_SIDE_STYLE ('',( #38 ) ) ;
#310 = DIRECTION ( 'NONE',  ( 0.7071067811865463515, 8.659560562354916834E-17, -0.7071067811865486830 ) ) ;
#311 = PRODUCT ( 'Micro_KC-187-300-025', 'Micro_KC-187-300-025', '', ( #308 ) ) ;
#312 = CONICAL_SURFACE ( 'NONE', #254, 0.04500000000000003303, 0.7853981633974506105 ) ;
#313 = DIRECTION ( 'NONE',  ( -1.000000000000000000, 0.0000000000000000000, 0.0000000000000000000 ) ) ;
#314 = CYLINDRICAL_SURFACE ( 'NONE', #81, 0.04500000000000001221 ) ;
#315 = EDGE_LOOP ( 'NONE', ( #231, #285 ) ) ;
#316 = AXIS2_PLACEMENT_3D ( 'NONE', #51, #55, #139 ) ;
#317 = FACE_OUTER_BOUND ( 'NONE', #243, .T. ) ;
#318 = CIRCLE ( 'NONE', #357, 0.09375000000000001388 ) ;
#319 = VERTEX_POINT ( 'NONE', #122 ) ;
#320 = CARTESIAN_POINT ( 'NONE',  ( 0.0000000000000000000, 0.0000000000000000000, 0.02500000000000000486 ) ) ;
#321 = DIMENSIONAL_EXPONENTS ( 1.000000000000000000, 0.0000000000000000000, 0.0000000000000000000, 0.0000000000000000000, 0.0000000000000000000, 0.0000000000000000000, 0.0000000000000000000 ) ;
#322 = CARTESIAN_POINT ( 'NONE',  ( -0.04499999999999999833, 0.0000000000000000000, 0.02500000000000000486 ) ) ;
#323 = CARTESIAN_POINT ( 'NONE',  ( 0.0000000000000000000, 0.0000000000000000000, 1.984999999999999654 ) ) ;
#324 = EDGE_CURVE ( 'NONE', #85, #237, #156, .T. ) ;
#325 = DIRECTION ( 'NONE',  ( -1.000000000000000000, 0.0000000000000000000, 0.0000000000000000000 ) ) ;
#326 = CARTESIAN_POINT ( 'NONE',  ( 0.09375000000000001388, 1.148106374200643863E-17, 0.0000000000000000000 ) ) ;
#327 = ORIENTED_EDGE ( 'NONE', *, *, #224, .T. ) ;
#328 =( NAMED_UNIT ( * ) SI_UNIT ( $, .STERADIAN. ) SOLID_ANGLE_UNIT ( ) );
#329 = ORIENTED_EDGE ( 'NONE', *, *, #324, .T. ) ;
#330 = LINE ( 'NONE', #363, #155 ) ;
#331 = VECTOR ( 'NONE', #176, 39.37007874015748143 ) ;
#332 = EDGE_CURVE ( 'NONE', #319, #64, #14, .T. ) ;
#333 = CIRCLE ( 'NONE', #212, 0.04499999999999999833 ) ;
#334 = CARTESIAN_POINT ( 'NONE',  ( 0.0000000000000000000, 0.0000000000000000000, 0.02500000000000000486 ) ) ;
#335 = AXIS2_PLACEMENT_3D ( 'NONE', #334, #133, #125 ) ;
#336 = ORIENTED_EDGE ( 'NONE', *, *, #246, .T. ) ;
#337 = FILL_AREA_STYLE_COLOUR ( '', #54 ) ;
#338 = FACE_OUTER_BOUND ( 'NONE', #29, .T. ) ;
#339 = ORIENTED_EDGE ( 'NONE', *, *, #281, .T. ) ;
#340 =( LENGTH_UNIT ( ) NAMED_UNIT ( * ) SI_UNIT ( $, .METRE. ) );
#341 = ORIENTED_EDGE ( 'NONE', *, *, #373, .F. ) ;
#342 = VECTOR ( 'NONE', #84, 39.37007874015748143 ) ;
#343 = DIRECTION ( 'NONE',  ( 0.0000000000000000000, 0.0000000000000000000, 1.000000000000000000 ) ) ;
#344 = CIRCLE ( 'NONE', #298, 0.09375000000000001388 ) ;
#345 = UNCERTAINTY_MEASURE_WITH_UNIT (LENGTH_MEASURE( 1.000000000000000082E-05 ), #275, 'distance_accuracy_value', 'NONE');
#346 = CARTESIAN_POINT ( 'NONE',  ( 0.07874999999999980627, 9.644093543285380530E-18, 2.000000000000000000 ) ) ;
#347 = ADVANCED_FACE ( 'NONE', ( #10 ), #240, .T. ) ;
#348 = LINE ( 'NONE', #199, #24 ) ;
#349 = CONICAL_SURFACE ( 'NONE', #9, 0.07874999999999980627, 0.7853981633974466137 ) ;
#350 = ORIENTED_EDGE ( 'NONE', *, *, #332, .F. ) ;
#351 = DIRECTION ( 'NONE',  ( -1.000000000000000000, 0.0000000000000000000, 0.0000000000000000000 ) ) ;
#352 = CARTESIAN_POINT ( 'NONE',  ( -0.09375000000000001388, 0.0000000000000000000, 0.02500000000000000486 ) ) ;
#353 = FACE_OUTER_BOUND ( 'NONE', #188, .T. ) ;
#354 = CARTESIAN_POINT ( 'NONE',  ( -0.09375000000000001388, 0.0000000000000000000, 1.984999999999999654 ) ) ;
#355 = CIRCLE ( 'NONE', #376, 0.09375000000000001388 ) ;
#356 = CIRCLE ( 'NONE', #174, 0.07874999999999980627 ) ;
#357 = AXIS2_PLACEMENT_3D ( 'NONE', #160, #247, #182 ) ;
#358 = DIRECTION ( 'NONE',  ( 1.000000000000000000, 0.0000000000000000000, -0.0000000000000000000 ) ) ;
#359 = ORIENTED_EDGE ( 'NONE', *, *, #213, .T. ) ;
#360 = CARTESIAN_POINT ( 'NONE',  ( 0.0000000000000000000, 0.0000000000000000000, 0.0000000000000000000 ) ) ;
#361 = ORIENTED_EDGE ( 'NONE', *, *, #224, .F. ) ;
#362 = ADVANCED_FACE ( 'NONE', ( #301 ), #34, .T. ) ;
#363 = CARTESIAN_POINT ( 'NONE',  ( -0.04500000000000001221, 0.0000000000000000000, 0.0000000000000000000 ) ) ;
#364 = DIRECTION ( 'NONE',  ( 1.000000000000000000, 0.0000000000000000000, 0.0000000000000000000 ) ) ;
#365 = ORIENTED_EDGE ( 'NONE', *, *, #281, .F. ) ;
#366 = CIRCLE ( 'NONE', #335, 0.09375000000000001388 ) ;
#367 = EDGE_CURVE ( 'NONE', #102, #304, #17, .T. ) ;
#368 = PRESENTATION_STYLE_ASSIGNMENT (( #66 ) ) ;
#369 = LINE ( 'NONE', #242, #110 ) ;
#370 = EDGE_LOOP ( 'NONE', ( #93, #8, #222, #154 ) ) ;
#371 =( CONVERSION_BASED_UNIT ( 'INCH', #45 ) LENGTH_UNIT ( ) NAMED_UNIT ( #173 ) );
#372 = PRESENTATION_LAYER_ASSIGNMENT (  '', '', ( #56 ) ) ;
#373 = EDGE_CURVE ( 'NONE', #52, #192, #330, .T. ) ;
#374 = CARTESIAN_POINT ( 'NONE',  ( 0.0000000000000000000, 0.0000000000000000000, 0.0000000000000000000 ) ) ;
#375 = ADVANCED_FACE ( 'NONE', ( #83 ), #157, .T. ) ;
#376 = AXIS2_PLACEMENT_3D ( 'NONE', #263, #3, #234 ) ;
#377 = ORIENTED_EDGE ( 'NONE', *, *, #47, .T. ) ;
#378 = CYLINDRICAL_SURFACE ( 'NONE', #30, 0.04500000000000001221 ) ;
#379 = CARTESIAN_POINT ( 'NONE',  ( 0.09375000000000001388, 1.148106374200643863E-17, 2.000000000000000000 ) ) ;
ENDSEC;
END-ISO-10303-21;
