ISO-10303-21;
HEADER;
FILE_DESCRIPTION (( 'STEP AP214' ),
    '1' );
FILE_NAME ('Micro_DMM-080-290.STEP',
    '2021-09-02T16:25:11',
    ( '' ),
    ( '' ),
    'SwSTEP 2.0',
    'SolidWorks 2020',
    '' );
FILE_SCHEMA (( 'AUTOMOTIVE_DESIGN' ));
ENDSEC;

DATA;
#1 =( NAMED_UNIT ( * ) PLANE_ANGLE_UNIT ( ) SI_UNIT ( $, .RADIAN. ) );
#2 = CARTESIAN_POINT ( 'NONE',  ( 0.0000000000000000000, 0.0000000000000000000, 1.707404996040164512E-17 ) ) ;
#3 = DIMENSIONAL_EXPONENTS ( 1.000000000000000000, 0.0000000000000000000, 0.0000000000000000000, 0.0000000000000000000, 0.0000000000000000000, 0.0000000000000000000, 0.0000000000000000000 ) ;
#4 = CIRCLE ( 'NONE', #271, 0.1424804999999990940 ) ;
#5 = DIRECTION ( 'NONE',  ( 0.0000000000000000000, 0.0000000000000000000, -1.000000000000000000 ) ) ;
#6 = CYLINDRICAL_SURFACE ( 'NONE', #73, 0.1574305000000000843 ) ;
#7 = DIRECTION ( 'NONE',  ( -0.0000000000000000000, -0.0000000000000000000, -1.000000000000000000 ) ) ;
#8 =( NAMED_UNIT ( * ) SI_UNIT ( $, .STERADIAN. ) SOLID_ANGLE_UNIT ( ) );
#9 = DIRECTION ( 'NONE',  ( 0.0000000000000000000, 0.0000000000000000000, 1.000000000000000000 ) ) ;
#10 = DIRECTION ( 'NONE',  ( -1.000000000000000000, 0.0000000000000000000, 0.0000000000000000000 ) ) ;
#11 = FACE_OUTER_BOUND ( 'NONE', #83, .T. ) ;
#12 = COLOUR_RGB ( '',0.7921568627450980005, 0.8196078431372548767, 0.9333333333333333481 ) ;
#13 = CIRCLE ( 'NONE', #172, 0.1424804999999990940 ) ;
#14 = AXIS2_PLACEMENT_3D ( 'NONE', #64, #38, #165 ) ;
#15 = DIRECTION ( 'NONE',  ( -0.0000000000000000000, -0.0000000000000000000, -1.000000000000000000 ) ) ;
#16 = EDGE_CURVE ( 'NONE', #244, #105, #136, .T. ) ;
#17 = CIRCLE ( 'NONE', #265, 0.1574305000000000010 ) ;
#18 = ORIENTED_EDGE ( 'NONE', *, *, #254, .F. ) ;
#19 = CARTESIAN_POINT ( 'NONE',  ( 0.0000000000000000000, 0.0000000000000000000, 2.480315000000000047 ) ) ;
#20 = ORIENTED_EDGE ( 'NONE', *, *, #66, .T. ) ;
#21 = ADVANCED_FACE ( 'NONE', ( #11 ), #6, .T. ) ;
#22 = AXIS2_PLACEMENT_3D ( 'NONE', #84, #232, #307 ) ;
#23 = CIRCLE ( 'NONE', #259, 0.1574305000000001398 ) ;
#24 = APPLICATION_PROTOCOL_DEFINITION ( 'draft international standard', 'automotive_design', 1998, #319 ) ;
#25 = ORIENTED_EDGE ( 'NONE', *, *, #168, .F. ) ;
#26 = ADVANCED_FACE ( 'NONE', ( #124 ), #65, .F. ) ;
#27 = ORIENTED_EDGE ( 'NONE', *, *, #43, .F. ) ;
#28 = DIRECTION ( 'NONE',  ( -1.000000000000000000, 0.0000000000000000000, 0.0000000000000000000 ) ) ;
#29 = EDGE_LOOP ( 'NONE', ( #306, #142 ) ) ;
#30 = DIRECTION ( 'NONE',  ( -0.7071067811865627828, 0.0000000000000000000, -0.7071067811865321406 ) ) ;
#31 = ADVANCED_FACE ( 'NONE', ( #95 ), #245, .T. ) ;
#32 = AXIS2_PLACEMENT_3D ( 'NONE', #193, #5, #286 ) ;
#33 = ORIENTED_EDGE ( 'NONE', *, *, #229, .F. ) ;
#34 = CARTESIAN_POINT ( 'NONE',  ( -0.1574804999999999955, 0.0000000000000000000, 2.465314999999999923 ) ) ;
#35 = CARTESIAN_POINT ( 'NONE',  ( 0.0000000000000000000, 0.0000000000000000000, 2.480315000000000047 ) ) ;
#36 =( GEOMETRIC_REPRESENTATION_CONTEXT ( 3 ) GLOBAL_UNCERTAINTY_ASSIGNED_CONTEXT ( ( #102 ) ) GLOBAL_UNIT_ASSIGNED_CONTEXT ( ( #139, #1, #8 ) ) REPRESENTATION_CONTEXT ( 'NONE', 'WORKASPACE' ) );
#37 = CARTESIAN_POINT ( 'NONE',  ( 0.0000000000000000000, 0.0000000000000000000, 0.1499304999999994115 ) ) ;
#38 = DIRECTION ( 'NONE',  ( 0.0000000000000000000, 0.0000000000000000000, -1.000000000000000000 ) ) ;
#39 = SURFACE_STYLE_FILL_AREA ( #228 ) ;
#40 = ORIENTED_EDGE ( 'NONE', *, *, #168, .T. ) ;
#41 = MANIFOLD_SOLID_BREP ( 'Cut-Revolve4', #51 ) ;
#42 = CARTESIAN_POINT ( 'NONE',  ( 0.1574305000000000843, 1.927967579131674846E-17, 0.0000000000000000000 ) ) ;
#43 = EDGE_CURVE ( 'NONE', #54, #252, #303, .T. ) ;
#44 = ORIENTED_EDGE ( 'NONE', *, *, #154, .T. ) ;
#45 = LINE ( 'NONE', #315, #317 ) ;
#46 = EDGE_LOOP ( 'NONE', ( #304, #53 ) ) ;
#47 = AXIS2_PLACEMENT_3D ( 'NONE', #207, #115, #85 ) ;
#48 = DIRECTION ( 'NONE',  ( -1.000000000000000000, 0.0000000000000000000, 0.0000000000000000000 ) ) ;
#49 = APPLICATION_CONTEXT ( 'automotive_design' ) ;
#50 = EDGE_CURVE ( 'NONE', #204, #206, #79, .T. ) ;
#51 = CLOSED_SHELL ( 'NONE', ( #21, #147, #160, #186, #163, #116, #31, #125, #143, #61, #26 ) ) ;
#52 = CONICAL_SURFACE ( 'NONE', #258, 0.1424804999999990940, 0.7853981633974699283 ) ;
#53 = ORIENTED_EDGE ( 'NONE', *, *, #50, .T. ) ;
#54 = VERTEX_POINT ( 'NONE', #70 ) ;
#55 = EDGE_CURVE ( 'NONE', #257, #185, #17, .T. ) ;
#56 = DIRECTION ( 'NONE',  ( -1.000000000000000000, 0.0000000000000000000, 0.0000000000000000000 ) ) ;
#57 = CARTESIAN_POINT ( 'NONE',  ( -0.007499999999999999722, 1.009908044533862758E-17, 1.707404996040164512E-17 ) ) ;
#58 = AXIS2_PLACEMENT_3D ( 'NONE', #230, #322, #28 ) ;
#59 = AXIS2_PLACEMENT_3D ( 'NONE', #210, #140, #159 ) ;
#60 = CARTESIAN_POINT ( 'NONE',  ( 0.0000000000000000000, 0.0000000000000000000, 1.707404996040164512E-17 ) ) ;
#61 = ADVANCED_FACE ( 'NONE', ( #120 ), #289, .T. ) ;
#62 = DIRECTION ( 'NONE',  ( -1.000000000000000000, 0.0000000000000000000, 0.0000000000000000000 ) ) ;
#63 = DIRECTION ( 'NONE',  ( 1.000000000000000000, 0.0000000000000000000, 0.0000000000000000000 ) ) ;
#64 = CARTESIAN_POINT ( 'NONE',  ( 0.0000000000000000000, 0.0000000000000000000, 2.480315000000000047 ) ) ;
#65 = PLANE ( 'NONE',  #219 ) ;
#66 = EDGE_CURVE ( 'NONE', #105, #244, #155, .T. ) ;
#67 = CARTESIAN_POINT ( 'NONE',  ( 0.1574305000000001398, 1.927967579131675462E-17, 0.8661419999999999675 ) ) ;
#68 =( LENGTH_UNIT ( ) NAMED_UNIT ( * ) SI_UNIT ( $, .METRE. ) );
#69 = LENGTH_MEASURE_WITH_UNIT ( LENGTH_MEASURE( 0.02539999999999999897 ), #68 );
#70 = CARTESIAN_POINT ( 'NONE',  ( 0.007499999999999999722, 0.0000000000000000000, 1.707404996040164512E-17 ) ) ;
#71 = LINE ( 'NONE', #171, #80 ) ;
#72 = EDGE_CURVE ( 'NONE', #244, #206, #251, .T. ) ;
#73 = AXIS2_PLACEMENT_3D ( 'NONE', #268, #122, #62 ) ;
#74 = DIRECTION ( 'NONE',  ( 0.0000000000000000000, 0.0000000000000000000, -1.000000000000000000 ) ) ;
#75 = ORIENTED_EDGE ( 'NONE', *, *, #55, .F. ) ;
#76 =( NAMED_UNIT ( * ) SI_UNIT ( $, .STERADIAN. ) SOLID_ANGLE_UNIT ( ) );
#77 = ORIENTED_EDGE ( 'NONE', *, *, #225, .T. ) ;
#78 = PLANE ( 'NONE',  #183 ) ;
#79 = CIRCLE ( 'NONE', #86, 0.1574804999999999955 ) ;
#80 = VECTOR ( 'NONE', #270, 39.37007874015748854 ) ;
#81 = FILL_AREA_STYLE_COLOUR ( '', #173 ) ;
#82 =( CONVERSION_BASED_UNIT ( 'INCH', #101 ) LENGTH_UNIT ( ) NAMED_UNIT ( #3 ) );
#83 = EDGE_LOOP ( 'NONE', ( #103, #170, #75, #190 ) ) ;
#84 = CARTESIAN_POINT ( 'NONE',  ( 0.1574305000000001398, 0.0000000000000000000, 0.8661419999999999675 ) ) ;
#85 = DIRECTION ( 'NONE',  ( 1.000000000000000000, 0.0000000000000000000, 0.0000000000000000000 ) ) ;
#86 = AXIS2_PLACEMENT_3D ( 'NONE', #174, #291, #237 ) ;
#87 = MECHANICAL_DESIGN_GEOMETRIC_PRESENTATION_REPRESENTATION (  '', ( #192 ), #202 ) ;
#88 = ORIENTED_EDGE ( 'NONE', *, *, #208, .F. ) ;
#89 = DIRECTION ( 'NONE',  ( 1.000000000000000000, 0.0000000000000000000, 0.0000000000000000000 ) ) ;
#90 = EDGE_CURVE ( 'NONE', #252, #257, #45, .T. ) ;
#91 = FACE_OUTER_BOUND ( 'NONE', #233, .T. ) ;
#92 = SURFACE_SIDE_STYLE ('',( #220 ) ) ;
#93 = CARTESIAN_POINT ( 'NONE',  ( 0.0000000000000000000, 0.0000000000000000000, 2.480315000000000047 ) ) ;
#94 = ORIENTED_EDGE ( 'NONE', *, *, #16, .F. ) ;
#95 = FACE_OUTER_BOUND ( 'NONE', #113, .T. ) ;
#96 = VERTEX_POINT ( 'NONE', #316 ) ;
#97 =( CONVERSION_BASED_UNIT ( 'INCH', #217 ) LENGTH_UNIT ( ) NAMED_UNIT ( #169 ) );
#98 = DIMENSIONAL_EXPONENTS ( 1.000000000000000000, 0.0000000000000000000, 0.0000000000000000000, 0.0000000000000000000, 0.0000000000000000000, 0.0000000000000000000, 0.0000000000000000000 ) ;
#99 = DIRECTION ( 'NONE',  ( -0.0000000000000000000, -0.0000000000000000000, -1.000000000000000000 ) ) ;
#100 =( NAMED_UNIT ( * ) PLANE_ANGLE_UNIT ( ) SI_UNIT ( $, .RADIAN. ) );
#101 = LENGTH_MEASURE_WITH_UNIT ( LENGTH_MEASURE( 0.02539999999999999897 ), #203 );
#102 = UNCERTAINTY_MEASURE_WITH_UNIT (LENGTH_MEASURE( 1.000000000000000082E-05 ), #139, 'distance_accuracy_value', 'NONE');
#103 = ORIENTED_EDGE ( 'NONE', *, *, #213, .T. ) ;
#104 = DIRECTION ( 'NONE',  ( 0.0000000000000000000, 0.0000000000000000000, 1.000000000000000000 ) ) ;
#105 = VERTEX_POINT ( 'NONE', #277 ) ;
#106 = AXIS2_PLACEMENT_3D ( 'NONE', #60, #205, #283 ) ;
#107 =( GEOMETRIC_REPRESENTATION_CONTEXT ( 3 ) GLOBAL_UNCERTAINTY_ASSIGNED_CONTEXT ( ( #273 ) ) GLOBAL_UNIT_ASSIGNED_CONTEXT ( ( #97, #100, #156 ) ) REPRESENTATION_CONTEXT ( 'NONE', 'WORKASPACE' ) );
#108 = EDGE_CURVE ( 'NONE', #96, #257, #249, .T. ) ;
#109 = CARTESIAN_POINT ( 'NONE',  ( 0.1574804999999999955, 1.928579902531247412E-17, 0.8661419999999999675 ) ) ;
#110 = VERTEX_POINT ( 'NONE', #153 ) ;
#111 = DIRECTION ( 'NONE',  ( -1.000000000000000000, 0.0000000000000000000, 0.0000000000000000000 ) ) ;
#112 = STYLED_ITEM ( 'NONE', ( #218 ), #41 ) ;
#113 = EDGE_LOOP ( 'NONE', ( #326, #25, #77, #215 ) ) ;
#114 = DIRECTION ( 'NONE',  ( -0.0000000000000000000, -0.0000000000000000000, -1.000000000000000000 ) ) ;
#115 = DIRECTION ( 'NONE',  ( 0.0000000000000000000, 0.0000000000000000000, 1.000000000000000000 ) ) ;
#116 = ADVANCED_FACE ( 'NONE', ( #294 ), #78, .T. ) ;
#117 = CYLINDRICAL_SURFACE ( 'NONE', #201, 0.1574804999999999955 ) ;
#118 = DIRECTION ( 'NONE',  ( 0.0000000000000000000, 0.0000000000000000000, 1.000000000000000000 ) ) ;
#119 = ORIENTED_EDGE ( 'NONE', *, *, #328, .F. ) ;
#120 = FACE_OUTER_BOUND ( 'NONE', #231, .T. ) ;
#121 = CARTESIAN_POINT ( 'NONE',  ( -0.1574305000000000565, 1.927967579131674230E-17, 0.1499304999999994115 ) ) ;
#122 = DIRECTION ( 'NONE',  ( -0.0000000000000000000, -0.0000000000000000000, -1.000000000000000000 ) ) ;
#123 = PRODUCT_DEFINITION_SHAPE ( 'NONE', 'NONE',  #278 ) ;
#124 = FACE_OUTER_BOUND ( 'NONE', #29, .T. ) ;
#125 = ADVANCED_FACE ( 'NONE', ( #296, #177 ), #301, .T. ) ;
#126 = AXIS2_PLACEMENT_3D ( 'NONE', #250, #104, #128 ) ;
#127 = ORIENTED_EDGE ( 'NONE', *, *, #272, .T. ) ;
#128 = DIRECTION ( 'NONE',  ( 1.000000000000000000, 0.0000000000000000000, 0.0000000000000000000 ) ) ;
#129 = SURFACE_SIDE_STYLE ('',( #39 ) ) ;
#130 = VECTOR ( 'NONE', #15, 39.37007874015748143 ) ;
#131 = ORIENTED_EDGE ( 'NONE', *, *, #72, .F. ) ;
#132 =( NAMED_UNIT ( * ) PLANE_ANGLE_UNIT ( ) SI_UNIT ( $, .RADIAN. ) );
#133 = ORIENTED_EDGE ( 'NONE', *, *, #90, .T. ) ;
#134 = LINE ( 'NONE', #188, #195 ) ;
#135 = ORIENTED_EDGE ( 'NONE', *, *, #324, .T. ) ;
#136 = CIRCLE ( 'NONE', #32, 0.1574804999999999955 ) ;
#137 = CYLINDRICAL_SURFACE ( 'NONE', #58, 0.1574804999999999955 ) ;
#138 = DIRECTION ( 'NONE',  ( 0.0000000000000000000, 0.0000000000000000000, 1.000000000000000000 ) ) ;
#139 =( CONVERSION_BASED_UNIT ( 'INCH', #69 ) LENGTH_UNIT ( ) NAMED_UNIT ( #98 ) );
#140 = DIRECTION ( 'NONE',  ( -0.0000000000000000000, -0.0000000000000000000, -1.000000000000000000 ) ) ;
#141 = AXIS2_PLACEMENT_3D ( 'NONE', #288, #198, #48 ) ;
#142 = ORIENTED_EDGE ( 'NONE', *, *, #208, .T. ) ;
#143 = ADVANCED_FACE ( 'NONE', ( #236 ), #161, .T. ) ;
#144 = PRODUCT_DEFINITION_CONTEXT ( 'detailed design', #49, 'design' ) ;
#145 = FILL_AREA_STYLE ('',( #166 ) ) ;
#146 = ORIENTED_EDGE ( 'NONE', *, *, #16, .T. ) ;
#147 = ADVANCED_FACE ( 'NONE', ( #187 ), #325, .T. ) ;
#148 = VECTOR ( 'NONE', #99, 39.37007874015748143 ) ;
#149 = CARTESIAN_POINT ( 'NONE',  ( 0.0000000000000000000, 0.0000000000000000000, 0.8661419999999999675 ) ) ;
#150 = ORIENTED_EDGE ( 'NONE', *, *, #50, .F. ) ;
#151 = EDGE_LOOP ( 'NONE', ( #209, #20, #323, #150 ) ) ;
#152 = CIRCLE ( 'NONE', #234, 0.1574305000000000010 ) ;
#153 = CARTESIAN_POINT ( 'NONE',  ( -0.1424804999999990940, 0.0000000000000000000, 2.480315000000000047 ) ) ;
#154 = EDGE_CURVE ( 'NONE', #185, #257, #152, .T. ) ;
#155 = CIRCLE ( 'NONE', #308, 0.1574804999999999955 ) ;
#156 =( NAMED_UNIT ( * ) SI_UNIT ( $, .STERADIAN. ) SOLID_ANGLE_UNIT ( ) );
#157 = ORIENTED_EDGE ( 'NONE', *, *, #225, .F. ) ;
#158 = LINE ( 'NONE', #235, #226 ) ;
#159 = DIRECTION ( 'NONE',  ( -1.000000000000000000, 0.0000000000000000000, 0.0000000000000000000 ) ) ;
#160 = ADVANCED_FACE ( 'NONE', ( #329 ), #52, .T. ) ;
#161 = CONICAL_SURFACE ( 'NONE', #223, 0.007499999999999999722, 0.7853981633974503884 ) ;
#162 = DIRECTION ( 'NONE',  ( -1.000000000000000000, 0.0000000000000000000, 0.0000000000000000000 ) ) ;
#163 = ADVANCED_FACE ( 'NONE', ( #281 ), #117, .T. ) ;
#164 = DIRECTION ( 'NONE',  ( -1.000000000000000000, 0.0000000000000000000, 0.0000000000000000000 ) ) ;
#165 = DIRECTION ( 'NONE',  ( -1.000000000000000000, 0.0000000000000000000, 0.0000000000000000000 ) ) ;
#166 = FILL_AREA_STYLE_COLOUR ( '', #12 ) ;
#167 = UNCERTAINTY_MEASURE_WITH_UNIT (LENGTH_MEASURE( 1.000000000000000082E-05 ), #82, 'distance_accuracy_value', 'NONE');
#168 = EDGE_CURVE ( 'NONE', #110, #293, #4, .T. ) ;
#169 = DIMENSIONAL_EXPONENTS ( 1.000000000000000000, 0.0000000000000000000, 0.0000000000000000000, 0.0000000000000000000, 0.0000000000000000000, 0.0000000000000000000, 0.0000000000000000000 ) ;
#170 = ORIENTED_EDGE ( 'NONE', *, *, #261, .T. ) ;
#171 = CARTESIAN_POINT ( 'NONE',  ( 0.1424804999999990940, 1.744882882659133128E-17, 2.480315000000000047 ) ) ;
#172 = AXIS2_PLACEMENT_3D ( 'NONE', #93, #118, #264 ) ;
#173 = COLOUR_RGB ( '',0.7921568627450980005, 0.8196078431372548767, 0.9333333333333333481 ) ;
#174 = CARTESIAN_POINT ( 'NONE',  ( 0.0000000000000000000, 0.0000000000000000000, 0.8661419999999999675 ) ) ;
#175 = ORIENTED_EDGE ( 'NONE', *, *, #108, .T. ) ;
#176 = DIRECTION ( 'NONE',  ( 1.000000000000000000, 0.0000000000000000000, 0.0000000000000000000 ) ) ;
#177 = FACE_OUTER_BOUND ( 'NONE', #46, .T. ) ;
#178 = VECTOR ( 'NONE', #7, 39.37007874015748143 ) ;
#179 = SHAPE_DEFINITION_REPRESENTATION ( #123, #287 ) ;
#180 = CARTESIAN_POINT ( 'NONE',  ( 0.0000000000000000000, 0.0000000000000000000, 2.465314999999999923 ) ) ;
#181 = EDGE_CURVE ( 'NONE', #293, #110, #13, .T. ) ;
#182 = ORIENTED_EDGE ( 'NONE', *, *, #181, .T. ) ;
#183 = AXIS2_PLACEMENT_3D ( 'NONE', #19, #318, #199 ) ;
#184 = CARTESIAN_POINT ( 'NONE',  ( 0.0000000000000000000, 0.0000000000000000000, 0.1499304999999994115 ) ) ;
#185 = VERTEX_POINT ( 'NONE', #211 ) ;
#186 = ADVANCED_FACE ( 'NONE', ( #91 ), #137, .T. ) ;
#187 = FACE_OUTER_BOUND ( 'NONE', #212, .T. ) ;
#188 = CARTESIAN_POINT ( 'NONE',  ( 0.007499999999999999722, 0.0000000000000000000, 1.707404996040164512E-17 ) ) ;
#189 = CARTESIAN_POINT ( 'NONE',  ( 0.0000000000000000000, 0.0000000000000000000, 2.480315000000000047 ) ) ;
#190 = ORIENTED_EDGE ( 'NONE', *, *, #108, .F. ) ;
#191 = PRESENTATION_LAYER_ASSIGNMENT (  '', '', ( #112 ) ) ;
#192 = STYLED_ITEM ( 'NONE', ( #298 ), #287 ) ;
#193 = CARTESIAN_POINT ( 'NONE',  ( 0.0000000000000000000, 0.0000000000000000000, 2.465314999999999923 ) ) ;
#194 = CARTESIAN_POINT ( 'NONE',  ( 0.0000000000000000000, 0.0000000000000000000, 0.0000000000000000000 ) ) ;
#195 = VECTOR ( 'NONE', #262, 39.37007874015748143 ) ;
#196 = PRODUCT_DEFINITION_FORMATION_WITH_SPECIFIED_SOURCE ( 'ANY', '', #295, .NOT_KNOWN. ) ;
#197 = EDGE_LOOP ( 'NONE', ( #255, #27, #280, #44 ) ) ;
#198 = DIRECTION ( 'NONE',  ( -0.0000000000000000000, -0.0000000000000000000, -1.000000000000000000 ) ) ;
#199 = DIRECTION ( 'NONE',  ( 1.000000000000000000, 0.0000000000000000000, -0.0000000000000000000 ) ) ;
#200 = PRODUCT_CONTEXT ( 'NONE', #319, 'mechanical' ) ;
#201 = AXIS2_PLACEMENT_3D ( 'NONE', #189, #285, #164 ) ;
#202 =( GEOMETRIC_REPRESENTATION_CONTEXT ( 3 ) GLOBAL_UNCERTAINTY_ASSIGNED_CONTEXT ( ( #167 ) ) GLOBAL_UNIT_ASSIGNED_CONTEXT ( ( #82, #132, #76 ) ) REPRESENTATION_CONTEXT ( 'NONE', 'WORKASPACE' ) );
#203 =( LENGTH_UNIT ( ) NAMED_UNIT ( * ) SI_UNIT ( $, .METRE. ) );
#204 = VERTEX_POINT ( 'NONE', #109 ) ;
#205 = DIRECTION ( 'NONE',  ( -0.0000000000000000000, -0.0000000000000000000, -1.000000000000000000 ) ) ;
#206 = VERTEX_POINT ( 'NONE', #214 ) ;
#207 = CARTESIAN_POINT ( 'NONE',  ( 0.0000000000000000000, 0.0000000000000000000, 1.707404996040164512E-17 ) ) ;
#208 = EDGE_CURVE ( 'NONE', #252, #54, #246, .T. ) ;
#209 = ORIENTED_EDGE ( 'NONE', *, *, #272, .F. ) ;
#210 = CARTESIAN_POINT ( 'NONE',  ( 0.0000000000000000000, 0.0000000000000000000, 0.8661419999999999675 ) ) ;
#211 = CARTESIAN_POINT ( 'NONE',  ( 0.1574305000000000565, 0.0000000000000000000, 0.1499304999999994115 ) ) ;
#212 = EDGE_LOOP ( 'NONE', ( #88, #133, #300, #33 ) ) ;
#213 = EDGE_CURVE ( 'NONE', #96, #279, #284, .T. ) ;
#214 = CARTESIAN_POINT ( 'NONE',  ( -0.1574804999999999955, 0.0000000000000000000, 0.8661419999999999675 ) ) ;
#215 = ORIENTED_EDGE ( 'NONE', *, *, #66, .F. ) ;
#216 = DIRECTION ( 'NONE',  ( 1.000000000000000000, 0.0000000000000000000, -0.0000000000000000000 ) ) ;
#217 = LENGTH_MEASURE_WITH_UNIT ( LENGTH_MEASURE( 0.02539999999999999897 ), #241 );
#218 = PRESENTATION_STYLE_ASSIGNMENT (( #242 ) ) ;
#219 = AXIS2_PLACEMENT_3D ( 'NONE', #263, #9, #216 ) ;
#220 = SURFACE_STYLE_FILL_AREA ( #145 ) ;
#221 = LINE ( 'NONE', #314, #178 ) ;
#222 = DIRECTION ( 'NONE',  ( -0.0000000000000000000, -0.0000000000000000000, -1.000000000000000000 ) ) ;
#223 = AXIS2_PLACEMENT_3D ( 'NONE', #2, #302, #63 ) ;
#224 = PRESENTATION_LAYER_ASSIGNMENT (  '', '', ( #192 ) ) ;
#225 = EDGE_CURVE ( 'NONE', #110, #244, #158, .T. ) ;
#226 = VECTOR ( 'NONE', #30, 39.37007874015748854 ) ;
#227 = ORIENTED_EDGE ( 'NONE', *, *, #181, .F. ) ;
#228 = FILL_AREA_STYLE ('',( #81 ) ) ;
#229 = EDGE_CURVE ( 'NONE', #54, #185, #134, .T. ) ;
#230 = CARTESIAN_POINT ( 'NONE',  ( 0.0000000000000000000, 0.0000000000000000000, 2.480315000000000047 ) ) ;
#231 = EDGE_LOOP ( 'NONE', ( #282, #321, #175, #248 ) ) ;
#232 = DIRECTION ( 'NONE',  ( -0.0000000000000000000, 0.0000000000000000000, -1.000000000000000000 ) ) ;
#233 = EDGE_LOOP ( 'NONE', ( #146, #127, #18, #131 ) ) ;
#234 = AXIS2_PLACEMENT_3D ( 'NONE', #184, #256, #162 ) ;
#235 = CARTESIAN_POINT ( 'NONE',  ( -0.1424804999999990940, 0.0000000000000000000, 2.480315000000000047 ) ) ;
#236 = FACE_OUTER_BOUND ( 'NONE', #197, .T. ) ;
#237 = DIRECTION ( 'NONE',  ( -1.000000000000000000, 0.0000000000000000000, 0.0000000000000000000 ) ) ;
#238 = CARTESIAN_POINT ( 'NONE',  ( 0.0000000000000000000, 0.0000000000000000000, 2.480315000000000047 ) ) ;
#239 = VECTOR ( 'NONE', #222, 39.37007874015748143 ) ;
#240 = ORIENTED_EDGE ( 'NONE', *, *, #213, .F. ) ;
#241 =( LENGTH_UNIT ( ) NAMED_UNIT ( * ) SI_UNIT ( $, .METRE. ) );
#242 = SURFACE_STYLE_USAGE ( .BOTH. , #92 ) ;
#243 = LINE ( 'NONE', #42, #130 ) ;
#244 = VERTEX_POINT ( 'NONE', #34 ) ;
#245 = CONICAL_SURFACE ( 'NONE', #14, 0.1424804999999990940, 0.7853981633974699283 ) ;
#246 = CIRCLE ( 'NONE', #106, 0.007499999999999999722 ) ;
#247 = DIRECTION ( 'NONE',  ( -1.000000000000000000, 0.0000000000000000000, 0.0000000000000000000 ) ) ;
#248 = ORIENTED_EDGE ( 'NONE', *, *, #154, .F. ) ;
#249 = LINE ( 'NONE', #275, #148 ) ;
#250 = CARTESIAN_POINT ( 'NONE',  ( 0.0000000000000000000, 0.0000000000000000000, 0.0000000000000000000 ) ) ;
#251 = LINE ( 'NONE', #292, #239 ) ;
#252 = VERTEX_POINT ( 'NONE', #57 ) ;
#253 = CIRCLE ( 'NONE', #59, 0.1574804999999999955 ) ;
#254 = EDGE_CURVE ( 'NONE', #206, #204, #253, .T. ) ;
#255 = ORIENTED_EDGE ( 'NONE', *, *, #90, .F. ) ;
#256 = DIRECTION ( 'NONE',  ( -0.0000000000000000000, -0.0000000000000000000, -1.000000000000000000 ) ) ;
#257 = VERTEX_POINT ( 'NONE', #121 ) ;
#258 = AXIS2_PLACEMENT_3D ( 'NONE', #238, #305, #111 ) ;
#259 = AXIS2_PLACEMENT_3D ( 'NONE', #149, #312, #247 ) ;
#260 = DIRECTION ( 'NONE',  ( -0.0000000000000000000, -0.0000000000000000000, -1.000000000000000000 ) ) ;
#261 = EDGE_CURVE ( 'NONE', #279, #185, #243, .T. ) ;
#262 = DIRECTION ( 'NONE',  ( 0.7071067811865490160, 0.0000000000000000000, 0.7071067811865460184 ) ) ;
#263 = CARTESIAN_POINT ( 'NONE',  ( 0.0000000000000000000, 0.0000000000000000000, 0.0000000000000000000 ) ) ;
#264 = DIRECTION ( 'NONE',  ( 1.000000000000000000, 0.0000000000000000000, 0.0000000000000000000 ) ) ;
#265 = AXIS2_PLACEMENT_3D ( 'NONE', #37, #114, #269 ) ;
#266 = DIRECTION ( 'NONE',  ( -0.0000000000000000000, -0.0000000000000000000, -1.000000000000000000 ) ) ;
#267 = CARTESIAN_POINT ( 'NONE',  ( 0.1424804999999990940, 1.836731392595189962E-17, 2.480315000000000047 ) ) ;
#268 = CARTESIAN_POINT ( 'NONE',  ( 0.0000000000000000000, 0.0000000000000000000, 0.0000000000000000000 ) ) ;
#269 = DIRECTION ( 'NONE',  ( -1.000000000000000000, 0.0000000000000000000, 0.0000000000000000000 ) ) ;
#270 = DIRECTION ( 'NONE',  ( 0.7071067811865627828, 8.659560562355118980E-17, -0.7071067811865321406 ) ) ;
#271 = AXIS2_PLACEMENT_3D ( 'NONE', #35, #138, #89 ) ;
#272 = EDGE_CURVE ( 'NONE', #105, #204, #221, .T. ) ;
#273 = UNCERTAINTY_MEASURE_WITH_UNIT (LENGTH_MEASURE( 1.000000000000000082E-05 ), #97, 'distance_accuracy_value', 'NONE');
#274 = EDGE_LOOP ( 'NONE', ( #40, #182 ) ) ;
#275 = CARTESIAN_POINT ( 'NONE',  ( -0.1574305000000000843, 0.0000000000000000000, 0.0000000000000000000 ) ) ;
#276 = SURFACE_STYLE_USAGE ( .BOTH. , #129 ) ;
#277 = CARTESIAN_POINT ( 'NONE',  ( 0.1574804999999999955, 1.928579902531247412E-17, 2.465314999999999923 ) ) ;
#278 = PRODUCT_DEFINITION ( 'UNKNOWN', '', #196, #144 ) ;
#279 = VERTEX_POINT ( 'NONE', #67 ) ;
#280 = ORIENTED_EDGE ( 'NONE', *, *, #229, .T. ) ;
#281 = FACE_OUTER_BOUND ( 'NONE', #151, .T. ) ;
#282 = ORIENTED_EDGE ( 'NONE', *, *, #261, .F. ) ;
#283 = DIRECTION ( 'NONE',  ( -1.000000000000000000, 0.0000000000000000000, 0.0000000000000000000 ) ) ;
#284 = CIRCLE ( 'NONE', #320, 0.1574305000000001398 ) ;
#285 = DIRECTION ( 'NONE',  ( -0.0000000000000000000, -0.0000000000000000000, -1.000000000000000000 ) ) ;
#286 = DIRECTION ( 'NONE',  ( 1.000000000000000000, 0.0000000000000000000, 0.0000000000000000000 ) ) ;
#287 = ADVANCED_BREP_SHAPE_REPRESENTATION ( 'Micro_DMM-080-290', ( #41, #126 ), #107 ) ;
#288 = CARTESIAN_POINT ( 'NONE',  ( 0.0000000000000000000, 0.0000000000000000000, 1.707404996040164512E-17 ) ) ;
#289 = CYLINDRICAL_SURFACE ( 'NONE', #290, 0.1574305000000000843 ) ;
#290 = AXIS2_PLACEMENT_3D ( 'NONE', #194, #266, #10 ) ;
#291 = DIRECTION ( 'NONE',  ( -0.0000000000000000000, -0.0000000000000000000, -1.000000000000000000 ) ) ;
#292 = CARTESIAN_POINT ( 'NONE',  ( -0.1574804999999999955, 0.0000000000000000000, 2.480315000000000047 ) ) ;
#293 = VERTEX_POINT ( 'NONE', #267 ) ;
#294 = FACE_OUTER_BOUND ( 'NONE', #274, .T. ) ;
#295 = PRODUCT ( 'Micro_DMM-080-290', 'Micro_DMM-080-290', '', ( #200 ) ) ;
#296 = FACE_BOUND ( 'NONE', #309, .T. ) ;
#297 = APPLICATION_PROTOCOL_DEFINITION ( 'draft international standard', 'automotive_design', 1998, #49 ) ;
#298 = PRESENTATION_STYLE_ASSIGNMENT (( #276 ) ) ;
#299 = DIRECTION ( 'NONE',  ( -0.7071067811865490160, 8.659560562354951347E-17, 0.7071067811865460184 ) ) ;
#300 = ORIENTED_EDGE ( 'NONE', *, *, #55, .T. ) ;
#301 = PLANE ( 'NONE',  #22 ) ;
#302 = DIRECTION ( 'NONE',  ( 0.0000000000000000000, 0.0000000000000000000, 1.000000000000000000 ) ) ;
#303 = CIRCLE ( 'NONE', #141, 0.007499999999999999722 ) ;
#304 = ORIENTED_EDGE ( 'NONE', *, *, #254, .T. ) ;
#305 = DIRECTION ( 'NONE',  ( 0.0000000000000000000, 0.0000000000000000000, -1.000000000000000000 ) ) ;
#306 = ORIENTED_EDGE ( 'NONE', *, *, #43, .T. ) ;
#307 = DIRECTION ( 'NONE',  ( -1.000000000000000000, 0.0000000000000000000, 0.0000000000000000000 ) ) ;
#308 = AXIS2_PLACEMENT_3D ( 'NONE', #180, #74, #176 ) ;
#309 = EDGE_LOOP ( 'NONE', ( #240, #119 ) ) ;
#310 = PRODUCT_RELATED_PRODUCT_CATEGORY ( 'part', '', ( #295 ) ) ;
#311 = MECHANICAL_DESIGN_GEOMETRIC_PRESENTATION_REPRESENTATION (  '', ( #112 ), #36 ) ;
#312 = DIRECTION ( 'NONE',  ( -0.0000000000000000000, -0.0000000000000000000, -1.000000000000000000 ) ) ;
#313 = EDGE_LOOP ( 'NONE', ( #227, #135, #94, #157 ) ) ;
#314 = CARTESIAN_POINT ( 'NONE',  ( 0.1574804999999999955, 1.928579902531247412E-17, 2.480315000000000047 ) ) ;
#315 = CARTESIAN_POINT ( 'NONE',  ( -0.007499999999999999722, 9.184850993605147975E-19, 1.707404996040164512E-17 ) ) ;
#316 = CARTESIAN_POINT ( 'NONE',  ( -0.1574305000000001398, 0.0000000000000000000, 0.8661419999999999675 ) ) ;
#317 = VECTOR ( 'NONE', #299, 39.37007874015748143 ) ;
#318 = DIRECTION ( 'NONE',  ( 0.0000000000000000000, 0.0000000000000000000, 1.000000000000000000 ) ) ;
#319 = APPLICATION_CONTEXT ( 'automotive_design' ) ;
#320 = AXIS2_PLACEMENT_3D ( 'NONE', #327, #260, #56 ) ;
#321 = ORIENTED_EDGE ( 'NONE', *, *, #328, .T. ) ;
#322 = DIRECTION ( 'NONE',  ( -0.0000000000000000000, -0.0000000000000000000, -1.000000000000000000 ) ) ;
#323 = ORIENTED_EDGE ( 'NONE', *, *, #72, .T. ) ;
#324 = EDGE_CURVE ( 'NONE', #293, #105, #71, .T. ) ;
#325 = CONICAL_SURFACE ( 'NONE', #47, 0.007499999999999999722, 0.7853981633974503884 ) ;
#326 = ORIENTED_EDGE ( 'NONE', *, *, #324, .F. ) ;
#327 = CARTESIAN_POINT ( 'NONE',  ( 0.0000000000000000000, 0.0000000000000000000, 0.8661419999999999675 ) ) ;
#328 = EDGE_CURVE ( 'NONE', #279, #96, #23, .T. ) ;
#329 = FACE_OUTER_BOUND ( 'NONE', #313, .T. ) ;
ENDSEC;
END-ISO-10303-21;
