ISO-10303-21;
HEADER;
FILE_DESCRIPTION (( 'STEP AP214' ),
    '1' );
FILE_NAME ('82391.STEP',
    '2023-06-23T05:31:48',
    ( '' ),
    ( '' ),
    'SwSTEP 2.0',
    'SolidWorks 2023',
    '' );
FILE_SCHEMA (( 'AUTOMOTIVE_DESIGN' ));
ENDSEC;

DATA;
#1 = DIRECTION ( 'NONE',  ( 0.000000000000000000, 0.000000000000000000, -1.000000000000000000 ) ) ;
#2 = AXIS2_PLACEMENT_3D ( 'NONE', #174, #188, #45 ) ;
#3 = EDGE_CURVE ( 'NONE', #117, #135, #63, .T. ) ;
#4 = COLOUR_RGB ( '',1.000000000000000000, 0.000000000000000000, 0.000000000000000000 ) ;
#5 =( GEOMETRIC_REPRESENTATION_CONTEXT ( 3 ) GLOBAL_UNCERTAINTY_ASSIGNED_CONTEXT ( ( #164 ) ) GLOBAL_UNIT_ASSIGNED_CONTEXT ( ( #149, #236, #257 ) ) REPRESENTATION_CONTEXT ( 'NONE', 'WORKASPACE' ) );
#6 = CARTESIAN_POINT ( 'NONE',  ( 0.000000000000000000, 1.375000000000000000, 0.000000000000000000 ) ) ;
#7 = ORIENTED_EDGE ( 'NONE', *, *, #194, .F. ) ;
#8 = UNCERTAINTY_MEASURE_WITH_UNIT (LENGTH_MEASURE( 1.000000000000000082E-05 ), #169, 'distance_accuracy_value', 'NONE');
#9 = EDGE_CURVE ( 'NONE', #223, #220, #290, .T. ) ;
#10 = SURFACE_STYLE_USAGE ( .BOTH. , #57 ) ;
#11 = CARTESIAN_POINT ( 'NONE',  ( 0.09375000000000001388, 3.000000000000000444, 1.148106374200644325E-17 ) ) ;
#12 = DIRECTION ( 'NONE',  ( -0.000000000000000000, -1.000000000000000000, -0.000000000000000000 ) ) ;
#13 = ORIENTED_EDGE ( 'NONE', *, *, #25, .T. ) ;
#14 = PLANE ( 'NONE',  #273 ) ;
#15 = EDGE_CURVE ( 'NONE', #55, #191, #106, .T. ) ;
#16 = CARTESIAN_POINT ( 'NONE',  ( -6.123233995736772199E-17, 3.000000000000000444, 0.000000000000000000 ) ) ;
#17 = FILL_AREA_STYLE_COLOUR ( '', #4 ) ;
#18 = FILL_AREA_STYLE_COLOUR ( '', #34 ) ;
#19 = ORIENTED_EDGE ( 'NONE', *, *, #15, .T. ) ;
#20 =( NAMED_UNIT ( * ) SI_UNIT ( $, .STERADIAN. ) SOLID_ANGLE_UNIT ( ) );
#21 =( NAMED_UNIT ( * ) SI_UNIT ( $, .STERADIAN. ) SOLID_ANGLE_UNIT ( ) );
#22 = DIRECTION ( 'NONE',  ( -3.768143997376474441E-17, 1.000000000000000000, -0.000000000000000000 ) ) ;
#23 = VECTOR ( 'NONE', #201, 39.37007874015748143 ) ;
#24 = DIRECTION ( 'NONE',  ( -1.000000000000000000, 0.000000000000000000, 0.000000000000000000 ) ) ;
#25 = EDGE_CURVE ( 'NONE', #104, #271, #249, .T. ) ;
#26 = CYLINDRICAL_SURFACE ( 'NONE', #157, 0.09375000000000001388 ) ;
#27 = ORIENTED_EDGE ( 'NONE', *, *, #298, .T. ) ;
#28 = APPLICATION_PROTOCOL_DEFINITION ( 'draft international standard', 'automotive_design', 1998, #88 ) ;
#29 = ORIENTED_EDGE ( 'NONE', *, *, #9, .F. ) ;
#30 =( GEOMETRIC_REPRESENTATION_CONTEXT ( 3 ) GLOBAL_UNCERTAINTY_ASSIGNED_CONTEXT ( ( #40 ) ) GLOBAL_UNIT_ASSIGNED_CONTEXT ( ( #116, #59, #145 ) ) REPRESENTATION_CONTEXT ( 'NONE', 'WORKASPACE' ) );
#31 = FACE_OUTER_BOUND ( 'NONE', #200, .T. ) ;
#32 = DIRECTION ( 'NONE',  ( 0.000000000000000000, 1.000000000000000000, 0.000000000000000000 ) ) ;
#33 = ADVANCED_FACE ( 'NONE', ( #79 ), #177, .T. ) ;
#34 = COLOUR_RGB ( '',0.7921568627450980005, 0.8196078431372548767, 0.9333333333333333481 ) ;
#35 = DIMENSIONAL_EXPONENTS ( 1.000000000000000000, 0.000000000000000000, 0.000000000000000000, 0.000000000000000000, 0.000000000000000000, 0.000000000000000000, 0.000000000000000000 ) ;
#36 = ADVANCED_FACE ( 'NONE', ( #279 ), #14, .T. ) ;
#37 = STYLED_ITEM ( 'NONE', ( #304 ), #36 ) ;
#38 =( LENGTH_UNIT ( ) NAMED_UNIT ( * ) SI_UNIT ( $, .METRE. ) );
#39 = EDGE_LOOP ( 'NONE', ( #13, #179 ) ) ;
#40 = UNCERTAINTY_MEASURE_WITH_UNIT (LENGTH_MEASURE( 1.000000000000000082E-05 ), #116, 'distance_accuracy_value', 'NONE');
#41 =( NAMED_UNIT ( * ) PLANE_ANGLE_UNIT ( ) SI_UNIT ( $, .RADIAN. ) );
#42 = LENGTH_MEASURE_WITH_UNIT ( LENGTH_MEASURE( 0.02539999999999999897 ), #68 );
#43 =( LENGTH_UNIT ( ) NAMED_UNIT ( * ) SI_UNIT ( $, .METRE. ) );
#44 = CARTESIAN_POINT ( 'NONE',  ( 0.000000000000000000, 0.000000000000000000, -0.09375000000000001388 ) ) ;
#45 = DIRECTION ( 'NONE',  ( 0.000000000000000000, 0.000000000000000000, -1.000000000000000000 ) ) ;
#46 = SURFACE_STYLE_USAGE ( .BOTH. , #209 ) ;
#47 = LENGTH_MEASURE_WITH_UNIT ( LENGTH_MEASURE( 0.02539999999999999897 ), #155 );
#48 = EDGE_LOOP ( 'NONE', ( #289, #81, #78, #7 ) ) ;
#49 = DIRECTION ( 'NONE',  ( 0.000000000000000000, 0.000000000000000000, 1.000000000000000000 ) ) ;
#50 = AXIS2_PLACEMENT_3D ( 'NONE', #284, #272, #54 ) ;
#51 = CARTESIAN_POINT ( 'NONE',  ( -6.123233995736772199E-17, 3.000000000000000444, 0.000000000000000000 ) ) ;
#52 = ORIENTED_EDGE ( 'NONE', *, *, #298, .F. ) ;
#53 = VECTOR ( 'NONE', #233, 39.37007874015748143 ) ;
#54 = DIRECTION ( 'NONE',  ( -1.000000000000000000, 0.000000000000000000, 0.000000000000000000 ) ) ;
#55 = VERTEX_POINT ( 'NONE', #171 ) ;
#56 =( GEOMETRIC_REPRESENTATION_CONTEXT ( 3 ) GLOBAL_UNCERTAINTY_ASSIGNED_CONTEXT ( ( #89 ) ) GLOBAL_UNIT_ASSIGNED_CONTEXT ( ( #151, #41, #21 ) ) REPRESENTATION_CONTEXT ( 'NONE', 'WORKASPACE' ) );
#57 = SURFACE_SIDE_STYLE ('',( #208 ) ) ;
#58 = ADVANCED_FACE ( 'NONE', ( #95 ), #283, .F. ) ;
#59 =( NAMED_UNIT ( * ) PLANE_ANGLE_UNIT ( ) SI_UNIT ( $, .RADIAN. ) );
#60 = DIRECTION ( 'NONE',  ( -1.000000000000000000, -3.768143997376474441E-17, 0.000000000000000000 ) ) ;
#61 = STYLED_ITEM ( 'NONE', ( #202 ), #33 ) ;
#62 =( NAMED_UNIT ( * ) PLANE_ANGLE_UNIT ( ) SI_UNIT ( $, .RADIAN. ) );
#63 = CIRCLE ( 'NONE', #108, 0.09375000000000001388 ) ;
#64 =( CONVERSION_BASED_UNIT ( 'INCH', #302 ) LENGTH_UNIT ( ) NAMED_UNIT ( #114 ) );
#65 = PRESENTATION_STYLE_ASSIGNMENT (( #214 ) ) ;
#66 = EDGE_LOOP ( 'NONE', ( #156, #19, #229, #29 ) ) ;
#67 = LINE ( 'NONE', #256, #178 ) ;
#68 =( LENGTH_UNIT ( ) NAMED_UNIT ( * ) SI_UNIT ( $, .METRE. ) );
#69 = SURFACE_SIDE_STYLE ('',( #122 ) ) ;
#70 = DIMENSIONAL_EXPONENTS ( 1.000000000000000000, 0.000000000000000000, 0.000000000000000000, 0.000000000000000000, 0.000000000000000000, 0.000000000000000000, 0.000000000000000000 ) ;
#71 = DIRECTION ( 'NONE',  ( -3.768143997376474441E-17, 1.000000000000000000, 0.000000000000000000 ) ) ;
#72 = AXIS2_PLACEMENT_3D ( 'NONE', #51, #22, #248 ) ;
#73 = LENGTH_MEASURE_WITH_UNIT ( LENGTH_MEASURE( 0.02539999999999999897 ), #43 );
#74 = DIRECTION ( 'NONE',  ( -1.000000000000000000, 0.000000000000000000, 0.000000000000000000 ) ) ;
#75 =( CONVERSION_BASED_UNIT ( 'INCH', #197 ) LENGTH_UNIT ( ) NAMED_UNIT ( #166 ) );
#76 =( NAMED_UNIT ( * ) SI_UNIT ( $, .STERADIAN. ) SOLID_ANGLE_UNIT ( ) );
#77 = CARTESIAN_POINT ( 'NONE',  ( -0.09375000000000013878, 3.000000000000000444, 0.000000000000000000 ) ) ;
#78 = ORIENTED_EDGE ( 'NONE', *, *, #161, .T. ) ;
#79 = FACE_OUTER_BOUND ( 'NONE', #309, .T. ) ;
#80 = AXIS2_PLACEMENT_3D ( 'NONE', #6, #240, #100 ) ;
#81 = ORIENTED_EDGE ( 'NONE', *, *, #148, .T. ) ;
#82 = PLANE ( 'NONE',  #84 ) ;
#83 = CARTESIAN_POINT ( 'NONE',  ( 0.09375000000000001388, 3.000000000000000444, 0.000000000000000000 ) ) ;
#84 = AXIS2_PLACEMENT_3D ( 'NONE', #251, #32, #228 ) ;
#85 = EDGE_CURVE ( 'NONE', #220, #191, #165, .T. ) ;
#86 = ADVANCED_FACE ( 'NONE', ( #241 ), #82, .T. ) ;
#87 = MECHANICAL_DESIGN_GEOMETRIC_PRESENTATION_REPRESENTATION (  '', ( #224 ), #30 ) ;
#88 = APPLICATION_CONTEXT ( 'automotive_design' ) ;
#89 = UNCERTAINTY_MEASURE_WITH_UNIT (LENGTH_MEASURE( 1.000000000000000082E-05 ), #151, 'distance_accuracy_value', 'NONE');
#90 = DIRECTION ( 'NONE',  ( -0.000000000000000000, -1.000000000000000000, -0.000000000000000000 ) ) ;
#91 = CIRCLE ( 'NONE', #269, 0.09375000000000001388 ) ;
#92 = FILL_AREA_STYLE ('',( #187 ) ) ;
#93 =( NAMED_UNIT ( * ) SI_UNIT ( $, .STERADIAN. ) SOLID_ANGLE_UNIT ( ) );
#94 = PRESENTATION_STYLE_ASSIGNMENT (( #301 ) ) ;
#95 = FACE_OUTER_BOUND ( 'NONE', #215, .T. ) ;
#96 =( LENGTH_UNIT ( ) NAMED_UNIT ( * ) SI_UNIT ( $, .METRE. ) );
#97 = FACE_OUTER_BOUND ( 'NONE', #48, .T. ) ;
#98 = LINE ( 'NONE', #140, #53 ) ;
#99 = CARTESIAN_POINT ( 'NONE',  ( 0.000000000000000000, 0.000000000000000000, -0.09375000000000001388 ) ) ;
#100 = DIRECTION ( 'NONE',  ( 0.000000000000000000, 0.000000000000000000, -1.000000000000000000 ) ) ;
#101 = AXIS2_PLACEMENT_3D ( 'NONE', #226, #162, #141 ) ;
#102 = ADVANCED_FACE ( 'NONE', ( #112 ), #26, .T. ) ;
#103 = ORIENTED_EDGE ( 'NONE', *, *, #15, .F. ) ;
#104 = VERTEX_POINT ( 'NONE', #77 ) ;
#105 = FACE_OUTER_BOUND ( 'NONE', #39, .T. ) ;
#106 = LINE ( 'NONE', #198, #23 ) ;
#107 = EDGE_CURVE ( 'NONE', #135, #271, #98, .T. ) ;
#108 = AXIS2_PLACEMENT_3D ( 'NONE', #306, #245, #24 ) ;
#109 = STYLED_ITEM ( 'NONE', ( #94 ), #267 ) ;
#110 = CARTESIAN_POINT ( 'NONE',  ( 0.09375000000000001388, 1.375000000000000000, 1.148106374200644325E-17 ) ) ;
#111 = ORIENTED_EDGE ( 'NONE', *, *, #182, .T. ) ;
#112 = FACE_OUTER_BOUND ( 'NONE', #66, .T. ) ;
#113 = MECHANICAL_DESIGN_GEOMETRIC_PRESENTATION_REPRESENTATION (  '', ( #37 ), #56 ) ;
#114 = DIMENSIONAL_EXPONENTS ( 1.000000000000000000, 0.000000000000000000, 0.000000000000000000, 0.000000000000000000, 0.000000000000000000, 0.000000000000000000, 0.000000000000000000 ) ;
#115 = FILL_AREA_STYLE ('',( #297 ) ) ;
#116 =( CONVERSION_BASED_UNIT ( 'INCH', #118 ) LENGTH_UNIT ( ) NAMED_UNIT ( #305 ) );
#117 = VERTEX_POINT ( 'NONE', #196 ) ;
#118 = LENGTH_MEASURE_WITH_UNIT ( LENGTH_MEASURE( 0.02539999999999999897 ), #210 );
#119 = SURFACE_STYLE_USAGE ( .BOTH. , #69 ) ;
#120 = CARTESIAN_POINT ( 'NONE',  ( 0.000000000000000000, 1.375000000000000000, -0.09375000000000001388 ) ) ;
#121 = UNCERTAINTY_MEASURE_WITH_UNIT (LENGTH_MEASURE( 1.000000000000000082E-05 ), #64, 'distance_accuracy_value', 'NONE');
#122 = SURFACE_STYLE_FILL_AREA ( #262 ) ;
#123 = COLOUR_RGB ( '',1.000000000000000000, 0.000000000000000000, 0.000000000000000000 ) ;
#124 = CIRCLE ( 'NONE', #181, 0.09375000000000006939 ) ;
#125 = DIRECTION ( 'NONE',  ( 0.000000000000000000, 0.000000000000000000, -1.000000000000000000 ) ) ;
#126 = ADVANCED_FACE ( 'NONE', ( #97 ), #152, .T. ) ;
#127 = FILL_AREA_STYLE ('',( #17 ) ) ;
#128 = SURFACE_STYLE_FILL_AREA ( #190 ) ;
#129 = SURFACE_STYLE_USAGE ( .BOTH. , #288 ) ;
#130 = PRESENTATION_LAYER_ASSIGNMENT (  '', '', ( #211 ) ) ;
#131 = DIRECTION ( 'NONE',  ( -0.000000000000000000, -1.000000000000000000, -0.000000000000000000 ) ) ;
#132 = DIRECTION ( 'NONE',  ( 1.000000000000000000, 0.000000000000000000, 0.000000000000000000 ) ) ;
#133 = SURFACE_STYLE_FILL_AREA ( #247 ) ;
#134 = DIRECTION ( 'NONE',  ( 3.768143997376474441E-17, -1.000000000000000000, 0.000000000000000000 ) ) ;
#135 = VERTEX_POINT ( 'NONE', #110 ) ;
#136 =( GEOMETRIC_REPRESENTATION_CONTEXT ( 3 ) GLOBAL_UNCERTAINTY_ASSIGNED_CONTEXT ( ( #121 ) ) GLOBAL_UNIT_ASSIGNED_CONTEXT ( ( #64, #159, #76 ) ) REPRESENTATION_CONTEXT ( 'NONE', 'WORKASPACE' ) );
#137 = MECHANICAL_DESIGN_GEOMETRIC_PRESENTATION_REPRESENTATION (  '', ( #211 ), #5 ) ;
#138 = ADVANCED_FACE ( 'NONE', ( #105 ), #204, .F. ) ;
#139 = CYLINDRICAL_SURFACE ( 'NONE', #101, 0.09375000000000004163 ) ;
#140 = CARTESIAN_POINT ( 'NONE',  ( 0.09374999999999997224, 3.000000000000000444, 1.148106374200644171E-17 ) ) ;
#141 = DIRECTION ( 'NONE',  ( -1.000000000000000000, 0.000000000000000000, 0.000000000000000000 ) ) ;
#142 = ADVANCED_FACE ( 'NONE', ( #31 ), #139, .T. ) ;
#143 = ADVANCED_BREP_SHAPE_REPRESENTATION ( '82391', ( #267, #167, #255 ), #173 ) ;
#144 = CIRCLE ( 'NONE', #303, 0.09375000000000001388 ) ;
#145 =( NAMED_UNIT ( * ) SI_UNIT ( $, .STERADIAN. ) SOLID_ANGLE_UNIT ( ) );
#146 = EDGE_CURVE ( 'NONE', #223, #55, #91, .T. ) ;
#147 = CARTESIAN_POINT ( 'NONE',  ( 0.000000000000000000, 0.000000000000000000, 0.000000000000000000 ) ) ;
#148 = EDGE_CURVE ( 'NONE', #135, #117, #144, .T. ) ;
#149 =( CONVERSION_BASED_UNIT ( 'INCH', #232 ) LENGTH_UNIT ( ) NAMED_UNIT ( #235 ) );
#150 = DIRECTION ( 'NONE',  ( 0.000000000000000000, 0.000000000000000000, -1.000000000000000000 ) ) ;
#151 =( CONVERSION_BASED_UNIT ( 'INCH', #73 ) LENGTH_UNIT ( ) NAMED_UNIT ( #35 ) );
#152 = CYLINDRICAL_SURFACE ( 'NONE', #50, 0.09375000000000004163 ) ;
#153 =( NAMED_UNIT ( * ) PLANE_ANGLE_UNIT ( ) SI_UNIT ( $, .RADIAN. ) );
#154 = PRESENTATION_STYLE_ASSIGNMENT (( #46 ) ) ;
#155 =( LENGTH_UNIT ( ) NAMED_UNIT ( * ) SI_UNIT ( $, .METRE. ) );
#156 = ORIENTED_EDGE ( 'NONE', *, *, #146, .T. ) ;
#157 = AXIS2_PLACEMENT_3D ( 'NONE', #222, #217, #246 ) ;
#158 = AXIS2_PLACEMENT_3D ( 'NONE', #193, #282, #150 ) ;
#159 =( NAMED_UNIT ( * ) PLANE_ANGLE_UNIT ( ) SI_UNIT ( $, .RADIAN. ) );
#160 = ORIENTED_EDGE ( 'NONE', *, *, #9, .T. ) ;
#161 = EDGE_CURVE ( 'NONE', #117, #104, #67, .T. ) ;
#162 = DIRECTION ( 'NONE',  ( -3.768143997376474441E-17, 1.000000000000000000, -0.000000000000000000 ) ) ;
#163 = ORIENTED_EDGE ( 'NONE', *, *, #3, .F. ) ;
#164 = UNCERTAINTY_MEASURE_WITH_UNIT (LENGTH_MEASURE( 1.000000000000000082E-05 ), #149, 'distance_accuracy_value', 'NONE');
#165 = CIRCLE ( 'NONE', #2, 0.09375000000000001388 ) ;
#166 = DIMENSIONAL_EXPONENTS ( 1.000000000000000000, 0.000000000000000000, 0.000000000000000000, 0.000000000000000000, 0.000000000000000000, 0.000000000000000000, 0.000000000000000000 ) ;
#167 = MANIFOLD_SOLID_BREP ( 'Revolve - Tool Body (Straight Shanked)', #291 ) ;
#168 = CIRCLE ( 'NONE', #80, 0.09375000000000001388 ) ;
#169 =( CONVERSION_BASED_UNIT ( 'INCH', #42 ) LENGTH_UNIT ( ) NAMED_UNIT ( #70 ) );
#170 = DIMENSIONAL_EXPONENTS ( 1.000000000000000000, 0.000000000000000000, 0.000000000000000000, 0.000000000000000000, 0.000000000000000000, 0.000000000000000000, 0.000000000000000000 ) ;
#171 = CARTESIAN_POINT ( 'NONE',  ( 1.148106374200643863E-17, 1.375000000000000000, 0.09375000000000001388 ) ) ;
#172 = SURFACE_SIDE_STYLE ('',( #307 ) ) ;
#173 =( GEOMETRIC_REPRESENTATION_CONTEXT ( 3 ) GLOBAL_UNCERTAINTY_ASSIGNED_CONTEXT ( ( #234 ) ) GLOBAL_UNIT_ASSIGNED_CONTEXT ( ( #75, #153, #20 ) ) REPRESENTATION_CONTEXT ( 'NONE', 'WORKASPACE' ) );
#174 = CARTESIAN_POINT ( 'NONE',  ( 0.000000000000000000, 0.000000000000000000, 0.000000000000000000 ) ) ;
#175 = DIRECTION ( 'NONE',  ( -1.000000000000000000, 0.000000000000000000, 0.000000000000000000 ) ) ;
#176 = ORIENTED_EDGE ( 'NONE', *, *, #107, .T. ) ;
#177 = CYLINDRICAL_SURFACE ( 'NONE', #199, 0.09375000000000001388 ) ;
#178 = VECTOR ( 'NONE', #180, 39.37007874015748143 ) ;
#179 = ORIENTED_EDGE ( 'NONE', *, *, #194, .T. ) ;
#180 = DIRECTION ( 'NONE',  ( -3.768143997376474441E-17, 1.000000000000000000, -0.000000000000000000 ) ) ;
#181 = AXIS2_PLACEMENT_3D ( 'NONE', #16, #265, #175 ) ;
#182 = EDGE_CURVE ( 'NONE', #55, #223, #168, .T. ) ;
#183 = ORIENTED_EDGE ( 'NONE', *, *, #182, .F. ) ;
#184 = UNCERTAINTY_MEASURE_WITH_UNIT (LENGTH_MEASURE( 1.000000000000000082E-05 ), #242, 'distance_accuracy_value', 'NONE');
#185 =( LENGTH_UNIT ( ) NAMED_UNIT ( * ) SI_UNIT ( $, .METRE. ) );
#186 = PRODUCT ( '82391', '82391', '', ( #221 ) ) ;
#187 = FILL_AREA_STYLE_COLOUR ( '', #287 ) ;
#188 = DIRECTION ( 'NONE',  ( -0.000000000000000000, -1.000000000000000000, -0.000000000000000000 ) ) ;
#189 = MECHANICAL_DESIGN_GEOMETRIC_PRESENTATION_REPRESENTATION (  '', ( #295 ), #136 ) ;
#190 = FILL_AREA_STYLE ('',( #18 ) ) ;
#191 = VERTEX_POINT ( 'NONE', #216 ) ;
#192 = PRODUCT_DEFINITION_CONTEXT ( 'detailed design', #88, 'design' ) ;
#193 = CARTESIAN_POINT ( 'NONE',  ( 0.000000000000000000, 0.000000000000000000, 0.000000000000000000 ) ) ;
#194 = EDGE_CURVE ( 'NONE', #271, #104, #124, .T. ) ;
#195 =( NAMED_UNIT ( * ) PLANE_ANGLE_UNIT ( ) SI_UNIT ( $, .RADIAN. ) );
#196 = CARTESIAN_POINT ( 'NONE',  ( -0.09375000000000001388, 1.375000000000000000, 0.000000000000000000 ) ) ;
#197 = LENGTH_MEASURE_WITH_UNIT ( LENGTH_MEASURE( 0.02539999999999999897 ), #96 );
#198 = CARTESIAN_POINT ( 'NONE',  ( 1.148106374200643863E-17, 0.000000000000000000, 0.09375000000000001388 ) ) ;
#199 = AXIS2_PLACEMENT_3D ( 'NONE', #147, #90, #125 ) ;
#200 = EDGE_LOOP ( 'NONE', ( #281, #176, #207, #268 ) ) ;
#201 = DIRECTION ( 'NONE',  ( -0.000000000000000000, -1.000000000000000000, -0.000000000000000000 ) ) ;
#202 = PRESENTATION_STYLE_ASSIGNMENT (( #129 ) ) ;
#203 = CLOSED_SHELL ( 'NONE', ( #102, #86, #33, #36 ) ) ;
#204 = PLANE ( 'NONE',  #231 ) ;
#205 = ORIENTED_EDGE ( 'NONE', *, *, #85, .T. ) ;
#206 = VECTOR ( 'NONE', #131, 39.37007874015748143 ) ;
#207 = ORIENTED_EDGE ( 'NONE', *, *, #25, .F. ) ;
#208 = SURFACE_STYLE_FILL_AREA ( #115 ) ;
#209 = SURFACE_SIDE_STYLE ('',( #213 ) ) ;
#210 =( LENGTH_UNIT ( ) NAMED_UNIT ( * ) SI_UNIT ( $, .METRE. ) );
#211 = STYLED_ITEM ( 'NONE', ( #65 ), #167 ) ;
#212 = DIRECTION ( 'NONE',  ( 0.000000000000000000, -1.000000000000000000, -0.000000000000000000 ) ) ;
#213 = SURFACE_STYLE_FILL_AREA ( #127 ) ;
#214 = SURFACE_STYLE_USAGE ( .BOTH. , #280 ) ;
#215 = EDGE_LOOP ( 'NONE', ( #163, #308 ) ) ;
#216 = CARTESIAN_POINT ( 'NONE',  ( 1.148106374200643863E-17, 0.000000000000000000, 0.09375000000000001388 ) ) ;
#217 = DIRECTION ( 'NONE',  ( -0.000000000000000000, -1.000000000000000000, -0.000000000000000000 ) ) ;
#218 = COLOUR_RGB ( '',1.000000000000000000, 0.000000000000000000, 0.000000000000000000 ) ;
#219 = APPLICATION_CONTEXT ( 'automotive_design' ) ;
#220 = VERTEX_POINT ( 'NONE', #44 ) ;
#221 = PRODUCT_CONTEXT ( 'NONE', #219, 'mechanical' ) ;
#222 = CARTESIAN_POINT ( 'NONE',  ( 0.000000000000000000, 0.000000000000000000, 0.000000000000000000 ) ) ;
#223 = VERTEX_POINT ( 'NONE', #120 ) ;
#224 = STYLED_ITEM ( 'NONE', ( #258 ), #102 ) ;
#225 = PRESENTATION_LAYER_ASSIGNMENT (  '', '', ( #109 ) ) ;
#226 = CARTESIAN_POINT ( 'NONE',  ( -6.123233995736772199E-17, 3.000000000000000444, 0.000000000000000000 ) ) ;
#227 = CARTESIAN_POINT ( 'NONE',  ( 0.000000000000000000, 1.375000000000000000, 0.000000000000000000 ) ) ;
#228 = DIRECTION ( 'NONE',  ( 0.000000000000000000, -0.000000000000000000, 1.000000000000000000 ) ) ;
#229 = ORIENTED_EDGE ( 'NONE', *, *, #85, .F. ) ;
#230 = PRODUCT_DEFINITION_SHAPE ( 'NONE', 'NONE',  #243 ) ;
#231 = AXIS2_PLACEMENT_3D ( 'NONE', #83, #134, #250 ) ;
#232 = LENGTH_MEASURE_WITH_UNIT ( LENGTH_MEASURE( 0.02539999999999999897 ), #185 );
#233 = DIRECTION ( 'NONE',  ( -3.768143997376474441E-17, 1.000000000000000000, -0.000000000000000000 ) ) ;
#234 = UNCERTAINTY_MEASURE_WITH_UNIT (LENGTH_MEASURE( 1.000000000000000082E-05 ), #75, 'distance_accuracy_value', 'NONE');
#235 = DIMENSIONAL_EXPONENTS ( 1.000000000000000000, 0.000000000000000000, 0.000000000000000000, 0.000000000000000000, 0.000000000000000000, 0.000000000000000000, 0.000000000000000000 ) ;
#236 =( NAMED_UNIT ( * ) PLANE_ANGLE_UNIT ( ) SI_UNIT ( $, .RADIAN. ) );
#237 = CARTESIAN_POINT ( 'NONE',  ( 0.000000000000000000, 0.000000000000000000, 0.000000000000000000 ) ) ;
#238 = MECHANICAL_DESIGN_GEOMETRIC_PRESENTATION_REPRESENTATION (  '', ( #61 ), #286 ) ;
#239 =( GEOMETRIC_REPRESENTATION_CONTEXT ( 3 ) GLOBAL_UNCERTAINTY_ASSIGNED_CONTEXT ( ( #8 ) ) GLOBAL_UNIT_ASSIGNED_CONTEXT ( ( #169, #62, #260 ) ) REPRESENTATION_CONTEXT ( 'NONE', 'WORKASPACE' ) );
#240 = DIRECTION ( 'NONE',  ( -0.000000000000000000, -1.000000000000000000, -0.000000000000000000 ) ) ;
#241 = FACE_OUTER_BOUND ( 'NONE', #253, .T. ) ;
#242 =( CONVERSION_BASED_UNIT ( 'INCH', #47 ) LENGTH_UNIT ( ) NAMED_UNIT ( #170 ) );
#243 = PRODUCT_DEFINITION ( 'UNKNOWN', '', #292, #192 ) ;
#244 = AXIS2_PLACEMENT_3D ( 'NONE', #300, #71, #60 ) ;
#245 = DIRECTION ( 'NONE',  ( -3.768143997376474441E-17, 1.000000000000000000, -0.000000000000000000 ) ) ;
#246 = DIRECTION ( 'NONE',  ( 0.000000000000000000, 0.000000000000000000, -1.000000000000000000 ) ) ;
#247 = FILL_AREA_STYLE ('',( #270 ) ) ;
#248 = DIRECTION ( 'NONE',  ( -1.000000000000000000, 0.000000000000000000, 0.000000000000000000 ) ) ;
#249 = CIRCLE ( 'NONE', #72, 0.09375000000000006939 ) ;
#250 = DIRECTION ( 'NONE',  ( 1.000000000000000000, 3.768143997376474441E-17, 0.000000000000000000 ) ) ;
#251 = CARTESIAN_POINT ( 'NONE',  ( 0.000000000000000000, 1.375000000000000000, 0.000000000000000000 ) ) ;
#252 = ORIENTED_EDGE ( 'NONE', *, *, #146, .F. ) ;
#253 = EDGE_LOOP ( 'NONE', ( #252, #183 ) ) ;
#254 = PRESENTATION_LAYER_ASSIGNMENT (  '', '', ( #61 ) ) ;
#255 = AXIS2_PLACEMENT_3D ( 'NONE', #237, #49, #132 ) ;
#256 = CARTESIAN_POINT ( 'NONE',  ( -0.09375000000000011102, 3.000000000000000444, 0.000000000000000000 ) ) ;
#257 =( NAMED_UNIT ( * ) SI_UNIT ( $, .STERADIAN. ) SOLID_ANGLE_UNIT ( ) );
#258 = PRESENTATION_STYLE_ASSIGNMENT (( #10 ) ) ;
#259 = PRESENTATION_LAYER_ASSIGNMENT (  '', '', ( #37 ) ) ;
#260 =( NAMED_UNIT ( * ) SI_UNIT ( $, .STERADIAN. ) SOLID_ANGLE_UNIT ( ) );
#261 = APPLICATION_PROTOCOL_DEFINITION ( 'draft international standard', 'automotive_design', 1998, #219 ) ;
#262 = FILL_AREA_STYLE ('',( #277 ) ) ;
#263 = CARTESIAN_POINT ( 'NONE',  ( 0.000000000000000000, 0.000000000000000000, 0.000000000000000000 ) ) ;
#264 = PRESENTATION_LAYER_ASSIGNMENT (  '', '', ( #224 ) ) ;
#265 = DIRECTION ( 'NONE',  ( -3.768143997376474441E-17, 1.000000000000000000, -0.000000000000000000 ) ) ;
#266 = DIRECTION ( 'NONE',  ( 0.000000000000000000, 0.000000000000000000, -1.000000000000000000 ) ) ;
#267 = MANIFOLD_SOLID_BREP ( 'Revolve - Cutting Edge', #203 ) ;
#268 = ORIENTED_EDGE ( 'NONE', *, *, #161, .F. ) ;
#269 = AXIS2_PLACEMENT_3D ( 'NONE', #227, #12, #1 ) ;
#270 = FILL_AREA_STYLE_COLOUR ( '', #123 ) ;
#271 = VERTEX_POINT ( 'NONE', #11 ) ;
#272 = DIRECTION ( 'NONE',  ( -3.768143997376474441E-17, 1.000000000000000000, -0.000000000000000000 ) ) ;
#273 = AXIS2_PLACEMENT_3D ( 'NONE', #263, #212, #266 ) ;
#274 = CIRCLE ( 'NONE', #158, 0.09375000000000001388 ) ;
#275 = CARTESIAN_POINT ( 'NONE',  ( 0.000000000000000000, 1.375000000000000000, 0.000000000000000000 ) ) ;
#276 = COLOUR_RGB ( '',1.000000000000000000, 0.000000000000000000, 0.000000000000000000 ) ;
#277 = FILL_AREA_STYLE_COLOUR ( '', #276 ) ;
#278 = PRESENTATION_LAYER_ASSIGNMENT (  '', '', ( #295 ) ) ;
#279 = FACE_OUTER_BOUND ( 'NONE', #294, .T. ) ;
#280 = SURFACE_SIDE_STYLE ('',( #128 ) ) ;
#281 = ORIENTED_EDGE ( 'NONE', *, *, #3, .T. ) ;
#282 = DIRECTION ( 'NONE',  ( -0.000000000000000000, -1.000000000000000000, -0.000000000000000000 ) ) ;
#283 = PLANE ( 'NONE',  #244 ) ;
#284 = CARTESIAN_POINT ( 'NONE',  ( -6.123233995736772199E-17, 3.000000000000000444, 0.000000000000000000 ) ) ;
#285 = DIRECTION ( 'NONE',  ( -3.768143997376474441E-17, 1.000000000000000000, -0.000000000000000000 ) ) ;
#286 =( GEOMETRIC_REPRESENTATION_CONTEXT ( 3 ) GLOBAL_UNCERTAINTY_ASSIGNED_CONTEXT ( ( #184 ) ) GLOBAL_UNIT_ASSIGNED_CONTEXT ( ( #242, #195, #93 ) ) REPRESENTATION_CONTEXT ( 'NONE', 'WORKASPACE' ) );
#287 = COLOUR_RGB ( '',0.7921568627450980005, 0.8196078431372548767, 0.9333333333333333481 ) ;
#288 = SURFACE_SIDE_STYLE ('',( #133 ) ) ;
#289 = ORIENTED_EDGE ( 'NONE', *, *, #107, .F. ) ;
#290 = LINE ( 'NONE', #99, #206 ) ;
#291 = CLOSED_SHELL ( 'NONE', ( #142, #58, #126, #138 ) ) ;
#292 = PRODUCT_DEFINITION_FORMATION_WITH_SPECIFIED_SOURCE ( 'ANY', '', #186, .NOT_KNOWN. ) ;
#293 = SHAPE_DEFINITION_REPRESENTATION ( #230, #143 ) ;
#294 = EDGE_LOOP ( 'NONE', ( #205, #27 ) ) ;
#295 = STYLED_ITEM ( 'NONE', ( #154 ), #86 ) ;
#296 = MECHANICAL_DESIGN_GEOMETRIC_PRESENTATION_REPRESENTATION (  '', ( #109 ), #239 ) ;
#297 = FILL_AREA_STYLE_COLOUR ( '', #218 ) ;
#298 = EDGE_CURVE ( 'NONE', #191, #220, #274, .T. ) ;
#299 = PRODUCT_RELATED_PRODUCT_CATEGORY ( 'part', '', ( #186 ) ) ;
#300 = CARTESIAN_POINT ( 'NONE',  ( 6.655738680452043190E-35, 1.375000000000000000, 0.000000000000000000 ) ) ;
#301 = SURFACE_STYLE_USAGE ( .BOTH. , #172 ) ;
#302 = LENGTH_MEASURE_WITH_UNIT ( LENGTH_MEASURE( 0.02539999999999999897 ), #38 );
#303 = AXIS2_PLACEMENT_3D ( 'NONE', #275, #285, #74 ) ;
#304 = PRESENTATION_STYLE_ASSIGNMENT (( #119 ) ) ;
#305 = DIMENSIONAL_EXPONENTS ( 1.000000000000000000, 0.000000000000000000, 0.000000000000000000, 0.000000000000000000, 0.000000000000000000, 0.000000000000000000, 0.000000000000000000 ) ;
#306 = CARTESIAN_POINT ( 'NONE',  ( 0.000000000000000000, 1.375000000000000000, 0.000000000000000000 ) ) ;
#307 = SURFACE_STYLE_FILL_AREA ( #92 ) ;
#308 = ORIENTED_EDGE ( 'NONE', *, *, #148, .F. ) ;
#309 = EDGE_LOOP ( 'NONE', ( #103, #111, #160, #52 ) ) ;
ENDSEC;
END-ISO-10303-21;
